  0
SECTION
  2
HEADER
  9
$ACADVER
  1
AC1009
  9
$INSBASE
 10
0.0
 20
0.0
 30
0.0
  9
$EXTMIN
 10
-44.001658528033538
 20
-21.457083043743069
 30
-0.0000000000112498
  9
$EXTMAX
 10
22.00487295258608
 20
47.009117997180681
 30
0.0000000000002956
  9
$LIMMIN
 10
0.0
 20
0.0
  9
$LIMMAX
 10
297.0
 20
210.0
  9
$ORTHOMODE
 70
     0
  9
$REGENMODE
 70
     1
  9
$FILLMODE
 70
     1
  9
$QTEXTMODE
 70
     0
  9
$MIRRTEXT
 70
     1
  9
$DRAGMODE
 70
     2
  9
$LTSCALE
 40
10.0
  9
$OSMODE
 70
   639
  9
$ATTMODE
 70
     1
  9
$TEXTSIZE
 40
3.0
  9
$TRACEWID
 40
1.0
  9
$TEXTSTYLE
  7
YOKO
  9
$CLAYER
  8
240
  9
$CELTYPE
  6
BYLAYER
  9
$CECOLOR
 62
   256
  9
$DIMSCALE
 40
1.0
  9
$DIMASZ
 40
2.2299999999999991
  9
$DIMEXO
 40
0.5
  9
$DIMDLI
 40
2.5
  9
$DIMRND
 40
0.0
  9
$DIMDLE
 40
0.0
  9
$DIMEXE
 40
1.0
  9
$DIMTP
 40
0.0
  9
$DIMTM
 40
0.0
  9
$DIMTXT
 40
3.0
  9
$DIMCEN
 40
0.0
  9
$DIMTSZ
 40
0.0
  9
$DIMTOL
 70
     0
  9
$DIMLIM
 70
     0
  9
$DIMTIH
 70
     0
  9
$DIMTOH
 70
     0
  9
$DIMSE1
 70
     0
  9
$DIMSE2
 70
     0
  9
$DIMTAD
 70
     3
  9
$DIMZIN
 70
     8
  9
$DIMBLK
  1
OPEN
  9
$DIMASO
 70
     1
  9
$DIMSHO
 70
     1
  9
$DIMPOST
  1

  9
$DIMAPOST
  1

  9
$DIMALT
 70
     0
  9
$DIMALTD
 70
     2
  9
$DIMALTF
 40
25.399999999999999
  9
$DIMLFAC
 40
1.0
  9
$DIMTOFL
 70
     1
  9
$DIMTVP
 40
0.0
  9
$DIMTIX
 70
     0
  9
$DIMSOXD
 70
     0
  9
$DIMSAH
 70
     0
  9
$DIMBLK1
  1

  9
$DIMBLK2
  1

  9
$DIMSTYLE
  2
BIGT
  9
$DIMCLRD
 70
   256
  9
$DIMCLRE
 70
   256
  9
$DIMCLRT
 70
    40
  9
$DIMTFAC
 40
1.0
  9
$DIMGAP
 40
1.0
  9
$LUNITS
 70
     2
  9
$LUPREC
 70
     2
  9
$SKETCHINC
 40
1.0
  9
$FILLETRAD
 40
0.0
  9
$AUNITS
 70
     0
  9
$AUPREC
 70
     3
  9
$MENU
  1
.
  9
$ELEVATION
 40
0.0
  9
$PELEVATION
 40
0.0
  9
$THICKNESS
 40
0.0
  9
$LIMCHECK
 70
     0
  9
$BLIPMODE
 70
     0
  9
$CHAMFERA
 40
10.0
  9
$CHAMFERB
 40
10.0
  9
$SKPOLY
 70
     0
  9
$TDCREATE
 40
2452880.4648967362
  9
$TDUPDATE
 40
2453612.6867187498
  9
$TDINDWG
 40
0.0331090741
  9
$TDUSRTIMER
 40
0.0331090741
  9
$USRTIMER
 70
     1
  9
$ANGBASE
 50
0.0
  9
$ANGDIR
 70
     0
  9
$PDMODE
 70
    35
  9
$PDSIZE
 40
2.0
  9
$PLINEWID
 40
0.0
  9
$COORDS
 70
     2
  9
$SPLFRAME
 70
     0
  9
$SPLINETYPE
 70
     6
  9
$SPLINESEGS
 70
     8
  9
$ATTDIA
 70
     1
  9
$ATTREQ
 70
     1
  9
$HANDLING
 70
     1
  9
$HANDSEED
  5
1D12
  9
$SURFTAB1
 70
     6
  9
$SURFTAB2
 70
     6
  9
$SURFTYPE
 70
     6
  9
$SURFU
 70
     6
  9
$SURFV
 70
     6
  9
$UCSNAME
  2

  9
$UCSORG
 10
0.0
 20
0.0
 30
0.0
  9
$UCSXDIR
 10
1.0
 20
0.0
 30
0.0
  9
$UCSYDIR
 10
0.0
 20
1.0
 30
0.0
  9
$PUCSNAME
  2

  9
$PUCSORG
 10
0.0
 20
0.0
 30
0.0
  9
$PUCSXDIR
 10
1.0
 20
0.0
 30
0.0
  9
$PUCSYDIR
 10
0.0
 20
1.0
 30
0.0
  9
$USERI1
 70
     1
  9
$USERI2
 70
     0
  9
$USERI3
 70
     0
  9
$USERI4
 70
     0
  9
$USERI5
 70
     0
  9
$USERR1
 40
0.0
  9
$USERR2
 40
0.0
  9
$USERR3
 40
0.0
  9
$USERR4
 40
0.0
  9
$USERR5
 40
0.0
  9
$WORLDVIEW
 70
     1
  9
$SHADEDGE
 70
     3
  9
$SHADEDIF
 70
    70
  9
$TILEMODE
 70
     1
  9
$MAXACTVP
 70
    16
  9
$PLIMCHECK
 70
     0
  9
$PEXTMIN
 10
1.0000000000000000E+020
 20
1.0000000000000000E+020
 30
1.0000000000000000E+020
  9
$PEXTMAX
 10
-1.0000000000000000E+020
 20
-1.0000000000000000E+020
 30
-1.0000000000000000E+020
  9
$PLIMMIN
 10
0.0
 20
0.0
  9
$PLIMMAX
 10
420.0
 20
297.0
  9
$UNITMODE
 70
     0
  9
$VISRETAIN
 70
     0
  9
$PLINEGEN
 70
     0
  9
$PSLTSCALE
 70
     1
  0
ENDSEC
  0
SECTION
  2
TABLES
  0
TABLE
  2
VPORT
 70
    49
  0
VPORT
  2
*ACTIVE
 70
     0
 10
0.0
 20
0.0
 11
1.0
 21
1.0
 12
-10.998392787723731
 22
12.776017476718801
 13
0.0
 23
0.0
 14
7.0
 24
7.0
 15
7.0
 25
7.0
 16
0.0
 26
0.0
 36
1.0
 17
0.0
 27
0.0
 37
0.0
 40
68.870131430545712
 41
1.5029527559055109
 42
50.0
 43
0.0
 44
0.0
 50
0.0
 51
0.0
 71
     0
 72
  2000
 73
     1
 74
     0
 75
     0
 76
     0
 77
     0
 78
     0
  0
ENDTAB
  0
TABLE
  2
LTYPE
 70
    19
  0
LTYPE
  2
CONTINUOUS
 70
     0
  3
Solid line
 72
    65
 73
     0
 40
0.0
  0
LTYPE
  2
CENTER2
 70
     0
  3
___ _ ___ _ ___ _ ___ _ ___ _ ___ _ ___ _ ___ _
 72
    65
 73
     4
 40
1.125
 49
0.75
 49
-0.125
 49
0.125
 49
-0.125
  0
LTYPE
  2
HIDDEN2
 70
     0
  3
_ _ _ _ _ _ _ _ _ _ _ _ _ _ _ _ _ _ _ _ _ _ _ _
 72
    65
 73
     2
 40
0.1875
 49
0.125
 49
-0.0625
  0
LTYPE
  2
HIDDEN
 70
     0
  3
Hidden __ __ __ __ __ __ __ __ __ __ __ __ __ _
 72
    65
 73
     2
 40
9.5249999999999986
 49
6.3499999999999979
 49
-3.174999999999998
  0
LTYPE
  2
PHANTOM2
 70
     0
  3
Phantom (.5x) ___ _ _ ___ _ _ ___ _ _ ___ _ _
 72
    65
 73
     6
 40
31.75
 49
15.875
 49
-3.174999999999998
 49
3.174999999999998
 49
-3.174999999999998
 49
3.174999999999998
 49
-3.174999999999998
  0
LTYPE
  2
CENTER
 70
     0
  3
Center ____ _ ____ _ ____ _ ____ _ ____ _ ____
 72
    65
 73
     4
 40
50.799999999999997
 49
31.75
 49
-6.3499999999999979
 49
6.3499999999999979
 49
-6.3499999999999979
  0
LTYPE
  2
AMCONSTR
 70
     0
  3
_______________________
 72
    65
 73
     2
 40
9999.0
 49
9999.0
 49
0.0
  0
LTYPE
  2
AMZIGZAG2
 70
     0
  3
/\/-/\/-/\/-/\/-/\/-/\/
 72
    65
 73
     2
 40
0.4401
 49
0.0001
 49
-0.4400000000000001
  0
LTYPE
  2
ACANSTGB
 70
     0
  3
__ . . __ . .
 72
    65
 73
     6
 40
0.35433070866
 49
0.15748031496
 49
-0.03937007874
 49
0.03937007874
 49
-0.03937007874
 49
0.03937007874
 49
-0.03937007874
  0
LTYPE
  2
ACANSTGL
 70
     0
  3
_ _ _ _ _
 72
    65
 73
     2
 40
0.11811023622
 49
0.07874015748
 49
-0.03937007874
  0
ENDTAB
  0
TABLE
  2
LAYER
 70
     8
  0
LAYER
  2
0
 70
     0
 62
     7
  6
CONTINUOUS
  0
LAYER
  2
240
 70
     0
 62
     4
  6
CONTINUOUS
  0
LAYER
  2
241
 70
     0
 62
   211
  6
CONTINUOUS
  0
LAYER
  2
243
 70
     0
 62
   211
  6
HIDDEN2
  0
LAYER
  2
245
 70
     0
 62
     2
  6
CENTER2
  0
LAYER
  2
250
 70
     0
 62
     3
  6
CONTINUOUS
  0
LAYER
  2
DEFPOINTS
 70
     0
 62
     7
  6
CONTINUOUS
  0
ENDTAB
  0
TABLE
  2
STYLE
 70
     7
  0
STYLE
  2
STANDARD
 70
     0
 40
0.0
 41
1.0
 50
0.0
 71
     0
 42
3.0
  3
romans.shx
  4
BIGFONT.SHX
  0
STYLE
  2
YOKO
 70
     0
 40
0.0
 41
1.0
 50
0.0
 71
     0
 42
3.0
  3
romans.shx
  4
extfont.shx
  0
STYLE
  2

 70
     1
 40
0.0
 41
1.0
 50
0.0
 71
     0
 42
3.0
  3
ltypeshp.shx
  4

  0
STYLE
  2
ACANSTS
 70
     0
 40
1.0
 41
1.0
 50
0.0
 71
     0
 42
3.0
  3
romans.shx
  4
extfont.shx
  0
STYLE
  2
ACANSGDT
 70
     0
 40
0.0
 41
1.0
 50
0.0
 71
     0
 42
3.0
  3
amgdtans.shx
  4

  0
ENDTAB
  0
TABLE
  2
VIEW
 70
     0
  0
ENDTAB
  0
TABLE
  2
UCS
 70
     0
  0
ENDTAB
  0
TABLE
  2
APPID
 70
    16
  0
APPID
  2
ACAD
 70
     0
  0
APPID
  2
GLOBAL
 70
     0
  0
APPID
  2
DETAIL
 70
     0
  0
APPID
  2
GRPNAME
 70
     0
  0
APPID
  2
GPARA
 70
     0
  0
APPID
  2
ITEMNAME
 70
     0
  0
APPID
  2
MCAD_NO_VIS
 70
     0
  0
APPID
  2
ACAD_TEMP_GRAPHIC
 70
     0
  0
APPID
  2
AD_DRAW
 70
     0
  0
APPID
  2
ACATTRIBSERVICES
 70
     0
  0
APPID
  2
DESIGNERASSEMBLIES
 70
     0
  0
APPID
  2
ACADM_DIM_EDIT
 70
     0
  0
APPID
  2
AMDT_DM_ADJ
 70
     0
  0
APPID
  2
GENIUS_GENSCREG_15
 70
     0
  0
APPID
  2
GENIUS_GENOBJ-N-SDF_13
 70
     0
  0
APPID
  2
GENIUS_GENODEF_13
 70
     0
  0
ENDTAB
  0
TABLE
  2
DIMSTYLE
 70
    15
  0
DIMSTYLE
  2
STANDARD
 70
     0
  3

  4

  5

  6

  7

 40
1.0
 41
2.0
 42
2.0
 43
3.75
 44
2.0
 45
0.0
 46
0.0
 47
0.0
 48
0.0
140
4.0
141
0.09
142
0.0
143
25.399999999999999
144
1.0
145
0.0
146
1.0
147
1.0
 71
     0
 72
     0
 73
     1
 74
     1
 75
     0
 76
     0
 77
     0
 78
     8
170
     0
171
     2
172
     0
173
     1
174
     0
175
     0
176
   256
177
   256
178
   256
  0
DIMSTYLE
  2
BIGT
 70
     0
  3

  4

  5

  6

  7

 40
1.0
 41
2.2299999999999991
 42
0.5
 43
2.5
 44
1.0
 45
0.0
 46
0.0
 47
0.0
 48
0.0
140
3.5
141
0.0
142
0.0
143
25.399999999999999
144
1.0
145
0.0
146
1.0
147
1.0
 71
     0
 72
     0
 73
     0
 74
     0
 75
     0
 76
     0
 77
     3
 78
     9
170
     0
171
     2
172
     1
173
     0
174
     0
175
     0
176
   256
177
   256
178
    40
  0
DIMSTYLE
  2
AM_ANSI
 70
     0
  3

  4
mm
  5

  6

  7

 40
1.0
 41
0.1
 42
0.05
 43
0.5
 44
0.1
 45
0.0
 46
0.0
 47
0.1
 48
0.1
140
0.12
141
0.0
142
0.0
143
25.399999999999999
144
1.0
145
0.0
146
0.71
147
0.06
 71
     0
 72
     0
 73
     1
 74
     1
 75
     0
 76
     0
 77
     0
 78
     7
170
     0
171
     2
172
     0
173
     0
174
     0
175
     0
176
   256
177
   256
178
     2
  0
DIMSTYLE
  2
AM_ANSI$3
 70
     0
  3

  4
mm
  5

  6

  7

 40
1.0
 41
0.1
 42
0.05
 43
0.5
 44
0.1
 45
0.0
 46
0.0
 47
0.1
 48
0.1
140
0.12
141
0.0
142
0.0
143
25.399999999999999
144
1.0
145
0.0
146
0.71
147
0.06
 71
     0
 72
     0
 73
     1
 74
     1
 75
     0
 76
     0
 77
     0
 78
     7
170
     0
171
     2
172
     0
173
     0
174
     0
175
     0
176
   256
177
   256
178
     2
  0
DIMSTYLE
  2
AM_ANSI$4
 70
     0
  3

  4
mm
  5

  6

  7

 40
1.0
 41
0.1
 42
0.05
 43
0.5
 44
0.1
 45
0.0
 46
0.0
 47
0.1
 48
0.1
140
0.12
141
0.0
142
0.0
143
25.399999999999999
144
1.0
145
0.0
146
0.71
147
0.06
 71
     0
 72
     0
 73
     1
 74
     1
 75
     0
 76
     0
 77
     0
 78
     7
170
     0
171
     2
172
     0
173
     0
174
     0
175
     0
176
   256
177
   256
178
     2
  0
DIMSTYLE
  2
AM_ANSI$7
 70
     0
  3

  4
mm
  5

  6

  7

 40
1.0
 41
0.1
 42
0.05
 43
0.5
 44
0.1
 45
0.0
 46
0.0
 47
0.1
 48
0.1
140
0.24
141
0.0
142
0.0
143
25.399999999999999
144
1.0
145
0.0
146
0.71
147
0.06
 71
     0
 72
     0
 73
     1
 74
     1
 75
     0
 76
     0
 77
     0
 78
     7
170
     0
171
     2
172
     0
173
     0
174
     0
175
     0
176
   256
177
   256
178
     2
  0
DIMSTYLE
  2
AM_ANSI$SF
 70
     0
  3

  4
mm
  5

  6

  7

 40
1.0
 41
0.1
 42
0.05
 43
0.5
 44
0.1
 45
0.0
 46
0.0
 47
0.1
 48
0.1
140
0.12
141
0.0
142
0.0
143
25.399999999999999
144
1.0
145
0.0
146
0.71
147
0.06
 71
     0
 72
     0
 73
     1
 74
     1
 75
     1
 76
     1
 77
     0
 78
     7
170
     0
171
     2
172
     0
173
     0
174
     0
175
     0
176
   256
177
   256
178
     2
  0
DIMSTYLE
  2
AM_ANSI$SH
 70
     0
  3

  4
mm
  5

  6
GENAXEH
  7

 40
1.0
 41
0.1
 42
0.05
 43
0.5
 44
0.1
 45
0.0
 46
0.0
 47
0.1
 48
0.1
140
0.12
141
0.0
142
0.0
143
25.399999999999999
144
1.0
145
0.0
146
0.71
147
0.06
 71
     0
 72
     0
 73
     1
 74
     1
 75
     1
 76
     1
 77
     0
 78
     7
170
     0
171
     2
172
     0
173
     1
174
     0
175
     0
176
   256
177
   256
178
     2
  0
ENDTAB
  0
ENDSEC
  0
SECTION
  2
BLOCKS
  0
BLOCK
  8
0
  2
$MODEL_SPACE
 70
     0
 10
0.0
 20
0.0
 30
0.0
  3
$MODEL_SPACE
  1

  0
ENDBLK
  5
1B26
  8
0
  0
BLOCK
 67
     1
  8
0
  2
$PAPER_SPACE
 70
     0
 10
0.0
 20
0.0
 30
0.0
  3
$PAPER_SPACE
  1

  0
ENDBLK
  5
1B22
 67
     1
  8
0
  0
BLOCK
  8
0
  2
_OPEN
 70
     0
 10
0.0
 20
0.0
 30
0.0
  3
_OPEN
  1

  0
LINE
  5
595
  8
0
  6
BYBLOCK
 62
     0
 10
-1.0
 20
0.1666666666666666
 30
0.0
 11
0.0
 21
0.0
 31
0.0
  0
LINE
  5
596
  8
0
  6
BYBLOCK
 62
     0
 10
-1.0
 20
-0.1666666666666666
 30
0.0
 11
0.0
 21
0.0
 31
0.0
  0
LINE
  5
597
  8
0
  6
BYBLOCK
 62
     0
 10
0.0
 20
0.0
 30
0.0
 11
-1.0
 21
0.0
 31
0.0
  0
ENDBLK
  5
599
  8
0
  0
BLOCK
  8
0
  2
GENAXEH
 70
     0
 10
0.0
 20
0.0
 30
0.0
  3
GENAXEH
  1

  0
LINE
  5
1AA1
  8
0
 10
-1.0
 20
0.0
 30
0.0
 11
1.0
 21
0.0
 31
0.0
  0
ENDBLK
  5
1AA3
  8
0
  0
BLOCK
  8
0
  2
A$C1B8D33D6
 70
     0
 10
0.0
 20
0.0
 30
0.0
  3
A$C1B8D33D6
  1

  0
LINE
  5
1C9F
  8
243
 10
-19.0
 20
-1.7499999999999989
 30
0.0
 11
-7.0
 21
-1.75
 31
0.0
1001
GRPNAME
1000
PASTMDCT
  0
LINE
  5
1CA0
  8
243
 10
-19.0
 20
1.7499999999999989
 30
0.0
 11
-7.0
 21
1.75
 31
0.0
1001
GRPNAME
1000
PASTMDCT
  0
ARC
  5
1CA1
  8
240
 10
-0.5475346408524047
 20
6.0138048535970059
 30
0.0
 40
0.5000000000000605
 50
14.99999974161501
 51
19.562198659191552
1001
GRPNAME
1000
PASTMDAF
  0
LINE
  5
1CA2
  8
240
 10
0.0
 20
5.9022294076098367
 30
0.0
 11
-0.0645717277078575
 21
6.1432143761482916
 31
0.0
1001
GRPNAME
1000
PASTMDAF
  0
LINE
  5
1CA3
  8
240
 10
0.0
 20
0.0
 30
0.0
 11
0.0
 21
5.9022294076098367
 31
0.0
1001
GRPNAME
1000
PASTMD88
  0
ARC
  5
1CA4
  8
240
 10
-0.5475346408524047
 20
-6.0138048535970059
 30
0.0
 40
0.5000000000000529
 50
340.43780134080828
 51
345.00000025838477
  0
LINE
  5
1CA5
  8
240
 10
0.0
 20
-5.9022294076098367
 30
0.0
 11
-0.0645717277078575
 21
-6.1432143761482916
 31
0.0
  0
LINE
  5
1CA6
  8
240
 10
0.0
 20
0.0
 30
0.0
 11
0.0
 21
-5.9022294076098367
 31
0.0
  0
LINE
  5
1CA7
  8
240
 10
-4.0
 20
17.1646738179168
 30
0.0
 11
-4.0
 21
20.0
 31
0.0
1001
GRPNAME
1000
PASTMDCT
  0
ARC
  5
1CA8
  8
240
 10
-4.1411756706261231
 20
17.02300720214842
 30
0.0
 40
0.2000000000000104
 50
19.562198755494439
 51
45.0994513823833
1001
GRPNAME
1000
PASTMD88
  0
LINE
  5
1CA9
  8
241
 10
-4.0068224733541342
 20
18.753071585282878
 30
0.0
 11
-4.0000076386119181
 21
18.778504894786082
 31
0.0
1001
GRPNAME
1000
PASTMDAV
  0
LINE
  5
1CAA
  8
241
 10
-4.0068224733541342
 20
18.753071585282878
 30
0.0
 11
-4.0000076386119181
 21
18.778504894786082
 31
0.0
1001
GRPNAME
1000
PASTMDAW
  0
ARC
  5
1CAB
  8
240
 10
-5.0
 20
20.0
 30
0.0
 40
1.0
 50
0.0
 51
89.999999999996732
1001
GRPNAME
1000
PASTMDCT
  0
LINE
  5
1CAC
  8
243
 10
-10.19999999999998
 20
12.74999999999994
 30
0.0
 11
-10.0
 21
12.75
 31
0.0
1001
GRPNAME
1000
NBS16 09
  0
LINE
  5
1CAD
  8
243
 10
-12.600000000000019
 20
11.0
 30
0.0
 11
-10.19999999999998
 21
11.0
 31
0.0
1001
GRPNAME
1000
NBS16 09
  0
LINE
  5
1CAE
  8
243
 10
-10.19999999999998
 20
12.74999999999994
 30
0.0
 11
-10.19999999999998
 21
11.0
 31
0.0
1001
GRPNAME
1000
NBS16 09
  0
LINE
  5
1CAF
  8
243
 10
-12.600000000000019
 20
11.0
 30
0.0
 11
-12.600000000000019
 21
12.75
 31
0.0
1001
GRPNAME
1000
NBS16 09
  0
LINE
  5
1CB0
  8
243
 10
-10.0
 20
12.75
 30
0.0
 11
-7.0
 21
11.0179491924311
 31
0.0
1001
GRPNAME
1000
NBS16 09
  0
ARC
  5
1CB1
  8
240
 10
-28.163250300240229
 20
21.699999999999989
 30
0.0
 40
0.9999999999999779
 50
224.9999999273569
 51
315.57299592655028
1001
GRPNAME
1000
PASTMDCT
  0
LINE
  5
1CB2
  8
240
 10
-27.449107457385921
 20
21.0
 30
0.0
 11
-5.0
 21
21.0
 31
0.0
1001
GRPNAME
1000
PASTMDCT
  0
ARC
  5
1CB3
  8
243
 10
-21.0
 20
-5.6500000000000332
 30
0.0
 40
2.0
 50
269.99999989973168
 51
359.9999998997319
  0
LINE
  5
1CB4
  8
243
 10
-19.0
 20
5.6499999999999764
 30
0.0
 11
-19.0
 21
-5.6500000000000332
 31
0.0
  0
ARC
  5
1CB5
  8
243
 10
-21.0
 20
5.6499999999999764
 30
0.0
 40
2.0
 50
0.0000000899821157
 51
90.000000089977974
  0
LINE
  5
1CB6
  8
241
 10
-27.449107457385921
 20
0.0
 30
0.0
 11
-27.449107457385921
 21
21.0
 31
0.0
1001
GRPNAME
1000
PASTMDCT
  0
LINE
  5
1CB7
  8
241
 10
-4.0
 20
0.0
 30
0.0
 11
-4.0
 21
17.16467381791686
 31
0.0
1001
GRPNAME
1000
PASTMDCT
  0
LINE
  5
1CB8
  8
243
 10
-7.0
 20
11.0179491924311
 30
0.0
 11
-7.0
 21
0.0
 31
0.0
1001
GRPNAME
1000
NBS16 09
  0
LINE
  5
1CB9
  8
240
 10
-0.0763953593318547
 20
6.1812198392115478
 30
0.0
 11
-3.9527199581125951
 21
17.089973196660829
 31
0.0
1001
GRPNAME
1000
PASTMDAF
  0
ARC
  5
1CBA
  8
240
 10
-4.1411756706261231
 20
-17.02300720214842
 30
0.0
 40
0.2000000000000602
 50
314.90054861761507
 51
340.43780124450552
  0
LINE
  5
1CBB
  8
241
 10
-4.0068224733541342
 20
-18.753071585282878
 30
0.0
 11
-4.0000076386119181
 21
-18.778504894786082
 31
0.0
1001
GRPNAME
1000
PASTMDB5
  0
LINE
  5
1CBC
  8
241
 10
-4.0068224733541342
 20
-18.753071585282878
 30
0.0
 11
-4.0000076386119181
 21
-18.778504894786082
 31
0.0
1001
GRPNAME
1000
PASTMDB6
  0
LINE
  5
1CBD
  8
243
 10
-10.19999999999998
 20
-12.74999999999994
 30
0.0
 11
-10.0
 21
-12.75
 31
0.0
1001
GRPNAME
1000
NBS16 0B
  0
LINE
  5
1CBE
  8
243
 10
-10.19999999999998
 20
-12.74999999999994
 30
0.0
 11
-10.19999999999998
 21
-11.0
 31
0.0
1001
GRPNAME
1000
NBS16 0B
  0
LINE
  5
1CBF
  8
243
 10
-12.600000000000019
 20
-11.0
 30
0.0
 11
-12.600000000000019
 21
-12.75
 31
0.0
1001
GRPNAME
1000
NBS16 0B
  0
LINE
  5
1CC0
  8
243
 10
-12.600000000000019
 20
-11.0
 30
0.0
 11
-10.19999999999998
 21
-11.0
 31
0.0
1001
GRPNAME
1000
NBS16 0B
  0
LINE
  5
1CC1
  8
243
 10
-10.0
 20
-12.75
 30
0.0
 11
-7.0
 21
-11.0179491924311
 31
0.0
1001
GRPNAME
1000
NBS16 0B
  0
ARC
  5
1CC2
  8
240
 10
-5.0
 20
-20.0
 30
0.0
 40
1.0
 50
270.00000000000318
 51
0.0
1001
GRPNAME
1000
PASTMDCV
  0
LINE
  5
1CC3
  8
240
 10
-4.0
 20
-17.1646738179168
 30
0.0
 11
-4.0
 21
-20.0
 31
0.0
1001
GRPNAME
1000
PASTMDCV
  0
ARC
  5
1CC4
  8
240
 10
-28.163250300240229
 20
-21.699999999999989
 30
0.0
 40
0.9999999999999764
 50
44.427004131299
 51
135.00000013049299
1001
GRPNAME
1000
PASTMDCV
  0
LINE
  5
1CC5
  8
240
 10
-27.449107457385921
 20
-21.0
 30
0.0
 11
-5.0
 21
-21.0
 31
0.0
1001
GRPNAME
1000
PASTMDCV
  0
LINE
  5
1CC6
  8
240
 10
-0.0763953593318547
 20
-6.1812198392115478
 30
0.0
 11
-3.9527199581125951
 21
-17.089973196660829
 31
0.0
  0
LINE
  5
1CC7
  8
241
 10
-27.449107457385921
 20
0.0
 30
0.0
 11
-27.449107457385921
 21
-21.0
 31
0.0
1001
GRPNAME
1000
PASTMDCV
  0
LINE
  5
1CC8
  8
241
 10
-4.0
 20
0.0
 30
0.0
 11
-4.0
 21
-17.16467381791686
 31
0.0
1001
GRPNAME
1000
PASTMDCV
  0
LINE
  5
1CC9
  8
243
 10
-7.0
 20
-11.0179491924311
 30
0.0
 11
-7.0
 21
0.0
 31
0.0
1001
GRPNAME
1000
NBS16 0B
  0
LINE
  5
1CCA
  8
240
 10
-30.599999999999952
 20
21.349999999999991
 30
0.0
 11
-29.227463862613298
 21
21.349999999999991
 31
0.0
1001
GRPNAME
1000
PASTMDCT
  0
ARC
  5
1CCB
  8
240
 10
-30.599999999999952
 20
20.849999999999991
 30
0.0
 40
0.5
 50
89.999999989716343
 51
179.99999998970819
1001
GRPNAME
1000
PASTMDCT
  0
LINE
  5
1CCC
  8
243
 10
-41.999999999999979
 20
0.0
 30
0.0
 11
-41.999999999999979
 21
-9.6599354831894821
 31
0.0
1001
GRPNAME
1000
NBS16 0B
  0
LINE
  5
1CCD
  8
240
 10
-31.099999999999952
 20
20.849999999999991
 30
0.0
 11
-31.099999999999952
 21
0.0
 31
0.0
1001
GRPNAME
1000
PASTMDCT
  0
LINE
  5
1CCE
  8
241
 10
-29.227463862613298
 20
0.0
 30
0.0
 11
-29.227463862613298
 21
21.349999999999991
 31
0.0
1001
GRPNAME
1000
PASTMDCT
  0
LINE
  5
1CCF
  8
243
 10
-41.999999999999979
 20
0.0
 30
0.0
 11
-41.999999999999979
 21
9.6599354831894821
 31
0.0
1001
GRPNAME
1000
NBS16 09
  0
LINE
  5
1CD0
  8
240
 10
-30.599999999999952
 20
-21.349999999999991
 30
0.0
 11
-29.227463862613298
 21
-21.349999999999991
 31
0.0
1001
GRPNAME
1000
PASTMDCV
  0
ARC
  5
1CD1
  8
240
 10
-30.599999999999952
 20
-20.849999999999991
 30
0.0
 40
0.5
 50
180.0000000128646
 51
270.00000001285821
1001
GRPNAME
1000
PASTMDCV
  0
LINE
  5
1CD2
  8
240
 10
-31.099999999999952
 20
-20.849999999999991
 30
0.0
 11
-31.099999999999952
 21
0.0
 31
0.0
1001
GRPNAME
1000
PASTMDCV
  0
LINE
  5
1CD3
  8
241
 10
-29.227463862613298
 20
0.0
 30
0.0
 11
-29.227463862613298
 21
-21.349999999999991
 31
0.0
1001
GRPNAME
1000
PASTMDCV
  0
LINE
  5
1CD4
  8
243
 10
-42.000000000000007
 20
-7.6500000000000332
 30
0.0
 11
-21.0
 21
-7.6500000000000332
 31
0.0
  0
LINE
  5
1CD5
  8
243
 10
-42.000000000000007
 20
7.6499999999999773
 30
0.0
 11
-21.0
 21
7.6499999999999773
 31
0.0
  0
LINE
  5
1CD6
  8
245
 10
-43.996458352025371
 20
0.0
 30
0.0
 11
1.9524577206304341
 21
0.0
 31
0.0
1001
GRPNAME
1000
PASTMDCT
  0
LINE
  5
1CD7
  8
243
 10
-12.600000000000019
 20
-12.75
 30
0.0
 11
-41.999999999999979
 21
-9.6599354831894821
 31
0.0
1001
GRPNAME
1000
NBS16 0B
  0
LINE
  5
1CD8
  8
240
 10
-28.870357081426722
 20
-20.992893218813428
 30
0.0
 11
-29.227463862613298
 21
-21.349999999999991
 31
0.0
1001
GRPNAME
1000
PASTMDCV
  0
LINE
  5
1CD9
  8
243
 10
-12.600000000000019
 20
12.75
 30
0.0
 11
-41.999999999999979
 21
9.6599354831894821
 31
0.0
1001
GRPNAME
1000
NBS16 09
  0
LINE
  5
1CDA
  8
240
 10
-28.870357081426722
 20
20.992893218813428
 30
0.0
 11
-29.227463862613298
 21
21.349999999999991
 31
0.0
1001
GRPNAME
1000
PASTMDCT
  0
ENDBLK
  5
1CDC
  8
0
  0
BLOCK
  8
0
  2
*U10
 70
     1
 10
0.0
 20
0.0
 30
0.0
  3
*U10
  1

  0
TEXT
  5
1D0E
  8
240
 62
    40
 10
12.017832412155821
 20
-8.0142857142857196
 30
0.0
 40
3.0
  1
\U+2205
 50
90.0
  0
TEXT
  5
1D0F
  8
240
 62
    40
 10
12.017832412155821
 20
-5.3000000000000043
 30
0.0
 40
3.0
  1
3ü`3.5
 50
90.0
  0
ENDBLK
  5
1D11
  8
0
  0
ENDSEC
  0
SECTION
  2
ENTITIES
  0
LINE
  5
1AC5
  8
250
 10
-4.4999999999999432
 20
-21.0
 30
0.0
 11
21.999999999999989
 21
-21.0
 31
0.0
  0
LINE
  5
1AC6
  8
250
 10
-4.4999999999999432
 20
21.0
 30
0.0
 11
22.0
 21
20.999999999999989
 31
0.0
  0
LINE
  5
1AC7
  8
250
 10
20.999999999999989
 20
-18.77
 30
0.0
 11
21.0
 21
18.769999999999989
 31
0.0
  0
TEXT
  5
1ACB
  8
250
 10
19.999999999999989
 20
-4.0714285714285721
 30
0.0
 40
3.0
  1
\U+2205
 50
90.0
1001
ACAD
1000
MTEXTBEGIN
1070
    73
1070
     1
1070
    44
1040
1.0
1070
    74
1070
     0
1000
MTEXTEND
  0
TEXT
  5
1ACC
  8
250
 10
19.999999999999989
 20
-1.3571428571428581
 30
0.0
 40
3.0
  1
42
 50
90.0
1001
ACAD
1000
MTEXTBEGIN
1070
    73
1070
     1
1070
    44
1040
1.0
1070
    74
1070
     0
1000
MTEXTEND
  0
LINE
  5
1ACD
  8
250
 10
20.62833333333333
 20
18.769999999999989
 30
0.0
 11
21.0
 21
20.999999999999989
 31
0.0
  0
LINE
  5
1ACE
  8
250
 10
21.37166666666667
 20
18.769999999999989
 30
0.0
 11
21.0
 21
20.999999999999989
 31
0.0
  0
LINE
  5
1ACF
  8
250
 10
21.0
 20
20.999999999999989
 30
0.0
 11
21.0
 21
18.769999999999989
 31
0.0
  0
LINE
  5
1AD0
  8
250
 10
21.371666666666648
 20
-18.77
 30
0.0
 11
20.999999999999989
 21
-21.0
 31
0.0
  0
LINE
  5
1AD1
  8
250
 10
20.62833333333332
 20
-18.77
 30
0.0
 11
20.999999999999989
 21
-21.0
 31
0.0
  0
LINE
  5
1AD2
  8
250
 10
20.999999999999989
 20
-21.0
 30
0.0
 11
20.999999999999989
 21
-18.77
 31
0.0
  0
TEXT
  5
1ADB
  8
243
 10
-35.952380952380963
 20
42.0
 30
0.0
 40
5.0
  1
MPS16-03035
  7
YOKO
1001
ITEMNAME
1000
DI010
1001
ACAD
1000
MTEXTBEGIN
1070
    73
1070
     1
1070
    44
1040
1.0
1070
    74
1070
     0
1000
MTEXTEND
  0
INSERT
  5
1CDE
  8
240
  2
A$C1B8D33D6
 10
0.0
 20
0.0
 30
0.0
  0
LINE
  5
1CDF
  8
250
 10
-6.5
 20
1.75
 30
0.0
 11
14.017832412155821
 21
1.7499999999999929
 31
0.0
  0
LINE
  5
1CE0
  8
250
 10
-6.5
 20
-1.75
 30
0.0
 11
14.017832412155821
 21
-1.750000000000006
 31
0.0
  0
LINE
  5
1CE1
  8
250
 10
13.017832412155821
 20
3.979999999999992
 30
0.0
 11
13.01783241215583
 21
6.209999999999992
 31
0.0
  0
LINE
  5
1CE2
  8
250
 10
13.017832412155821
 20
-3.9800000000000049
 30
0.0
 11
13.017832412155821
 21
-6.2100000000000026
 31
0.0
  0
LINE
  5
1CE3
  8
250
 10
13.017832412155821
 20
1.749999999999994
 30
0.0
 11
13.017832412155821
 21
-1.7500000000000051
 31
0.0
  0
TEXT
  5
1CE7
  8
250
 10
12.017832412155821
 20
-8.0142857142857196
 30
0.0
 40
3.0
  1
\U+2205
 50
90.0
  0
TEXT
  5
1CE8
  8
250
 10
12.017832412155821
 20
-5.3000000000000043
 30
0.0
 40
3.0
  1
3ü`3.5
 50
90.0
  0
LINE
  5
1CE9
  8
250
 10
12.64616574548916
 20
-3.980000000000004
 30
0.0
 11
13.017832412155821
 21
-1.7500000000000051
 31
0.0
  0
LINE
  5
1CEA
  8
250
 10
13.389499078822491
 20
-3.980000000000004
 30
0.0
 11
13.017832412155821
 21
-1.7500000000000051
 31
0.0
  0
LINE
  5
1CEB
  8
250
 10
13.017832412155821
 20
-1.7500000000000051
 30
0.0
 11
13.017832412155821
 21
-3.980000000000004
 31
0.0
  0
LINE
  5
1CEC
  8
250
 10
13.389499078822491
 20
3.9799999999999929
 30
0.0
 11
13.017832412155821
 21
1.749999999999994
 31
0.0
  0
LINE
  5
1CED
  8
250
 10
12.64616574548916
 20
3.9799999999999929
 30
0.0
 11
13.017832412155821
 21
1.749999999999994
 31
0.0
  0
LINE
  5
1CEE
  8
250
 10
13.017832412155821
 20
1.749999999999994
 30
0.0
 11
13.017832412155821
 21
3.9799999999999929
 31
0.0
  0
VIEWPORT
  5
22
 67
     1
  8
0
 10
261.51769911504419
 20
148.5
 30
0.0
 40
523.0353982300885
 41
297.0
 68
     1
 69
     1
1001
ACAD
1000
MVIEW
1002
{
1070
    16
1010
0.0
1020
0.0
1030
0.0
1010
0.0
1020
0.0
1030
1.0
1040
0.0
1040
297.0
1040
261.51769911504419
1040
148.5
1040
50.0
1040
0.0
1040
0.0
1070
     0
1070
   100
1070
     1
1070
     1
1070
     0
1070
     0
1070
     0
1070
     0
1040
0.0
1040
0.0
1040
0.0
1040
1.0
1040
1.0
1040
10.0
1040
10.0
1070
     0
1002
{
1002
}
1002
}
1001
GENIUS_GENOBJ-N-SDF_13
1002
{
1000
OWNER
1000
GEN
1002
}
1001
GENIUS_GENODEF_13
1002
{
1000
HIER
1070
     0
1002
}
1002
{
1000
MANEDIT
1070
     0
1002
}
1002
{
1000
NOSEL
1070
     0
1002
}
1002
{
1000
BEHIND
1070
     0
1002
}
1002
{
1000
OTHER
1070
     0
1002
}
1002
{
1000
REACTOR
1002
}
1001
GENIUS_GENSCREG_15
1000
PF
1040
1.0
1000
DF
1040
1.0
1000
MIN
1011
0.0
1021
-3.8693447129062412E+266
1031
0.0
1021
0.0
1031
0.0
1000
MAX
1011
523.0353982300885
1021
-3.8693447129062412E+266
1031
0.0
1021
297.0
1031
0.0
1000
FLAGS
1070
     2
  0
ENDSEC
  0
EOF
