  0
SECTION
  2
HEADER
  9
$ACADVER
  1
AC1009
  9
$INSBASE
 10
0.0
 20
0.0
 30
0.0
  9
$EXTMIN
 10
-40.277150644430783
 20
-23.93714285714287
 30
-0.0000000000112498
  9
$EXTMAX
 10
22.023368133560329
 20
40.005044066821647
 30
0.0000000000002956
  9
$LIMMIN
 10
0.0
 20
0.0
  9
$LIMMAX
 10
297.0
 20
210.0
  9
$ORTHOMODE
 70
     0
  9
$REGENMODE
 70
     1
  9
$FILLMODE
 70
     1
  9
$QTEXTMODE
 70
     0
  9
$MIRRTEXT
 70
     1
  9
$DRAGMODE
 70
     2
  9
$LTSCALE
 40
10.0
  9
$OSMODE
 70
   639
  9
$ATTMODE
 70
     1
  9
$TEXTSIZE
 40
3.0
  9
$TRACEWID
 40
1.0
  9
$TEXTSTYLE
  7
YOKO
  9
$CLAYER
  8
240
  9
$CELTYPE
  6
BYLAYER
  9
$CECOLOR
 62
   256
  9
$DIMSCALE
 40
1.0
  9
$DIMASZ
 40
2.2299999999999991
  9
$DIMEXO
 40
0.5
  9
$DIMDLI
 40
2.5
  9
$DIMRND
 40
0.0
  9
$DIMDLE
 40
0.0
  9
$DIMEXE
 40
1.0
  9
$DIMTP
 40
0.0
  9
$DIMTM
 40
0.0
  9
$DIMTXT
 40
3.0
  9
$DIMCEN
 40
0.0
  9
$DIMTSZ
 40
0.0
  9
$DIMTOL
 70
     0
  9
$DIMLIM
 70
     0
  9
$DIMTIH
 70
     0
  9
$DIMTOH
 70
     0
  9
$DIMSE1
 70
     0
  9
$DIMSE2
 70
     0
  9
$DIMTAD
 70
     3
  9
$DIMZIN
 70
     8
  9
$DIMBLK
  1
OPEN
  9
$DIMASO
 70
     1
  9
$DIMSHO
 70
     1
  9
$DIMPOST
  1

  9
$DIMAPOST
  1

  9
$DIMALT
 70
     0
  9
$DIMALTD
 70
     2
  9
$DIMALTF
 40
25.399999999999999
  9
$DIMLFAC
 40
1.0
  9
$DIMTOFL
 70
     1
  9
$DIMTVP
 40
0.0
  9
$DIMTIX
 70
     0
  9
$DIMSOXD
 70
     0
  9
$DIMSAH
 70
     0
  9
$DIMBLK1
  1

  9
$DIMBLK2
  1

  9
$DIMSTYLE
  2
BIGT
  9
$DIMCLRD
 70
   256
  9
$DIMCLRE
 70
   256
  9
$DIMCLRT
 70
    40
  9
$DIMTFAC
 40
1.0
  9
$DIMGAP
 40
1.0
  9
$LUNITS
 70
     2
  9
$LUPREC
 70
     2
  9
$SKETCHINC
 40
1.0
  9
$FILLETRAD
 40
0.0
  9
$AUNITS
 70
     0
  9
$AUPREC
 70
     3
  9
$MENU
  1
.
  9
$ELEVATION
 40
0.0
  9
$PELEVATION
 40
0.0
  9
$THICKNESS
 40
0.0
  9
$LIMCHECK
 70
     0
  9
$BLIPMODE
 70
     0
  9
$CHAMFERA
 40
10.0
  9
$CHAMFERB
 40
10.0
  9
$SKPOLY
 70
     0
  9
$TDCREATE
 40
2452880.4648967362
  9
$TDUPDATE
 40
2453612.6638707989
  9
$TDINDWG
 40
0.0354810417
  9
$TDUSRTIMER
 40
0.0354808565
  9
$USRTIMER
 70
     1
  9
$ANGBASE
 50
0.0
  9
$ANGDIR
 70
     0
  9
$PDMODE
 70
    35
  9
$PDSIZE
 40
2.0
  9
$PLINEWID
 40
0.0
  9
$COORDS
 70
     2
  9
$SPLFRAME
 70
     0
  9
$SPLINETYPE
 70
     6
  9
$SPLINESEGS
 70
     8
  9
$ATTDIA
 70
     1
  9
$ATTREQ
 70
     1
  9
$HANDLING
 70
     1
  9
$HANDSEED
  5
1800
  9
$SURFTAB1
 70
     6
  9
$SURFTAB2
 70
     6
  9
$SURFTYPE
 70
     6
  9
$SURFU
 70
     6
  9
$SURFV
 70
     6
  9
$UCSNAME
  2

  9
$UCSORG
 10
0.0
 20
0.0
 30
0.0
  9
$UCSXDIR
 10
1.0
 20
0.0
 30
0.0
  9
$UCSYDIR
 10
0.0
 20
1.0
 30
0.0
  9
$PUCSNAME
  2

  9
$PUCSORG
 10
0.0
 20
0.0
 30
0.0
  9
$PUCSXDIR
 10
1.0
 20
0.0
 30
0.0
  9
$PUCSYDIR
 10
0.0
 20
1.0
 30
0.0
  9
$USERI1
 70
     1
  9
$USERI2
 70
     0
  9
$USERI3
 70
     0
  9
$USERI4
 70
     0
  9
$USERI5
 70
     0
  9
$USERR1
 40
0.0
  9
$USERR2
 40
0.0
  9
$USERR3
 40
0.0
  9
$USERR4
 40
0.0
  9
$USERR5
 40
0.0
  9
$WORLDVIEW
 70
     1
  9
$SHADEDGE
 70
     3
  9
$SHADEDIF
 70
    70
  9
$TILEMODE
 70
     1
  9
$MAXACTVP
 70
    16
  9
$PLIMCHECK
 70
     0
  9
$PEXTMIN
 10
1.0000000000000000E+020
 20
1.0000000000000000E+020
 30
1.0000000000000000E+020
  9
$PEXTMAX
 10
-1.0000000000000000E+020
 20
-1.0000000000000000E+020
 30
-1.0000000000000000E+020
  9
$PLIMMIN
 10
0.0
 20
0.0
  9
$PLIMMAX
 10
420.0
 20
297.0
  9
$UNITMODE
 70
     0
  9
$VISRETAIN
 70
     0
  9
$PLINEGEN
 70
     0
  9
$PSLTSCALE
 70
     1
  0
ENDSEC
  0
SECTION
  2
TABLES
  0
TABLE
  2
VPORT
 70
    64
  0
VPORT
  2
*ACTIVE
 70
     0
 10
0.0
 20
0.0
 11
1.0
 21
1.0
 12
-9.1268912554352255
 22
11.124008723930899
 13
0.0
 23
0.0
 14
7.0
 24
7.0
 15
7.0
 25
7.0
 16
0.0
 26
0.0
 36
1.0
 17
0.0
 27
0.0
 37
0.0
 40
58.102849863868713
 41
1.5029527559055109
 42
50.0
 43
0.0
 44
0.0
 50
0.0
 51
0.0
 71
     0
 72
  2000
 73
     1
 74
     0
 75
     0
 76
     0
 77
     0
 78
     0
  0
ENDTAB
  0
TABLE
  2
LTYPE
 70
    19
  0
LTYPE
  2
CONTINUOUS
 70
     0
  3
Solid line
 72
    65
 73
     0
 40
0.0
  0
LTYPE
  2
CENTER2
 70
     0
  3
___ _ ___ _ ___ _ ___ _ ___ _ ___ _ ___ _ ___ _
 72
    65
 73
     4
 40
1.125
 49
0.75
 49
-0.125
 49
0.125
 49
-0.125
  0
LTYPE
  2
HIDDEN2
 70
     0
  3
_ _ _ _ _ _ _ _ _ _ _ _ _ _ _ _ _ _ _ _ _ _ _ _
 72
    65
 73
     2
 40
0.1875
 49
0.125
 49
-0.0625
  0
LTYPE
  2
HIDDEN
 70
     0
  3
Hidden __ __ __ __ __ __ __ __ __ __ __ __ __ _
 72
    65
 73
     2
 40
9.5249999999999986
 49
6.3499999999999979
 49
-3.174999999999998
  0
LTYPE
  2
PHANTOM2
 70
     0
  3
Phantom (.5x) ___ _ _ ___ _ _ ___ _ _ ___ _ _
 72
    65
 73
     6
 40
31.75
 49
15.875
 49
-3.174999999999998
 49
3.174999999999998
 49
-3.174999999999998
 49
3.174999999999998
 49
-3.174999999999998
  0
LTYPE
  2
CENTER
 70
     0
  3
Center ____ _ ____ _ ____ _ ____ _ ____ _ ____
 72
    65
 73
     4
 40
50.799999999999997
 49
31.75
 49
-6.3499999999999979
 49
6.3499999999999979
 49
-6.3499999999999979
  0
LTYPE
  2
AMCONSTR
 70
     0
  3
_______________________
 72
    65
 73
     2
 40
9999.0
 49
9999.0
 49
0.0
  0
LTYPE
  2
AMZIGZAG2
 70
     0
  3
/\/-/\/-/\/-/\/-/\/-/\/
 72
    65
 73
     2
 40
0.4401
 49
0.0001
 49
-0.4400000000000001
  0
LTYPE
  2
ACANSTGB
 70
     0
  3
__ . . __ . .
 72
    65
 73
     6
 40
0.35433070866
 49
0.15748031496
 49
-0.03937007874
 49
0.03937007874
 49
-0.03937007874
 49
0.03937007874
 49
-0.03937007874
  0
LTYPE
  2
ACANSTGL
 70
     0
  3
_ _ _ _ _
 72
    65
 73
     2
 40
0.11811023622
 49
0.07874015748
 49
-0.03937007874
  0
ENDTAB
  0
TABLE
  2
LAYER
 70
     8
  0
LAYER
  2
0
 70
     0
 62
     7
  6
CONTINUOUS
  0
LAYER
  2
240
 70
     0
 62
     4
  6
CONTINUOUS
  0
LAYER
  2
241
 70
     0
 62
   211
  6
CONTINUOUS
  0
LAYER
  2
243
 70
     0
 62
   211
  6
HIDDEN2
  0
LAYER
  2
245
 70
     0
 62
     2
  6
CENTER2
  0
LAYER
  2
250
 70
     0
 62
     3
  6
CONTINUOUS
  0
LAYER
  2
DEFPOINTS
 70
     0
 62
     7
  6
CONTINUOUS
  0
ENDTAB
  0
TABLE
  2
STYLE
 70
     7
  0
STYLE
  2
STANDARD
 70
     0
 40
0.0
 41
1.0
 50
0.0
 71
     0
 42
3.0
  3
romans.shx
  4
BIGFONT.SHX
  0
STYLE
  2
YOKO
 70
     0
 40
0.0
 41
1.0
 50
0.0
 71
     0
 42
3.0
  3
romans.shx
  4
extfont.shx
  0
STYLE
  2

 70
     1
 40
0.0
 41
1.0
 50
0.0
 71
     0
 42
3.0
  3
ltypeshp.shx
  4

  0
STYLE
  2
ACANSTS
 70
     0
 40
1.0
 41
1.0
 50
0.0
 71
     0
 42
3.0
  3
romans.shx
  4
extfont.shx
  0
STYLE
  2
ACANSGDT
 70
     0
 40
0.0
 41
1.0
 50
0.0
 71
     0
 42
3.0
  3
amgdtans.shx
  4

  0
ENDTAB
  0
TABLE
  2
VIEW
 70
     0
  0
ENDTAB
  0
TABLE
  2
UCS
 70
     0
  0
ENDTAB
  0
TABLE
  2
APPID
 70
    16
  0
APPID
  2
ACAD
 70
     0
  0
APPID
  2
GLOBAL
 70
     0
  0
APPID
  2
DETAIL
 70
     0
  0
APPID
  2
GRPNAME
 70
     0
  0
APPID
  2
GPARA
 70
     0
  0
APPID
  2
ITEMNAME
 70
     0
  0
APPID
  2
MCAD_NO_VIS
 70
     0
  0
APPID
  2
ACAD_TEMP_GRAPHIC
 70
     0
  0
APPID
  2
AD_DRAW
 70
     0
  0
APPID
  2
ACATTRIBSERVICES
 70
     0
  0
APPID
  2
DESIGNERASSEMBLIES
 70
     0
  0
APPID
  2
ACADM_DIM_EDIT
 70
     0
  0
APPID
  2
AMDT_DM_ADJ
 70
     0
  0
APPID
  2
GENIUS_GENSCREG_15
 70
     0
  0
APPID
  2
GENIUS_GENOBJ-N-SDF_13
 70
     0
  0
APPID
  2
GENIUS_GENODEF_13
 70
     0
  0
ENDTAB
  0
TABLE
  2
DIMSTYLE
 70
    15
  0
DIMSTYLE
  2
STANDARD
 70
     0
  3

  4

  5

  6

  7

 40
1.0
 41
2.0
 42
2.0
 43
3.75
 44
2.0
 45
0.0
 46
0.0
 47
0.0
 48
0.0
140
4.0
141
0.09
142
0.0
143
25.399999999999999
144
1.0
145
0.0
146
1.0
147
1.0
 71
     0
 72
     0
 73
     1
 74
     1
 75
     0
 76
     0
 77
     0
 78
     8
170
     0
171
     2
172
     0
173
     1
174
     0
175
     0
176
   256
177
   256
178
   256
  0
DIMSTYLE
  2
BIGT
 70
     0
  3

  4

  5

  6

  7

 40
1.0
 41
2.2299999999999991
 42
0.5
 43
2.5
 44
1.0
 45
0.0
 46
0.0
 47
0.0
 48
0.0
140
3.5
141
0.0
142
0.0
143
25.399999999999999
144
1.0
145
0.0
146
1.0
147
1.0
 71
     0
 72
     0
 73
     0
 74
     0
 75
     0
 76
     0
 77
     3
 78
     9
170
     0
171
     2
172
     1
173
     0
174
     0
175
     0
176
   256
177
   256
178
    40
  0
DIMSTYLE
  2
AM_ANSI
 70
     0
  3

  4
mm
  5

  6

  7

 40
1.0
 41
0.1
 42
0.05
 43
0.5
 44
0.1
 45
0.0
 46
0.0
 47
0.1
 48
0.1
140
0.12
141
0.0
142
0.0
143
25.399999999999999
144
1.0
145
0.0
146
0.71
147
0.06
 71
     0
 72
     0
 73
     1
 74
     1
 75
     0
 76
     0
 77
     0
 78
     7
170
     0
171
     2
172
     0
173
     0
174
     0
175
     0
176
   256
177
   256
178
     2
  0
DIMSTYLE
  2
AM_ANSI$3
 70
     0
  3

  4
mm
  5

  6

  7

 40
1.0
 41
0.1
 42
0.05
 43
0.5
 44
0.1
 45
0.0
 46
0.0
 47
0.1
 48
0.1
140
0.12
141
0.0
142
0.0
143
25.399999999999999
144
1.0
145
0.0
146
0.71
147
0.06
 71
     0
 72
     0
 73
     1
 74
     1
 75
     0
 76
     0
 77
     0
 78
     7
170
     0
171
     2
172
     0
173
     0
174
     0
175
     0
176
   256
177
   256
178
     2
  0
DIMSTYLE
  2
AM_ANSI$4
 70
     0
  3

  4
mm
  5

  6

  7

 40
1.0
 41
0.1
 42
0.05
 43
0.5
 44
0.1
 45
0.0
 46
0.0
 47
0.1
 48
0.1
140
0.12
141
0.0
142
0.0
143
25.399999999999999
144
1.0
145
0.0
146
0.71
147
0.06
 71
     0
 72
     0
 73
     1
 74
     1
 75
     0
 76
     0
 77
     0
 78
     7
170
     0
171
     2
172
     0
173
     0
174
     0
175
     0
176
   256
177
   256
178
     2
  0
DIMSTYLE
  2
AM_ANSI$7
 70
     0
  3

  4
mm
  5

  6

  7

 40
1.0
 41
0.1
 42
0.05
 43
0.5
 44
0.1
 45
0.0
 46
0.0
 47
0.1
 48
0.1
140
0.24
141
0.0
142
0.0
143
25.399999999999999
144
1.0
145
0.0
146
0.71
147
0.06
 71
     0
 72
     0
 73
     1
 74
     1
 75
     0
 76
     0
 77
     0
 78
     7
170
     0
171
     2
172
     0
173
     0
174
     0
175
     0
176
   256
177
   256
178
     2
  0
DIMSTYLE
  2
AM_ANSI$SF
 70
     0
  3

  4
mm
  5

  6

  7

 40
1.0
 41
0.1
 42
0.05
 43
0.5
 44
0.1
 45
0.0
 46
0.0
 47
0.1
 48
0.1
140
0.12
141
0.0
142
0.0
143
25.399999999999999
144
1.0
145
0.0
146
0.71
147
0.06
 71
     0
 72
     0
 73
     1
 74
     1
 75
     1
 76
     1
 77
     0
 78
     7
170
     0
171
     2
172
     0
173
     0
174
     0
175
     0
176
   256
177
   256
178
     2
  0
DIMSTYLE
  2
AM_ANSI$SH
 70
     0
  3

  4
mm
  5

  6
GENAXEH
  7

 40
1.0
 41
0.1
 42
0.05
 43
0.5
 44
0.1
 45
0.0
 46
0.0
 47
0.1
 48
0.1
140
0.12
141
0.0
142
0.0
143
25.399999999999999
144
1.0
145
0.0
146
0.71
147
0.06
 71
     0
 72
     0
 73
     1
 74
     1
 75
     1
 76
     1
 77
     0
 78
     7
170
     0
171
     2
172
     0
173
     1
174
     0
175
     0
176
   256
177
   256
178
     2
  0
ENDTAB
  0
ENDSEC
  0
SECTION
  2
BLOCKS
  0
BLOCK
  8
0
  2
$MODEL_SPACE
 70
     0
 10
0.0
 20
0.0
 30
0.0
  3
$MODEL_SPACE
  1

  0
ENDBLK
  5
15FA
  8
0
  0
BLOCK
 67
     1
  8
0
  2
$PAPER_SPACE
 70
     0
 10
0.0
 20
0.0
 30
0.0
  3
$PAPER_SPACE
  1

  0
ENDBLK
  5
15F6
 67
     1
  8
0
  0
BLOCK
  8
0
  2
_OPEN
 70
     0
 10
0.0
 20
0.0
 30
0.0
  3
_OPEN
  1

  0
LINE
  5
595
  8
0
  6
BYBLOCK
 62
     0
 10
-1.0
 20
0.1666666666666666
 30
0.0
 11
0.0
 21
0.0
 31
0.0
  0
LINE
  5
596
  8
0
  6
BYBLOCK
 62
     0
 10
-1.0
 20
-0.1666666666666666
 30
0.0
 11
0.0
 21
0.0
 31
0.0
  0
LINE
  5
597
  8
0
  6
BYBLOCK
 62
     0
 10
0.0
 20
0.0
 30
0.0
 11
-1.0
 21
0.0
 31
0.0
  0
ENDBLK
  5
599
  8
0
  0
BLOCK
  8
0
  2
GENAXEH
 70
     0
 10
0.0
 20
0.0
 30
0.0
  3
GENAXEH
  1

  0
LINE
  5
1579
  8
0
 10
-1.0
 20
0.0
 30
0.0
 11
1.0
 21
0.0
 31
0.0
  0
ENDBLK
  5
157B
  8
0
  0
BLOCK
  8
0
  2
A$C374A03CF
 70
     0
 10
0.0
 20
0.0
 30
0.0
  3
A$C374A03CF
  1

  0
LINE
  5
171D
  8
243
 10
-33.800000000000011
 20
-4.25
 30
0.0
 11
-7.9000000000000039
 21
-4.25
 31
0.0
1001
GRPNAME
1000
PASTMD92
  0
LINE
  5
171E
  8
243
 10
-33.800000000000011
 20
4.25
 30
0.0
 11
-7.9000000000000039
 21
4.25
 31
0.0
1001
GRPNAME
1000
PASTMD92
  0
ARC
  5
171F
  8
240
 10
-0.4714369463720234
 20
8.9996498073373612
 30
0.0
 40
0.50000000000004
 50
19.460070472096682
 51
43.671990229697009
1001
GRPNAME
1000
PASTMD31
  0
ARC
  5
1720
  8
240
 10
-0.4714369463720234
 20
-8.9996498073373612
 30
0.0
 40
0.5000000000000373
 50
316.32800977030291
 51
340.53992952790333
  0
LINE
  5
1721
  8
240
 10
0.0
 20
0.0
 30
0.0
 11
0.0
 21
-9.1662247322074109
 31
0.0
  0
LINE
  5
1722
  8
240
 10
0.0
 20
0.0
 30
0.0
 11
0.0
 21
9.1662247322074109
 31
0.0
1001
GRPNAME
1000
PASTMD31
  0
ARC
  5
1723
  8
240
 10
-5.5999999999999934
 20
16.799999999999979
 30
0.0
 40
0.6999999999999889
 50
359.9999999871402
 51
89.999999987140185
1001
GRPNAME
1000
PASTMD92
  0
ARC
  5
1724
  8
240
 10
-4.985571421405095
 20
14.162496948242129
 30
0.0
 40
0.1999999999999993
 50
43.67199029358467
 51
64.668356551993455
1001
GRPNAME
1000
PASTMD31
  0
LINE
  5
1725
  8
243
 10
-11.100000000000041
 20
8.75
 30
0.0
 11
-11.100000000000041
 21
10.25
 31
0.0
1001
GRPNAME
1000
NBS13 08
  0
LINE
  5
1726
  8
243
 10
-11.100000000000041
 20
10.25
 30
0.0
 11
-10.900000000000061
 21
10.25
 31
0.0
1001
GRPNAME
1000
NBS13 08
  0
LINE
  5
1727
  8
243
 10
-13.50000000000008
 20
10.25
 30
0.0
 11
-13.50000000000008
 21
8.75
 31
0.0
1001
GRPNAME
1000
NBS13 08
  0
LINE
  5
1728
  8
243
 10
-13.50000000000008
 20
8.75
 30
0.0
 11
-11.100000000000041
 21
8.75
 31
0.0
1001
GRPNAME
1000
NBS13 08
  0
LINE
  5
1729
  8
243
 10
-10.900000000000061
 20
10.25
 30
0.0
 11
-7.9000000000000599
 21
8.5179491924311606
 31
0.0
1001
GRPNAME
1000
NBS13 08
  0
LINE
  5
172A
  8
240
 10
-4.900000000000003
 20
14.343266226159351
 30
0.0
 11
-4.900000000000003
 21
16.799999999999979
 31
0.0
1001
GRPNAME
1000
PASTMD92
  0
ARC
  5
172B
  8
240
 10
-28.89998474121095
 20
18.299999999999969
 30
0.0
 40
0.9999999999999978
 50
224.99999991765731
 51
306.86989756350152
1001
GRPNAME
1000
PASTMD92
  0
LINE
  5
172C
  8
240
 10
-29.607091522397489
 20
17.592893218813419
 30
0.0
 11
-29.664198303584111
 21
17.649999999999999
 31
0.0
1001
GRPNAME
1000
PASTMD92
  0
LINE
  5
172D
  8
240
 10
-28.299984741210949
 20
17.5
 30
0.0
 11
-5.5999999999999934
 21
17.5
 31
0.0
1001
GRPNAME
1000
PASTMD92
  0
LINE
  5
172E
  8
243
 10
-11.100000000000041
 20
-10.25
 30
0.0
 11
-10.900000000000061
 21
-10.25
 31
0.0
1001
GRPNAME
1000
NBS13 09
  0
LINE
  5
172F
  8
243
 10
-11.100000000000041
 20
-8.75
 30
0.0
 11
-11.100000000000041
 21
-10.25
 31
0.0
1001
GRPNAME
1000
NBS13 09
  0
LINE
  5
1730
  8
243
 10
-13.50000000000008
 20
-10.25
 30
0.0
 11
-13.50000000000008
 21
-8.75
 31
0.0
1001
GRPNAME
1000
NBS13 09
  0
LINE
  5
1731
  8
243
 10
-13.50000000000008
 20
-8.75
 30
0.0
 11
-11.100000000000041
 21
-8.75
 31
0.0
1001
GRPNAME
1000
NBS13 09
  0
LINE
  5
1732
  8
243
 10
-10.900000000000061
 20
-10.25
 30
0.0
 11
-7.9000000000000599
 21
-8.5179491924311606
 31
0.0
1001
GRPNAME
1000
NBS13 09
  0
LINE
  5
1733
  8
243
 10
-7.9000000000000039
 20
-8.5179491924311321
 30
0.0
 11
-7.9000000000000039
 21
0.0
 31
0.0
1001
GRPNAME
1000
NBS13 09
  0
LINE
  5
1734
  8
241
 10
-29.664198303584111
 20
0.0
 30
0.0
 11
-29.664198303584111
 21
17.649999999999999
 31
0.0
1001
GRPNAME
1000
PASTMD92
  0
LINE
  5
1735
  8
241
 10
-28.299984741210949
 20
0.0
 30
0.0
 11
-28.299984741210949
 21
17.5
 31
0.0
1001
GRPNAME
1000
PASTMD92
  0
LINE
  5
1736
  8
241
 10
-4.900000000000003
 20
0.0
 30
0.0
 11
-4.900000000000003
 21
14.343266226159351
 31
0.0
1001
GRPNAME
1000
PASTMD92
  0
LINE
  5
1737
  8
243
 10
-7.9000000000000039
 20
8.5179491924311321
 30
0.0
 11
-7.9000000000000039
 21
0.0
 31
0.0
1001
GRPNAME
1000
NBS13 08
  0
LINE
  5
1738
  8
240
 10
-0.1097845443314327
 20
9.3449142568514691
 30
0.0
 11
-4.8409104605888418
 21
14.300602728047769
 31
0.0
1001
GRPNAME
1000
PASTMD31
  0
ARC
  5
1739
  8
240
 10
-4.985571421405095
 20
-14.162496948242129
 30
0.0
 40
0.2000000000000037
 50
295.33164344800639
 51
316.32800970641529
  0
ARC
  5
173A
  8
240
 10
-5.5999999999999934
 20
-16.799999999999979
 30
0.0
 40
0.6999999999999889
 50
269.99999991002022
 51
359.99999991002022
1001
GRPNAME
1000
PASTMD93
  0
LINE
  5
173B
  8
240
 10
-4.900000000000003
 20
-14.343266226159351
 30
0.0
 11
-4.900000000000003
 21
-16.799999999999979
 31
0.0
1001
GRPNAME
1000
PASTMD93
  0
ARC
  5
173C
  8
240
 10
-28.89998474121095
 20
-18.299999999999969
 30
0.0
 40
1.0000000000000011
 50
53.13010249434889
 51
135.00000014019309
1001
GRPNAME
1000
PASTMD93
  0
LINE
  5
173D
  8
240
 10
-29.607091522397489
 20
-17.592893218813419
 30
0.0
 11
-29.664198303584111
 21
-17.649999999999999
 31
0.0
1001
GRPNAME
1000
PASTMD93
  0
LINE
  5
173E
  8
240
 10
-28.299984741210949
 20
-17.5
 30
0.0
 11
-5.5999999999999934
 21
-17.5
 31
0.0
1001
GRPNAME
1000
PASTMD93
  0
LINE
  5
173F
  8
241
 10
-29.664198303584111
 20
0.0
 30
0.0
 11
-29.664198303584111
 21
-17.649999999999999
 31
0.0
1001
GRPNAME
1000
PASTMD93
  0
LINE
  5
1740
  8
240
 10
-0.1097845443314327
 20
-9.3449142568514691
 30
0.0
 11
-4.8409104605888418
 21
-14.300602728047769
 31
0.0
  0
LINE
  5
1741
  8
241
 10
-28.299984741210949
 20
0.0
 30
0.0
 11
-28.299984741210949
 21
-17.5
 31
0.0
1001
GRPNAME
1000
PASTMD93
  0
LINE
  5
1742
  8
241
 10
-4.900000000000003
 20
0.0
 30
0.0
 11
-4.900000000000003
 21
-14.343266226159351
 31
0.0
1001
GRPNAME
1000
PASTMD93
  0
ARC
  5
1743
  8
240
 10
-31.099984741210928
 20
17.149999999999999
 30
0.0
 40
0.5
 50
89.999999989713089
 51
179.99999998970819
1001
GRPNAME
1000
PASTMD92
  0
ARC
  5
1744
  8
243
 10
-34.800000000000011
 20
5.25
 30
0.0
 40
1.0
 50
0.0
 51
90.0
  0
LINE
  5
1745
  8
243
 10
-38.899999999999999
 20
6.25
 30
0.0
 11
-34.800000000000011
 21
6.25
 31
0.0
  0
ARC
  5
1746
  8
243
 10
-34.800000000000011
 20
-5.25
 30
0.0
 40
1.0
 50
270.0
 51
0.0
  0
LINE
  5
1747
  8
243
 10
-38.899999999999999
 20
-6.25
 30
0.0
 11
-34.800000000000011
 21
-6.25
 31
0.0
  0
LINE
  5
1748
  8
243
 10
-33.800000000000011
 20
5.25
 30
0.0
 11
-33.800000000000011
 21
-5.25
 31
0.0
  0
LINE
  5
1749
  8
243
 10
-38.900000000000063
 20
-7.5803524242518252
 30
0.0
 11
-38.900000000000063
 21
0.0
 31
0.0
1001
GRPNAME
1000
NBS13 09
  0
LINE
  5
174A
  8
240
 10
-31.599984741210928
 20
17.149999999999999
 30
0.0
 11
-31.599984741210928
 21
0.0
 31
0.0
1001
GRPNAME
1000
PASTMD92
  0
LINE
  5
174B
  8
243
 10
-38.900000000000063
 20
7.5803524242518252
 30
0.0
 11
-38.900000000000063
 21
0.0
 31
0.0
1001
GRPNAME
1000
NBS13 08
  0
ARC
  5
174C
  8
240
 10
-31.099984741210928
 20
-17.149999999999999
 30
0.0
 40
0.5
 50
180.0000000128646
 51
270.0000000128598
1001
GRPNAME
1000
PASTMD93
  0
LINE
  5
174D
  8
240
 10
-31.599984741210928
 20
-17.149999999999999
 30
0.0
 11
-31.599984741210928
 21
0.0
 31
0.0
1001
GRPNAME
1000
PASTMD93
  0
LINE
  5
174E
  8
243
 10
-13.50000000000008
 20
-10.25
 30
0.0
 11
-38.900000000000063
 21
-7.5803524242518252
 31
0.0
1001
GRPNAME
1000
NBS13 09
  0
LINE
  5
174F
  8
245
 10
-40.272007266083421
 20
0.0
 30
0.0
 11
1.087664355082637
 21
0.0
 31
0.0
1001
GRPNAME
1000
PASTMD92
  0
LINE
  5
1750
  8
243
 10
-13.50000000000008
 20
10.25
 30
0.0
 11
-38.900000000000063
 21
7.5803524242518252
 31
0.0
1001
GRPNAME
1000
NBS13 08
  0
LINE
  5
1751
  8
240
 10
-31.099984741210928
 20
-17.649999999999999
 30
0.0
 11
-29.664198303584111
 21
-17.649999999999999
 31
0.0
1001
GRPNAME
1000
PASTMD93
  0
LINE
  5
1752
  8
240
 10
-31.099984741210928
 20
17.649999999999999
 30
0.0
 11
-29.664198303584111
 21
17.649999999999999
 31
0.0
1001
GRPNAME
1000
PASTMD92
  0
ENDBLK
  5
1754
  8
0
  0
BLOCK
  8
0
  2
*U10
 70
     1
 10
0.0
 20
0.0
 30
0.0
  3
*U10
  1

  0
TEXT
  5
17FC
  8
240
 62
    40
 10
11.21878975423922
 20
-8.0142857142857178
 30
0.0
 40
3.0
  1
\U+2205
 50
90.0
  0
TEXT
  5
17FD
  8
240
 62
    40
 10
11.21878975423922
 20
-5.3000000000000016
 30
0.0
 40
3.0
  1
8ü`8.5
 50
90.0
  0
ENDBLK
  5
17FF
  8
0
  0
ENDSEC
  0
SECTION
  2
ENTITIES
  0
LINE
  5
1599
  8
250
 10
-5.0999999999999934
 20
-17.5
 30
0.0
 11
21.999999999999989
 21
-17.5
 31
0.0
  0
LINE
  5
159A
  8
250
 10
-5.0999999999999934
 20
17.5
 30
0.0
 11
22.0
 21
17.499999999999989
 31
0.0
  0
LINE
  5
159B
  8
250
 10
20.999999999999989
 20
-15.27
 30
0.0
 11
21.0
 21
15.269999999999991
 31
0.0
  0
TEXT
  5
159F
  8
250
 10
19.999999999999989
 20
-4.0714285714285721
 30
0.0
 40
3.0
  1
\U+2205
 50
90.0
1001
ACAD
1000
MTEXTBEGIN
1070
    73
1070
     1
1070
    44
1040
1.0
1070
    74
1070
     0
1000
MTEXTEND
  0
TEXT
  5
15A0
  8
250
 10
19.999999999999989
 20
-1.3571428571428581
 30
0.0
 40
3.0
  1
35
 50
90.0
1001
ACAD
1000
MTEXTBEGIN
1070
    73
1070
     1
1070
    44
1040
1.0
1070
    74
1070
     0
1000
MTEXTEND
  0
LINE
  5
15A1
  8
250
 10
20.62833333333333
 20
15.269999999999991
 30
0.0
 11
21.0
 21
17.499999999999989
 31
0.0
  0
LINE
  5
15A2
  8
250
 10
21.37166666666667
 20
15.269999999999991
 30
0.0
 11
21.0
 21
17.499999999999989
 31
0.0
  0
LINE
  5
15A3
  8
250
 10
21.0
 20
17.499999999999989
 30
0.0
 11
21.0
 21
15.269999999999991
 31
0.0
  0
LINE
  5
15A4
  8
250
 10
21.371666666666648
 20
-15.27
 30
0.0
 11
20.999999999999989
 21
-17.5
 31
0.0
  0
LINE
  5
15A5
  8
250
 10
20.62833333333332
 20
-15.27
 30
0.0
 11
20.999999999999989
 21
-17.5
 31
0.0
  0
LINE
  5
15A6
  8
250
 10
20.999999999999989
 20
-17.5
 30
0.0
 11
20.999999999999989
 21
-15.27
 31
0.0
  0
TEXT
  5
15AF
  8
243
 10
-35.952380952380963
 20
35.0
 30
0.0
 40
5.0
  1
MPS13-08085
  7
YOKO
1001
ITEMNAME
1000
DI010
1001
ACAD
1000
MTEXTBEGIN
1070
    73
1070
     1
1070
    44
1040
1.0
1070
    74
1070
     0
1000
MTEXTEND
  0
INSERT
  5
1756
  8
240
  2
A$C374A03CF
 10
0.0
 20
0.0
 30
0.0
  0
LINE
  5
17CE
  8
250
 10
-7.4000000000000039
 20
4.25
 30
0.0
 11
13.21878975423923
 21
4.2499999999999947
 31
0.0
  0
LINE
  5
17CF
  8
250
 10
-7.4000000000000039
 20
-4.25
 30
0.0
 11
13.21878975423922
 21
-4.2500000000000062
 31
0.0
  0
LINE
  5
17D0
  8
250
 10
12.21878975423922
 20
2.019999999999996
 30
0.0
 11
12.21878975423922
 21
-2.0200000000000071
 31
0.0
  0
TEXT
  5
17D4
  8
250
 10
11.21878975423922
 20
-8.0142857142857178
 30
0.0
 40
3.0
  1
\U+2205
 50
90.0
  0
TEXT
  5
17D5
  8
250
 10
11.21878975423922
 20
-5.3000000000000016
 30
0.0
 40
3.0
  1
8ü`8.5
 50
90.0
  0
LINE
  5
17D6
  8
250
 10
12.590456420905889
 20
-2.0200000000000071
 30
0.0
 11
12.21878975423922
 21
-4.2500000000000062
 31
0.0
  0
LINE
  5
17D7
  8
250
 10
11.84712308757255
 20
-2.0200000000000071
 30
0.0
 11
12.21878975423922
 21
-4.2500000000000062
 31
0.0
  0
LINE
  5
17D8
  8
250
 10
12.21878975423922
 20
-4.2500000000000062
 30
0.0
 11
12.21878975423922
 21
-2.0200000000000071
 31
0.0
  0
LINE
  5
17D9
  8
250
 10
11.847123087572561
 20
2.019999999999996
 30
0.0
 11
12.21878975423922
 21
4.2499999999999947
 31
0.0
  0
LINE
  5
17DA
  8
250
 10
12.590456420905889
 20
2.019999999999996
 30
0.0
 11
12.21878975423922
 21
4.2499999999999947
 31
0.0
  0
LINE
  5
17DB
  8
250
 10
12.21878975423922
 20
4.2499999999999947
 30
0.0
 11
12.21878975423922
 21
2.019999999999996
 31
0.0
  0
VIEWPORT
  5
22
 67
     1
  8
0
 10
261.51769911504419
 20
148.5
 30
0.0
 40
523.0353982300885
 41
297.0
 68
     1
 69
     1
1001
ACAD
1000
MVIEW
1002
{
1070
    16
1010
0.0
1020
0.0
1030
0.0
1010
0.0
1020
0.0
1030
1.0
1040
0.0
1040
297.0
1040
261.51769911504419
1040
148.5
1040
50.0
1040
0.0
1040
0.0
1070
     0
1070
   100
1070
     1
1070
     1
1070
     0
1070
     0
1070
     0
1070
     0
1040
0.0
1040
0.0
1040
0.0
1040
1.0
1040
1.0
1040
10.0
1040
10.0
1070
     0
1002
{
1002
}
1002
}
1001
GENIUS_GENOBJ-N-SDF_13
1002
{
1000
OWNER
1000
GEN
1002
}
1001
GENIUS_GENODEF_13
1002
{
1000
HIER
1070
     0
1002
}
1002
{
1000
MANEDIT
1070
     0
1002
}
1002
{
1000
NOSEL
1070
     0
1002
}
1002
{
1000
BEHIND
1070
     0
1002
}
1002
{
1000
OTHER
1070
     0
1002
}
1002
{
1000
REACTOR
1002
}
1001
GENIUS_GENSCREG_15
1000
PF
1040
1.0
1000
DF
1040
1.0
1000
MIN
1011
0.0
1021
0.0
1031
0.0
1021
0.0
1031
0.0
1000
MAX
1011
523.0353982300885
1021
0.0
1031
0.0
1021
297.0
1031
0.0
1000
FLAGS
1070
     2
  0
ENDSEC
  0
EOF
