  0
SECTION
  2
HEADER
  9
$ACADVER
  1
AC1009
  9
$INSBASE
 10
0.0
 20
0.0
 30
0.0
  9
$EXTMIN
 10
-39.692554840427078
 20
-17.767453515869931
 30
-0.0000000349181948
  9
$EXTMAX
 10
22.007185341877399
 20
40.010231347084748
 30
0.0000000814935747
  9
$LIMMIN
 10
0.0
 20
0.0
  9
$LIMMAX
 10
297.0
 20
210.0
  9
$ORTHOMODE
 70
     0
  9
$REGENMODE
 70
     1
  9
$FILLMODE
 70
     1
  9
$QTEXTMODE
 70
     0
  9
$MIRRTEXT
 70
     1
  9
$DRAGMODE
 70
     2
  9
$LTSCALE
 40
10.0
  9
$OSMODE
 70
   639
  9
$ATTMODE
 70
     1
  9
$TEXTSIZE
 40
3.0
  9
$TRACEWID
 40
1.0
  9
$TEXTSTYLE
  7
YOKO
  9
$CLAYER
  8
240
  9
$CELTYPE
  6
BYLAYER
  9
$CECOLOR
 62
   256
  9
$DIMSCALE
 40
1.0
  9
$DIMASZ
 40
2.2299999999999991
  9
$DIMEXO
 40
0.5
  9
$DIMDLI
 40
2.5
  9
$DIMRND
 40
0.0
  9
$DIMDLE
 40
0.0
  9
$DIMEXE
 40
1.0
  9
$DIMTP
 40
0.0
  9
$DIMTM
 40
0.0
  9
$DIMTXT
 40
3.0
  9
$DIMCEN
 40
0.0
  9
$DIMTSZ
 40
0.0
  9
$DIMTOL
 70
     0
  9
$DIMLIM
 70
     0
  9
$DIMTIH
 70
     0
  9
$DIMTOH
 70
     0
  9
$DIMSE1
 70
     0
  9
$DIMSE2
 70
     0
  9
$DIMTAD
 70
     3
  9
$DIMZIN
 70
     8
  9
$DIMBLK
  1
OPEN
  9
$DIMASO
 70
     1
  9
$DIMSHO
 70
     1
  9
$DIMPOST
  1

  9
$DIMAPOST
  1

  9
$DIMALT
 70
     0
  9
$DIMALTD
 70
     2
  9
$DIMALTF
 40
25.399999999999999
  9
$DIMLFAC
 40
1.0
  9
$DIMTOFL
 70
     1
  9
$DIMTVP
 40
0.0
  9
$DIMTIX
 70
     0
  9
$DIMSOXD
 70
     0
  9
$DIMSAH
 70
     0
  9
$DIMBLK1
  1

  9
$DIMBLK2
  1

  9
$DIMSTYLE
  2
BIGT
  9
$DIMCLRD
 70
   256
  9
$DIMCLRE
 70
   256
  9
$DIMCLRT
 70
    40
  9
$DIMTFAC
 40
1.0
  9
$DIMGAP
 40
1.0
  9
$LUNITS
 70
     2
  9
$LUPREC
 70
     2
  9
$SKETCHINC
 40
1.0
  9
$FILLETRAD
 40
0.0
  9
$AUNITS
 70
     0
  9
$AUPREC
 70
     3
  9
$MENU
  1
.
  9
$ELEVATION
 40
0.0
  9
$PELEVATION
 40
0.0
  9
$THICKNESS
 40
0.0
  9
$LIMCHECK
 70
     0
  9
$BLIPMODE
 70
     0
  9
$CHAMFERA
 40
10.0
  9
$CHAMFERB
 40
10.0
  9
$SKPOLY
 70
     0
  9
$TDCREATE
 40
2452880.4648967362
  9
$TDUPDATE
 40
2453612.4863843638
  9
$TDINDWG
 40
0.029029213
  9
$TDUSRTIMER
 40
0.029029213
  9
$USRTIMER
 70
     1
  9
$ANGBASE
 50
0.0
  9
$ANGDIR
 70
     0
  9
$PDMODE
 70
    35
  9
$PDSIZE
 40
2.0
  9
$PLINEWID
 40
0.0
  9
$COORDS
 70
     2
  9
$SPLFRAME
 70
     0
  9
$SPLINETYPE
 70
     6
  9
$SPLINESEGS
 70
     8
  9
$ATTDIA
 70
     1
  9
$ATTREQ
 70
     1
  9
$HANDLING
 70
     1
  9
$HANDSEED
  5
1194
  9
$SURFTAB1
 70
     6
  9
$SURFTAB2
 70
     6
  9
$SURFTYPE
 70
     6
  9
$SURFU
 70
     6
  9
$SURFV
 70
     6
  9
$UCSNAME
  2

  9
$UCSORG
 10
0.0
 20
0.0
 30
0.0
  9
$UCSXDIR
 10
1.0
 20
0.0
 30
0.0
  9
$UCSYDIR
 10
0.0
 20
1.0
 30
0.0
  9
$PUCSNAME
  2

  9
$PUCSORG
 10
0.0
 20
0.0
 30
0.0
  9
$PUCSXDIR
 10
1.0
 20
0.0
 30
0.0
  9
$PUCSYDIR
 10
0.0
 20
1.0
 30
0.0
  9
$USERI1
 70
     1
  9
$USERI2
 70
     0
  9
$USERI3
 70
     0
  9
$USERI4
 70
     0
  9
$USERI5
 70
     0
  9
$USERR1
 40
0.0
  9
$USERR2
 40
0.0
  9
$USERR3
 40
0.0
  9
$USERR4
 40
0.0
  9
$USERR5
 40
0.0
  9
$WORLDVIEW
 70
     1
  9
$SHADEDGE
 70
     3
  9
$SHADEDIF
 70
    70
  9
$TILEMODE
 70
     1
  9
$MAXACTVP
 70
    16
  9
$PLIMCHECK
 70
     0
  9
$PEXTMIN
 10
1.0000000000000000E+020
 20
1.0000000000000000E+020
 30
1.0000000000000000E+020
  9
$PEXTMAX
 10
-1.0000000000000000E+020
 20
-1.0000000000000000E+020
 30
-1.0000000000000000E+020
  9
$PLIMMIN
 10
0.0
 20
0.0
  9
$PLIMMAX
 10
420.0
 20
297.0
  9
$UNITMODE
 70
     0
  9
$VISRETAIN
 70
     0
  9
$PLINEGEN
 70
     0
  9
$PSLTSCALE
 70
     1
  0
ENDSEC
  0
SECTION
  2
TABLES
  0
TABLE
  2
VPORT
 70
    11
  0
VPORT
  2
*ACTIVE
 70
     0
 10
0.0
 20
0.0
 11
1.0
 21
1.0
 12
-8.8426847492748397
 22
11.12138891560741
 13
0.0
 23
0.0
 14
7.0
 24
7.0
 15
7.0
 25
7.0
 16
0.0
 26
0.0
 36
1.0
 17
0.0
 27
0.0
 37
0.0
 40
58.122626265121582
 41
1.267928286852589
 42
50.0
 43
0.0
 44
0.0
 50
0.0
 51
0.0
 71
     0
 72
  2000
 73
     1
 74
     0
 75
     0
 76
     0
 77
     0
 78
     0
  0
ENDTAB
  0
TABLE
  2
LTYPE
 70
    16
  0
LTYPE
  2
CONTINUOUS
 70
     0
  3
Solid line
 72
    65
 73
     0
 40
0.0
  0
LTYPE
  2
CENTER2
 70
     0
  3
___ _ ___ _ ___ _ ___ _ ___ _ ___ _ ___ _ ___ _
 72
    65
 73
     4
 40
1.125
 49
0.75
 49
-0.125
 49
0.125
 49
-0.125
  0
LTYPE
  2
HIDDEN2
 70
     0
  3
_ _ _ _ _ _ _ _ _ _ _ _ _ _ _ _ _ _ _ _ _ _ _ _
 72
    65
 73
     2
 40
0.1875
 49
0.125
 49
-0.0625
  0
LTYPE
  2
HIDDEN
 70
     0
  3
Hidden __ __ __ __ __ __ __ __ __ __ __ __ __ _
 72
    65
 73
     2
 40
9.5249999999999986
 49
6.3499999999999988
 49
-3.1749999999999989
  0
LTYPE
  2
PHANTOM2
 70
     0
  3
Phantom (.5x) ___ _ _ ___ _ _ ___ _ _ ___ _ _
 72
    65
 73
     6
 40
31.75
 49
15.875
 49
-3.1749999999999989
 49
3.1749999999999989
 49
-3.1749999999999989
 49
3.1749999999999989
 49
-3.1749999999999989
  0
LTYPE
  2
CENTER
 70
     0
  3
Center ____ _ ____ _ ____ _ ____ _ ____ _ ____
 72
    65
 73
     4
 40
50.799999999999997
 49
31.75
 49
-6.3499999999999988
 49
6.3499999999999988
 49
-6.3499999999999988
  0
LTYPE
  2
AM_ISO02W050
 70
     0
  3
__ __ __ __ __ __ __ __ __ __ __ __ __ __ __
 72
    65
 73
     2
 40
7.5
 49
6.0
 49
-1.5
  0
LTYPE
  2
AM_ISO08W050
 70
     0
  3
____ . ____ . ____ . ____ . ____ . ____ . ____
 72
    65
 73
     4
 40
18.0
 49
12.0
 49
-1.5
 49
3.0
 49
-1.5
  0
LTYPE
  2
AM_ISO09W050
 70
     0
  3
_____ . . _____ . . _____ . . ____ .. ____
 72
    65
 73
     6
 40
22.5
 49
12.0
 49
-1.5
 49
3.0
 49
-1.5
 49
3.0
 49
-1.5
  0
LTYPE
  2
AMCONSTR
 70
     0
  3
_______________________
 72
    65
 73
     2
 40
9999.0
 49
9999.0
 49
0.0
  0
LTYPE
  2
AM_ISO08W050X2
 70
     0
  3
__ . __ . __ . __ . __ . __
 72
    65
 73
     4
 40
9.0
 49
6.0
 49
-0.75
 49
1.5
 49
-0.75
  0
LTYPE
  2
AM_ISO02W050X2
 70
     0
  3
 _ _ _ _ _ _ _ _ _ _ _ _
 72
    65
 73
     2
 40
3.75
 49
3.0
 49
-0.75
  0
LTYPE
  2
AMZIGZAG
 70
     0
  3
/\/-/\/-/\/-/\/-/\/-/\/
 72
    65
 73
     2
 40
11.0001
 49
0.0001
 49
-11.0
  0
LTYPE
  2
ACISOWELD
 70
     0
  3
_ _ _ _ _
 72
    65
 73
     2
 40
2.0
 49
2.0
 49
-1.0
  0
LTYPE
  2
ACISOTGB
 70
     0
  3
__ . . __ . .
 72
    65
 73
     6
 40
9.0
 49
4.0
 49
-1.0
 49
1.0
 49
-1.0
 49
1.0
 49
-1.0
  0
LTYPE
  2
ACISOTGL
 70
     0
  3
_ _ _ _ _
 72
    65
 73
     2
 40
3.0
 49
2.0
 49
-1.0
  0
ENDTAB
  0
TABLE
  2
LAYER
 70
     7
  0
LAYER
  2
0
 70
     0
 62
     7
  6
CONTINUOUS
  0
LAYER
  2
240
 70
     0
 62
     4
  6
CONTINUOUS
  0
LAYER
  2
241
 70
     0
 62
   211
  6
CONTINUOUS
  0
LAYER
  2
243
 70
     0
 62
   211
  6
HIDDEN2
  0
LAYER
  2
245
 70
     0
 62
     2
  6
CENTER2
  0
LAYER
  2
250
 70
     0
 62
     3
  6
CONTINUOUS
  0
LAYER
  2
DEFPOINTS
 70
     0
 62
     7
  6
CONTINUOUS
  0
ENDTAB
  0
TABLE
  2
STYLE
 70
     5
  0
STYLE
  2
STANDARD
 70
     0
 40
0.0
 41
1.0
 50
0.0
 71
     0
 42
3.0
  3
romans.shx
  4
BIGFONT.SHX
  0
STYLE
  2
YOKO
 70
     0
 40
0.0
 41
1.0
 50
0.0
 71
     0
 42
3.0
  3
romans.shx
  4
extfont.shx
  0
STYLE
  2

 70
     1
 40
0.0
 41
1.0
 50
0.0
 71
     0
 42
3.0
  3
ltypeshp.shx
  4

  0
STYLE
  2
ACISOTS
 70
     0
 40
1.0
 41
1.0
 50
0.0
 71
     0
 42
3.0
  3
isocp.shx
  4
extfont.shx
  0
STYLE
  2
ACISOGDT
 70
     0
 40
0.0
 41
1.0
 50
0.0
 71
     0
 42
3.0
  3
amgdt.shx
  4

  0
ENDTAB
  0
TABLE
  2
VIEW
 70
     0
  0
ENDTAB
  0
TABLE
  2
UCS
 70
     0
  0
ENDTAB
  0
TABLE
  2
APPID
 70
    16
  0
APPID
  2
ACAD
 70
     0
  0
APPID
  2
GLOBAL
 70
     0
  0
APPID
  2
DETAIL
 70
     0
  0
APPID
  2
GRPNAME
 70
     0
  0
APPID
  2
GPARA
 70
     0
  0
APPID
  2
ITEMNAME
 70
     0
  0
APPID
  2
MCAD_NO_VIS
 70
     0
  0
APPID
  2
ACAD_TEMP_GRAPHIC
 70
     0
  0
APPID
  2
AD_DRAW
 70
     0
  0
APPID
  2
ACATTRIBSERVICES
 70
     0
  0
APPID
  2
DESIGNERASSEMBLIES
 70
     0
  0
APPID
  2
ACADM_DIM_EDIT
 70
     0
  0
APPID
  2
AMDT_DM_ADJ
 70
     0
  0
APPID
  2
GENIUS_GENSCREG_15
 70
     0
  0
APPID
  2
GENIUS_GENOBJ-N-SDF_13
 70
     0
  0
APPID
  2
GENIUS_GENODEF_13
 70
     0
  0
ENDTAB
  0
TABLE
  2
DIMSTYLE
 70
     9
  0
DIMSTYLE
  2
STANDARD
 70
     0
  3

  4

  5

  6

  7

 40
1.0
 41
2.0
 42
2.0
 43
3.75
 44
2.0
 45
0.0
 46
0.0
 47
0.0
 48
0.0
140
4.0
141
0.09
142
0.0
143
25.399999999999999
144
1.0
145
0.0
146
1.0
147
1.0
 71
     0
 72
     0
 73
     1
 74
     1
 75
     0
 76
     0
 77
     0
 78
     8
170
     0
171
     2
172
     0
173
     1
174
     0
175
     0
176
   256
177
   256
178
   256
  0
DIMSTYLE
  2
BIGT
 70
     0
  3

  4

  5
OPEN
  6

  7

 40
1.0
 41
2.2299999999999991
 42
0.5
 43
2.5
 44
1.0
 45
0.0
 46
0.0
 47
0.0
 48
0.0
140
3.5
141
0.0
142
0.0
143
25.399999999999999
144
1.0
145
0.0
146
1.0
147
1.0
 71
     0
 72
     0
 73
     0
 74
     0
 75
     0
 76
     0
 77
     3
 78
     9
170
     0
171
     2
172
     1
173
     0
174
     0
175
     0
176
   256
177
   256
178
    40
  0
DIMSTYLE
  2
AM_ISO
 70
     0
  3

  4
"
  5

  6

  7

 40
1.0
 41
2.5
 42
1.0
 43
10.0
 44
1.0
 45
0.0
 46
0.0
 47
0.1
 48
0.1
140
3.5
141
0.0
142
0.0
143
0.0393701
144
1.0
145
0.0
146
0.71
147
1.5
 71
     0
 72
     0
 73
     0
 74
     0
 75
     0
 76
     0
 77
     1
 78
     8
170
     0
171
     2
172
     1
173
     0
174
     0
175
     0
176
   256
177
   256
178
     2
  0
DIMSTYLE
  2
AM_ISO$3
 70
     0
  3

  4
"
  5

  6

  7

 40
1.0
 41
2.5
 42
1.0
 43
10.0
 44
1.0
 45
0.0
 46
0.0
 47
0.1
 48
0.1
140
3.5
141
0.0
142
0.0
143
0.0393701
144
1.0
145
0.0
146
0.71
147
1.5
 71
     0
 72
     0
 73
     0
 74
     1
 75
     0
 76
     0
 77
     1
 78
     8
170
     0
171
     2
172
     0
173
     0
174
     0
175
     0
176
   256
177
   256
178
     2
  0
DIMSTYLE
  2
AM_ISO$4
 70
     0
  3

  4
"
  5

  6

  7

 40
1.0
 41
2.5
 42
1.0
 43
10.0
 44
1.0
 45
0.0
 46
0.0
 47
0.1
 48
0.1
140
3.5
141
0.0
142
0.0
143
0.0393701
144
1.0
145
0.0
146
0.71
147
1.5
 71
     0
 72
     0
 73
     0
 74
     1
 75
     0
 76
     0
 77
     1
 78
     8
170
     0
171
     2
172
     0
173
     0
174
     0
175
     0
176
   256
177
   256
178
     2
  0
DIMSTYLE
  2
AM_ISO$6
 70
     0
  3

  4
"
  5

  6

  7

 40
1.0
 41
2.5
 42
1.0
 43
10.0
 44
1.0
 45
0.0
 46
0.0
 47
0.1
 48
0.1
140
3.5
141
0.0
142
0.0
143
0.0393701
144
1.0
145
0.0
146
0.71
147
1.5
 71
     0
 72
     0
 73
     0
 74
     0
 75
     0
 76
     0
 77
     0
 78
     8
170
     0
171
     2
172
     1
173
     0
174
     0
175
     0
176
   256
177
   256
178
     2
  0
DIMSTYLE
  2
AM_ISO$7
 70
     0
  3

  4
"
  5

  6

  7

 40
1.0
 41
2.5
 42
1.0
 43
10.0
 44
1.0
 45
0.0
 46
0.0
 47
0.1
 48
0.1
140
5.0
141
0.0
142
0.0
143
0.0393701
144
1.0
145
0.0
146
0.71
147
1.5
 71
     0
 72
     0
 73
     0
 74
     0
 75
     0
 76
     0
 77
     1
 78
     8
170
     0
171
     2
172
     1
173
     0
174
     0
175
     0
176
   256
177
   256
178
     2
  0
DIMSTYLE
  2
AM_ISO$SF
 70
     0
  3

  4
"
  5

  6

  7

 40
1.0
 41
2.5
 42
1.0
 43
10.0
 44
1.0
 45
0.0
 46
0.0
 47
0.1
 48
0.1
140
3.5
141
0.0
142
0.0
143
0.0393701
144
1.0
145
0.0
146
0.71
147
1.5
 71
     0
 72
     0
 73
     0
 74
     0
 75
     1
 76
     1
 77
     1
 78
     8
170
     0
171
     2
172
     1
173
     0
174
     0
175
     0
176
   256
177
   256
178
     2
  0
DIMSTYLE
  2
AM_ISO$SH
 70
     0
  3

  4
"
  5

  6
GENAXEH
  7

 40
1.0
 41
2.5
 42
1.0
 43
10.0
 44
1.0
 45
0.0
 46
0.0
 47
0.1
 48
0.1
140
3.5
141
0.0
142
0.0
143
0.0393701
144
2.0
145
0.0
146
0.71
147
1.5
 71
     0
 72
     0
 73
     0
 74
     0
 75
     1
 76
     1
 77
     1
 78
     8
170
     0
171
     2
172
     1
173
     1
174
     0
175
     0
176
   256
177
   256
178
     2
  0
ENDTAB
  0
ENDSEC
  0
SECTION
  2
BLOCKS
  0
BLOCK
  8
0
  2
$MODEL_SPACE
 70
     0
 10
0.0
 20
0.0
 30
0.0
  3
$MODEL_SPACE
  1

  0
ENDBLK
  5
1C
  8
0
  0
BLOCK
 67
     1
  8
0
  2
$PAPER_SPACE
 70
     0
 10
0.0
 20
0.0
 30
0.0
  3
$PAPER_SPACE
  1

  0
ENDBLK
  5
19
 67
     1
  8
0
  0
BLOCK
  8
0
  2
_OPEN
 70
     0
 10
0.0
 20
0.0
 30
0.0
  3
_OPEN
  1

  0
LINE
  5
595
  8
0
  6
BYBLOCK
 62
     0
 10
-1.0
 20
0.1666666666666666
 30
0.0
 11
0.0
 21
0.0
 31
0.0
  0
LINE
  5
596
  8
0
  6
BYBLOCK
 62
     0
 10
-1.0
 20
-0.1666666666666666
 30
0.0
 11
0.0
 21
0.0
 31
0.0
  0
LINE
  5
597
  8
0
  6
BYBLOCK
 62
     0
 10
0.0
 20
0.0
 30
0.0
 11
-1.0
 21
0.0
 31
0.0
  0
ENDBLK
  5
599
  8
0
  0
BLOCK
  8
0
  2
A$C2C191AE9
 70
     0
 10
0.0
 20
0.0
 30
0.0
  3
A$C2C191AE9
  1

  0
LINE
  5
101D
  8
240
 10
-30.49998474121093
 20
17.649999999999999
 30
0.0
 11
-29.064198303584089
 21
17.649999999999999
 31
0.0
1001
GRPNAME
1000
PASTMD92
  0
LINE
  5
101E
  8
243
 10
-12.900000000000089
 20
10.25
 30
0.0
 11
-38.300000000000047
 21
7.5803524242518261
 31
0.0
1001
GRPNAME
1000
NBS13 08
  0
LINE
  5
101F
  8
240
 10
-30.49998474121093
 20
-17.649999999999999
 30
0.0
 11
-29.064198303584089
 21
-17.649999999999999
 31
0.0
1001
GRPNAME
1000
PASTMD93
  0
LINE
  5
1020
  8
243
 10
-12.900000000000089
 20
-10.25
 30
0.0
 11
-38.300000000000047
 21
-7.5803524242518261
 31
0.0
1001
GRPNAME
1000
NBS13 09
  0
LINE
  5
1021
  8
245
 10
-39.672007266083412
 20
0.0
 30
0.0
 11
1.68766435508263
 21
0.0
 31
0.0
1001
GRPNAME
1000
PASTMD92
  0
LINE
  5
1022
  8
243
 10
-38.299999999999962
 20
6.25
 30
0.0
 11
-23.29999999999999
 21
6.25
 31
0.0
  0
LINE
  5
1023
  8
243
 10
-38.299999999999962
 20
-6.25
 30
0.0
 11
-23.29999999999999
 21
-6.25
 31
0.0
  0
LINE
  5
1024
  8
240
 10
-30.99998474121092
 20
-17.149999999999999
 30
0.0
 11
-30.99998474121092
 21
0.0
 31
0.0
1001
GRPNAME
1000
PASTMD93
  0
ARC
  5
1025
  8
240
 10
-30.49998474121093
 20
-17.149999999999999
 30
0.0
 40
0.5
 50
180.00000001286469
 51
270.0000000128598
1001
GRPNAME
1000
PASTMD93
  0
LINE
  5
1026
  8
243
 10
-38.300000000000047
 20
7.5803524242518261
 30
0.0
 11
-38.300000000000047
 21
0.0
 31
0.0
1001
GRPNAME
1000
NBS13 08
  0
LINE
  5
1027
  8
240
 10
-30.99998474121092
 20
17.149999999999999
 30
0.0
 11
-30.99998474121092
 21
0.0
 31
0.0
1001
GRPNAME
1000
PASTMD92
  0
LINE
  5
1028
  8
243
 10
-38.300000000000047
 20
-7.5803524242518261
 30
0.0
 11
-38.300000000000047
 21
0.0
 31
0.0
1001
GRPNAME
1000
NBS13 09
  0
ARC
  5
1029
  8
240
 10
-30.49998474121093
 20
17.149999999999999
 30
0.0
 40
0.5
 50
89.999999989713103
 51
179.99999998970819
1001
GRPNAME
1000
PASTMD92
  0
LINE
  5
102A
  8
241
 10
-4.3000000000000114
 20
0.0
 30
0.0
 11
-4.3000000000000114
 21
-14.3236254400239
 31
0.0
1001
GRPNAME
1000
PASTMD93
  0
LINE
  5
102B
  8
241
 10
-27.699984741210951
 20
0.0
 30
0.0
 11
-27.699984741210951
 21
-17.5
 31
0.0
1001
GRPNAME
1000
PASTMD93
  0
LINE
  5
102C
  8
241
 10
-29.064198303584089
 20
0.0
 30
0.0
 11
-29.064198303584089
 21
-17.649999999999999
 31
0.0
1001
GRPNAME
1000
PASTMD93
  0
LINE
  5
102D
  8
240
 10
-0.1090356590466968
 20
-6.7122431021836908
 30
0.0
 11
-4.2430760365479028
 21
-14.258587028017731
 31
0.0
  0
LINE
  5
102E
  8
240
 10
-27.699984741210951
 20
-17.5
 30
0.0
 11
-5.0
 21
-17.5
 31
0.0
1001
GRPNAME
1000
PASTMD93
  0
ARC
  5
102F
  8
240
 10
-28.299984741210931
 20
-18.299999999999979
 30
0.0
 40
1.0000000000000011
 50
53.13010249434889
 51
135.00000014019309
1001
GRPNAME
1000
PASTMD93
  0
LINE
  5
1030
  8
240
 10
-29.007091522397481
 20
-17.592893218813419
 30
0.0
 11
-29.064198303584089
 21
-17.649999999999999
 31
0.0
1001
GRPNAME
1000
PASTMD93
  0
LINE
  5
1031
  8
240
 10
-4.3000000000000114
 20
-14.3236254400239
 30
0.0
 11
-4.3000000000000114
 21
-16.799999999999979
 31
0.0
1001
GRPNAME
1000
PASTMD93
  0
ARC
  5
1032
  8
240
 10
-5.0
 20
-16.799999999999979
 30
0.0
 40
0.6999999999999889
 50
269.99999991002028
 51
359.99999991002028
1001
GRPNAME
1000
PASTMD93
  0
ARC
  5
1033
  8
240
 10
-4.4184804166777081
 20
-14.162496948242129
 30
0.0
 40
0.1999999999999926
 50
306.32765325853393
 51
331.28517773697149
  0
LINE
  5
1034
  8
240
 10
-0.1090356590466968
 20
6.7122431021836908
 30
0.0
 11
-4.2430760365479028
 21
14.258587028017731
 31
0.0
1001
GRPNAME
1000
PASTMD2K
  0
LINE
  5
1035
  8
243
 10
-7.3000000000000123
 20
8.5179491924311321
 30
0.0
 11
-7.3000000000000123
 21
0.0
 31
0.0
1001
GRPNAME
1000
NBS13 08
  0
LINE
  5
1036
  8
241
 10
-4.3000000000000114
 20
0.0
 30
0.0
 11
-4.3000000000000114
 21
14.3236254400239
 31
0.0
1001
GRPNAME
1000
PASTMD92
  0
LINE
  5
1037
  8
241
 10
-27.699984741210951
 20
0.0
 30
0.0
 11
-27.699984741210951
 21
17.5
 31
0.0
1001
GRPNAME
1000
PASTMD92
  0
LINE
  5
1038
  8
241
 10
-29.064198303584089
 20
0.0
 30
0.0
 11
-29.064198303584089
 21
17.649999999999999
 31
0.0
1001
GRPNAME
1000
PASTMD92
  0
LINE
  5
1039
  8
243
 10
-22.29999999999999
 20
2.5
 30
0.0
 11
-7.8000000000000123
 21
2.5
 31
0.0
  0
LINE
  5
103A
  8
243
 10
-22.29999999999999
 20
-2.5
 30
0.0
 11
-7.8000000000000123
 21
-2.5
 31
0.0
  0
LINE
  5
103B
  8
243
 10
-22.29999999999999
 20
5.25
 30
0.0
 11
-22.29999999999999
 21
-5.25
 31
0.0
  0
ARC
  5
103C
  8
243
 10
-23.29999999999999
 20
-5.25
 30
0.0
 40
1.0
 50
270.0
 51
0.0
  0
ARC
  5
103D
  8
243
 10
-23.29999999999999
 20
5.25
 30
0.0
 40
1.0
 50
0.0
 51
90.0
  0
LINE
  5
103E
  8
243
 10
-7.3000000000000123
 20
-8.5179491924311321
 30
0.0
 11
-7.3000000000000123
 21
0.0
 31
0.0
1001
GRPNAME
1000
NBS13 09
  0
LINE
  5
103F
  8
243
 10
-10.300000000000059
 20
-10.25
 30
0.0
 11
-7.3000000000000682
 21
-8.5179491924311606
 31
0.0
1001
GRPNAME
1000
NBS13 09
  0
LINE
  5
1040
  8
243
 10
-12.900000000000089
 20
-8.75
 30
0.0
 11
-10.50000000000005
 21
-8.75
 31
0.0
1001
GRPNAME
1000
NBS13 09
  0
LINE
  5
1041
  8
243
 10
-12.900000000000089
 20
-10.25
 30
0.0
 11
-12.900000000000089
 21
-8.75
 31
0.0
1001
GRPNAME
1000
NBS13 09
  0
LINE
  5
1042
  8
243
 10
-10.50000000000005
 20
-8.75
 30
0.0
 11
-10.50000000000005
 21
-10.25
 31
0.0
1001
GRPNAME
1000
NBS13 09
  0
LINE
  5
1043
  8
243
 10
-10.50000000000005
 20
-10.25
 30
0.0
 11
-10.300000000000059
 21
-10.25
 31
0.0
1001
GRPNAME
1000
NBS13 09
  0
ARC
  5
1044
  8
243
 10
-7.8000000000000123
 20
-3.0
 30
0.0
 40
0.5
 50
359.99999990229981
 51
89.999999902299876
  0
ARC
  5
1045
  8
243
 10
-7.8000000000000123
 20
3.0
 30
0.0
 40
0.5
 50
269.99999997685319
 51
359.99999997684989
  0
LINE
  5
1046
  8
240
 10
-27.699984741210951
 20
17.5
 30
0.0
 11
-5.0
 21
17.5
 31
0.0
1001
GRPNAME
1000
PASTMD92
  0
ARC
  5
1047
  8
240
 10
-28.299984741210931
 20
18.299999999999979
 30
0.0
 40
0.9999999999999978
 50
224.99999991765731
 51
306.86989756350152
1001
GRPNAME
1000
PASTMD92
  0
LINE
  5
1048
  8
240
 10
-29.007091522397481
 20
17.592893218813419
 30
0.0
 11
-29.064198303584089
 21
17.649999999999999
 31
0.0
1001
GRPNAME
1000
PASTMD92
  0
LINE
  5
1049
  8
240
 10
-4.3000000000000114
 20
14.32362544002391
 30
0.0
 11
-4.3000000000000114
 21
16.799999999999979
 31
0.0
1001
GRPNAME
1000
PASTMD92
  0
LINE
  5
104A
  8
243
 10
-10.300000000000059
 20
10.25
 30
0.0
 11
-7.3000000000000682
 21
8.5179491924311606
 31
0.0
1001
GRPNAME
1000
NBS13 08
  0
LINE
  5
104B
  8
243
 10
-12.900000000000089
 20
8.75
 30
0.0
 11
-10.50000000000005
 21
8.75
 31
0.0
1001
GRPNAME
1000
NBS13 08
  0
LINE
  5
104C
  8
243
 10
-12.900000000000089
 20
10.25
 30
0.0
 11
-12.900000000000089
 21
8.75
 31
0.0
1001
GRPNAME
1000
NBS13 08
  0
LINE
  5
104D
  8
243
 10
-10.50000000000005
 20
10.25
 30
0.0
 11
-10.300000000000059
 21
10.25
 31
0.0
1001
GRPNAME
1000
NBS13 08
  0
LINE
  5
104E
  8
243
 10
-10.50000000000005
 20
8.75
 30
0.0
 11
-10.50000000000005
 21
10.25
 31
0.0
1001
GRPNAME
1000
NBS13 08
  0
ARC
  5
104F
  8
240
 10
-4.4184804166777081
 20
14.162496948242129
 30
0.0
 40
0.199999999999993
 50
28.71482226302836
 51
53.672346741467287
1001
GRPNAME
1000
PASTMD2K
  0
ARC
  5
1050
  8
240
 10
-5.0
 20
16.799999999999979
 30
0.0
 40
0.6999999999999889
 50
359.9999999871402
 51
89.999999987140185
1001
GRPNAME
1000
PASTMD92
  0
LINE
  5
1051
  8
240
 10
0.0
 20
0.0
 30
0.0
 11
0.0
 21
-6.3603977882600162
 31
0.0
  0
LINE
  5
1052
  8
240
 10
0.0
 20
-6.3603977882600162
 30
0.0
 11
-0.0645836969489437
 21
-6.6014274266144337
 31
0.0
  0
ARC
  5
1053
  8
240
 10
-0.5475466100934912
 20
-6.472017904063164
 30
0.0
 40
0.5000000000000103
 50
331.28517776754148
 51
345.00000017225608
  0
LINE
  5
1054
  8
240
 10
0.0
 20
0.0
 30
0.0
 11
0.0
 21
6.3603977882600162
 31
0.0
1001
GRPNAME
1000
PASTMD2K
  0
LINE
  5
1055
  8
240
 10
0.0
 20
6.3603977882600162
 30
0.0
 11
-0.0645836969489437
 21
6.6014274266144337
 31
0.0
1001
GRPNAME
1000
PASTMD28
  0
ARC
  5
1056
  8
240
 10
-0.5475466100934912
 20
6.472017904063164
 30
0.0
 40
0.4999999999999881
 50
14.99999982774373
 51
28.714822232458449
1001
GRPNAME
1000
PASTMD28
  0
ENDBLK
  5
1058
  8
0
  0
BLOCK
  8
0
  2
GENAXEH
 70
     0
 10
0.0
 20
0.0
 30
0.0
  3
GENAXEH
  1

  0
LINE
  5
1130
  8
0
 10
-1.0
 20
0.0
 30
0.0
 11
1.0
 21
0.0
 31
0.0
  0
ENDBLK
  5
1132
  8
0
  0
BLOCK
  8
0
  2
*U6
 70
     1
 10
0.0
 20
0.0
 30
0.0
  3
*U6
  1

  0
TEXT
  5
1187
  8
250
 62
    40
 10
19.999999999999989
 20
-4.0714285714285721
 30
0.0
 40
3.0
  1
\U+2205
 50
90.0
  0
TEXT
  5
1188
  8
250
 62
    40
 10
19.999999999999989
 20
-1.3571428571428581
 30
0.0
 40
3.0
  1
35
 50
90.0
  0
ENDBLK
  5
118A
  8
0
  0
BLOCK
  8
0
  2
*U7
 70
     1
 10
0.0
 20
0.0
 30
0.0
  3
*U7
  1

  0
TEXT
  5
1190
  8
250
 62
    40
 10
12.962788370713779
 20
-5.8602320101959471
 30
0.0
 40
3.0
  1
\U+2205
 50
90.0
  0
TEXT
  5
1191
  8
250
 62
    40
 10
12.962788370713779
 20
-3.145946295910234
 30
0.0
 40
3.0
  1
4ü`5
 50
90.0
  0
ENDBLK
  5
1193
  8
0
  0
ENDSEC
  0
SECTION
  2
ENTITIES
  0
INSERT
  5
1059
  8
240
  2
A$C2C191AE9
 10
0.0
 20
0.0
 30
0.0
  0
LINE
  5
114C
  8
250
 10
-7.299999999147416
 20
-2.5
 30
0.0
 11
15.0
 21
-2.5000000000000062
 31
0.0
  0
LINE
  5
114D
  8
250
 10
-7.3000000000000123
 20
2.5
 30
0.0
 11
15.0
 21
2.4999999999999929
 31
0.0
  0
LINE
  5
114E
  8
250
 10
14.0
 20
-4.7300000000000049
 30
0.0
 11
14.0
 21
-6.9600000000000044
 31
0.0
  0
LINE
  5
114F
  8
250
 10
14.0
 20
4.7299999999999933
 30
0.0
 11
14.0
 21
6.9599999999999911
 31
0.0
  0
LINE
  5
1151
  8
250
 10
14.0
 20
-2.5000000000000062
 30
0.0
 11
14.0
 21
2.4999999999999929
 31
0.0
  0
LINE
  5
1154
  8
250
 10
-4.5
 20
-17.5
 30
0.0
 11
21.999999999999989
 21
-17.5
 31
0.0
  0
LINE
  5
1155
  8
250
 10
-4.5
 20
17.5
 30
0.0
 11
22.0
 21
17.499999999999989
 31
0.0
  0
LINE
  5
1156
  8
250
 10
20.999999999999989
 20
-15.27
 30
0.0
 11
21.0
 21
15.269999999999991
 31
0.0
  0
TEXT
  5
115A
  8
250
 10
19.999999999999989
 20
-4.0714285714285721
 30
0.0
 40
3.0
  1
\U+2205
 50
90.0
1001
ACAD
1000
MTEXTBEGIN
1070
    73
1070
     1
1070
    44
1040
1.0
1070
    74
1070
     0
1000
MTEXTEND
  0
TEXT
  5
115B
  8
250
 10
19.999999999999989
 20
-1.3571428571428581
 30
0.0
 40
3.0
  1
35
 50
90.0
1001
ACAD
1000
MTEXTBEGIN
1070
    73
1070
     1
1070
    44
1040
1.0
1070
    74
1070
     0
1000
MTEXTEND
  0
LINE
  5
115C
  8
250
 10
20.62833333333333
 20
15.269999999999991
 30
0.0
 11
21.0
 21
17.499999999999989
 31
0.0
  0
LINE
  5
115D
  8
250
 10
21.37166666666667
 20
15.269999999999991
 30
0.0
 11
21.0
 21
17.499999999999989
 31
0.0
  0
LINE
  5
115E
  8
250
 10
21.0
 20
17.499999999999989
 30
0.0
 11
21.0
 21
15.269999999999991
 31
0.0
  0
LINE
  5
115F
  8
250
 10
21.371666666666648
 20
-15.27
 30
0.0
 11
20.999999999999989
 21
-17.5
 31
0.0
  0
LINE
  5
1160
  8
250
 10
20.62833333333332
 20
-15.27
 30
0.0
 11
20.999999999999989
 21
-17.5
 31
0.0
  0
LINE
  5
1161
  8
250
 10
20.999999999999989
 20
-17.5
 30
0.0
 11
20.999999999999989
 21
-15.27
 31
0.0
  0
LINE
  5
1162
  8
250
 10
14.371666666666661
 20
4.7299999999999933
 30
0.0
 11
14.0
 21
2.4999999999999929
 31
0.0
  0
LINE
  5
1163
  8
250
 10
13.62833333333333
 20
4.7299999999999933
 30
0.0
 11
14.0
 21
2.4999999999999929
 31
0.0
  0
LINE
  5
1164
  8
250
 10
14.0
 20
2.4999999999999929
 30
0.0
 11
14.0
 21
4.7299999999999933
 31
0.0
  0
LINE
  5
1165
  8
250
 10
13.62833333333333
 20
-4.7300000000000049
 30
0.0
 11
14.0
 21
-2.5000000000000062
 31
0.0
  0
LINE
  5
1166
  8
250
 10
14.371666666666661
 20
-4.7300000000000049
 30
0.0
 11
14.0
 21
-2.5000000000000062
 31
0.0
  0
LINE
  5
1167
  8
250
 10
14.0
 20
-2.5000000000000062
 30
0.0
 11
14.0
 21
-4.7300000000000049
 31
0.0
  0
TEXT
  5
1168
  8
250
 10
12.962788370713779
 20
-5.8602320101959471
 30
0.0
 40
3.0
  1
\U+2205
 50
90.0
  0
TEXT
  5
1169
  8
250
 10
12.962788370713779
 20
-3.145946295910234
 30
0.0
 40
3.0
  1
4ü`5
 50
90.0
  0
TEXT
  5
116A
  8
243
 10
-35.952380952380949
 20
35.0
 30
0.0
 40
5.0
  1
MPS13-0405
  7
YOKO
1001
ITEMNAME
1000
DI010
1001
ACAD
1000
MTEXTBEGIN
1070
    73
1070
     1
1070
    44
1040
1.0
1070
    74
1070
     0
1000
MTEXTEND
  0
VIEWPORT
  5
22
 67
     1
  8
0
 10
261.51769911504419
 20
148.5
 30
0.0
 40
523.0353982300885
 41
297.0
 68
     1
 69
     1
1001
ACAD
1000
MVIEW
1002
{
1070
    16
1010
0.0
1020
0.0
1030
0.0
1010
0.0
1020
0.0
1030
1.0
1040
0.0
1040
297.0
1040
261.51769911504419
1040
148.5
1040
50.0
1040
0.0
1040
0.0
1070
     0
1070
   100
1070
     1
1070
     1
1070
     0
1070
     0
1070
     0
1070
     0
1040
0.0
1040
0.0
1040
0.0
1040
1.0
1040
1.0
1040
10.0
1040
10.0
1070
     0
1002
{
1002
}
1002
}
1001
GENIUS_GENOBJ-N-SDF_13
1002
{
1000
OWNER
1000
GEN
1002
}
1001
GENIUS_GENODEF_13
1002
{
1000
HIER
1070
     0
1002
}
1002
{
1000
MANEDIT
1070
     0
1002
}
1002
{
1000
NOSEL
1070
     0
1002
}
1002
{
1000
BEHIND
1070
     0
1002
}
1002
{
1000
OTHER
1070
     0
1002
}
1002
{
1000
REACTOR
1002
}
1001
GENIUS_GENSCREG_15
1000
PF
1040
1.0
1000
DF
1040
1.0
1000
MIN
1011
0.0
1021
1.0611050138975585E+034
1031
6.8020828293367406E+078
1021
0.0
1031
0.0
1000
MAX
1011
523.0353982300885
1021
1.0611050138975585E+034
1031
6.8020828293367406E+078
1021
297.0
1031
0.0
1000
FLAGS
1070
     2
  0
ENDSEC
  0
EOF
