  0
SECTION
  2
HEADER
  9
$ACADVER
  1
AC1009
  9
$INSBASE
 10
0.0
 20
0.0
 30
0.0
  9
$EXTMIN
 10
-35.115198774560668
 20
-15.26386226739163
 30
-0.0000000000000058
  9
$EXTMAX
 10
22.021101599607849
 20
40.005491401068468
 30
0.0000000000000104
  9
$LIMMIN
 10
0.0
 20
0.0
  9
$LIMMAX
 10
297.0
 20
210.0
  9
$ORTHOMODE
 70
     0
  9
$REGENMODE
 70
     1
  9
$FILLMODE
 70
     1
  9
$QTEXTMODE
 70
     0
  9
$MIRRTEXT
 70
     1
  9
$DRAGMODE
 70
     2
  9
$LTSCALE
 40
10.0
  9
$OSMODE
 70
   639
  9
$ATTMODE
 70
     1
  9
$TEXTSIZE
 40
3.0
  9
$TRACEWID
 40
1.0
  9
$TEXTSTYLE
  7
YOKO
  9
$CLAYER
  8
240
  9
$CELTYPE
  6
BYLAYER
  9
$CECOLOR
 62
   256
  9
$DIMSCALE
 40
1.0
  9
$DIMASZ
 40
2.2299999999999991
  9
$DIMEXO
 40
0.5
  9
$DIMDLI
 40
2.5
  9
$DIMRND
 40
0.0
  9
$DIMDLE
 40
0.0
  9
$DIMEXE
 40
1.0
  9
$DIMTP
 40
0.0
  9
$DIMTM
 40
0.0
  9
$DIMTXT
 40
3.0
  9
$DIMCEN
 40
0.0
  9
$DIMTSZ
 40
0.0
  9
$DIMTOL
 70
     0
  9
$DIMLIM
 70
     0
  9
$DIMTIH
 70
     0
  9
$DIMTOH
 70
     0
  9
$DIMSE1
 70
     0
  9
$DIMSE2
 70
     0
  9
$DIMTAD
 70
     3
  9
$DIMZIN
 70
     8
  9
$DIMBLK
  1
OPEN
  9
$DIMASO
 70
     1
  9
$DIMSHO
 70
     1
  9
$DIMPOST
  1

  9
$DIMAPOST
  1

  9
$DIMALT
 70
     0
  9
$DIMALTD
 70
     2
  9
$DIMALTF
 40
25.399999999999999
  9
$DIMLFAC
 40
1.0
  9
$DIMTOFL
 70
     1
  9
$DIMTVP
 40
0.0
  9
$DIMTIX
 70
     0
  9
$DIMSOXD
 70
     0
  9
$DIMSAH
 70
     0
  9
$DIMBLK1
  1

  9
$DIMBLK2
  1

  9
$DIMSTYLE
  2
BIGT
  9
$DIMCLRD
 70
   256
  9
$DIMCLRE
 70
   256
  9
$DIMCLRT
 70
    40
  9
$DIMTFAC
 40
1.0
  9
$DIMGAP
 40
1.0
  9
$LUNITS
 70
     2
  9
$LUPREC
 70
     2
  9
$SKETCHINC
 40
1.0
  9
$FILLETRAD
 40
0.0
  9
$AUNITS
 70
     0
  9
$AUPREC
 70
     3
  9
$MENU
  1
.
  9
$ELEVATION
 40
0.0
  9
$PELEVATION
 40
0.0
  9
$THICKNESS
 40
0.0
  9
$LIMCHECK
 70
     0
  9
$BLIPMODE
 70
     0
  9
$CHAMFERA
 40
10.0
  9
$CHAMFERB
 40
10.0
  9
$SKPOLY
 70
     0
  9
$TDCREATE
 40
2452880.4648967362
  9
$TDUPDATE
 40
2453612.6537727779
  9
$TDINDWG
 40
0.0155177546
  9
$TDUSRTIMER
 40
0.0155173958
  9
$USRTIMER
 70
     1
  9
$ANGBASE
 50
0.0
  9
$ANGDIR
 70
     0
  9
$PDMODE
 70
    35
  9
$PDSIZE
 40
2.0
  9
$PLINEWID
 40
0.0
  9
$COORDS
 70
     2
  9
$SPLFRAME
 70
     0
  9
$SPLINETYPE
 70
     6
  9
$SPLINESEGS
 70
     8
  9
$ATTDIA
 70
     1
  9
$ATTREQ
 70
     1
  9
$HANDLING
 70
     1
  9
$HANDSEED
  5
10AF
  9
$SURFTAB1
 70
     6
  9
$SURFTAB2
 70
     6
  9
$SURFTYPE
 70
     6
  9
$SURFU
 70
     6
  9
$SURFV
 70
     6
  9
$UCSNAME
  2

  9
$UCSORG
 10
0.0
 20
0.0
 30
0.0
  9
$UCSXDIR
 10
1.0
 20
0.0
 30
0.0
  9
$UCSYDIR
 10
0.0
 20
1.0
 30
0.0
  9
$PUCSNAME
  2

  9
$PUCSORG
 10
0.0
 20
0.0
 30
0.0
  9
$PUCSXDIR
 10
1.0
 20
0.0
 30
0.0
  9
$PUCSYDIR
 10
0.0
 20
1.0
 30
0.0
  9
$USERI1
 70
     1
  9
$USERI2
 70
     0
  9
$USERI3
 70
     0
  9
$USERI4
 70
     0
  9
$USERI5
 70
     0
  9
$USERR1
 40
0.0
  9
$USERR2
 40
0.0
  9
$USERR3
 40
0.0
  9
$USERR4
 40
0.0
  9
$USERR5
 40
0.0
  9
$WORLDVIEW
 70
     1
  9
$SHADEDGE
 70
     3
  9
$SHADEDIF
 70
    70
  9
$TILEMODE
 70
     1
  9
$MAXACTVP
 70
    16
  9
$PLIMCHECK
 70
     0
  9
$PEXTMIN
 10
1.0000000000000000E+020
 20
1.0000000000000000E+020
 30
1.0000000000000000E+020
  9
$PEXTMAX
 10
-1.0000000000000000E+020
 20
-1.0000000000000000E+020
 30
-1.0000000000000000E+020
  9
$PLIMMIN
 10
0.0
 20
0.0
  9
$PLIMMAX
 10
420.0
 20
297.0
  9
$UNITMODE
 70
     0
  9
$VISRETAIN
 70
     0
  9
$PLINEGEN
 70
     0
  9
$PSLTSCALE
 70
     1
  0
ENDSEC
  0
SECTION
  2
TABLES
  0
TABLE
  2
VPORT
 70
     5
  0
VPORT
  2
*ACTIVE
 70
     0
 10
0.0
 20
0.0
 11
1.0
 21
1.0
 12
-6.5470485874764099
 22
12.370814566838421
 13
0.0
 23
0.0
 14
7.0
 24
7.0
 15
7.0
 25
7.0
 16
0.0
 26
0.0
 36
1.0
 17
0.0
 27
0.0
 37
0.0
 40
68.61426894944465
 41
0.8386454183266932
 42
50.0
 43
0.0
 44
0.0
 50
0.0
 51
0.0
 71
     0
 72
  2000
 73
     1
 74
     0
 75
     0
 76
     0
 77
     0
 78
     0
  0
ENDTAB
  0
TABLE
  2
LTYPE
 70
    16
  0
LTYPE
  2
CONTINUOUS
 70
     0
  3
Solid line
 72
    65
 73
     0
 40
0.0
  0
LTYPE
  2
CENTER2
 70
     0
  3
___ _ ___ _ ___ _ ___ _ ___ _ ___ _ ___ _ ___ _
 72
    65
 73
     4
 40
1.125
 49
0.75
 49
-0.125
 49
0.125
 49
-0.125
  0
LTYPE
  2
HIDDEN2
 70
     0
  3
_ _ _ _ _ _ _ _ _ _ _ _ _ _ _ _ _ _ _ _ _ _ _ _
 72
    65
 73
     2
 40
0.1875
 49
0.125
 49
-0.0625
  0
LTYPE
  2
HIDDEN
 70
     0
  3
Hidden __ __ __ __ __ __ __ __ __ __ __ __ __ _
 72
    65
 73
     2
 40
9.5249999999999986
 49
6.349999999999997
 49
-3.174999999999998
  0
LTYPE
  2
PHANTOM2
 70
     0
  3
Phantom (.5x) ___ _ _ ___ _ _ ___ _ _ ___ _ _
 72
    65
 73
     6
 40
31.75
 49
15.875
 49
-3.174999999999998
 49
3.174999999999998
 49
-3.174999999999998
 49
3.174999999999998
 49
-3.174999999999998
  0
LTYPE
  2
CENTER
 70
     0
  3
Center ____ _ ____ _ ____ _ ____ _ ____ _ ____
 72
    65
 73
     4
 40
50.799999999999997
 49
31.75
 49
-6.349999999999997
 49
6.349999999999997
 49
-6.349999999999997
  0
LTYPE
  2
AMCONSTR
 70
     0
  3
_______________________
 72
    65
 73
     2
 40
9999.0
 49
9999.0
 49
0.0
  0
LTYPE
  2
AMZIGZAG2
 70
     0
  3
/\/-/\/-/\/-/\/-/\/-/\/
 72
    65
 73
     2
 40
0.4401
 49
0.0001
 49
-0.4400000000000002
  0
LTYPE
  2
ACANSTGB
 70
     0
  3
__ . . __ . .
 72
    65
 73
     6
 40
0.35433070866
 49
0.15748031496
 49
-0.03937007874
 49
0.03937007874
 49
-0.03937007874
 49
0.03937007874
 49
-0.03937007874
  0
LTYPE
  2
ACANSTGL
 70
     0
  3
_ _ _ _ _
 72
    65
 73
     2
 40
0.11811023622
 49
0.07874015748
 49
-0.03937007874
  0
ENDTAB
  0
TABLE
  2
LAYER
 70
     7
  0
LAYER
  2
0
 70
     0
 62
     7
  6
CONTINUOUS
  0
LAYER
  2
240
 70
     0
 62
     4
  6
CONTINUOUS
  0
LAYER
  2
241
 70
     0
 62
   211
  6
CONTINUOUS
  0
LAYER
  2
243
 70
     0
 62
   211
  6
HIDDEN2
  0
LAYER
  2
245
 70
     0
 62
     2
  6
CENTER2
  0
LAYER
  2
250
 70
     0
 62
     3
  6
CONTINUOUS
  0
LAYER
  2
DEFPOINTS
 70
     0
 62
     7
  6
CONTINUOUS
  0
ENDTAB
  0
TABLE
  2
STYLE
 70
     5
  0
STYLE
  2
STANDARD
 70
     0
 40
0.0
 41
1.0
 50
0.0
 71
     0
 42
3.0
  3
romans.shx
  4
BIGFONT.SHX
  0
STYLE
  2
YOKO
 70
     0
 40
0.0
 41
1.0
 50
0.0
 71
     0
 42
3.0
  3
romans.shx
  4
extfont.shx
  0
STYLE
  2
ACANSTS
 70
     0
 40
1.0
 41
1.0
 50
0.0
 71
     0
 42
3.0
  3
romans.shx
  4
extfont.shx
  0
STYLE
  2
ACANSGDT
 70
     0
 40
0.0
 41
1.0
 50
0.0
 71
     0
 42
3.0
  3
amgdtans.shx
  4

  0
ENDTAB
  0
TABLE
  2
VIEW
 70
     0
  0
ENDTAB
  0
TABLE
  2
UCS
 70
     0
  0
ENDTAB
  0
TABLE
  2
APPID
 70
    16
  0
APPID
  2
ACAD
 70
     0
  0
APPID
  2
GLOBAL
 70
     0
  0
APPID
  2
DETAIL
 70
     0
  0
APPID
  2
GRPNAME
 70
     0
  0
APPID
  2
GPARA
 70
     0
  0
APPID
  2
ITEMNAME
 70
     0
  0
APPID
  2
MCAD_NO_VIS
 70
     0
  0
APPID
  2
ACAD_TEMP_GRAPHIC
 70
     0
  0
APPID
  2
AD_DRAW
 70
     0
  0
APPID
  2
ACATTRIBSERVICES
 70
     0
  0
APPID
  2
DESIGNERASSEMBLIES
 70
     0
  0
APPID
  2
ACADM_DIM_EDIT
 70
     0
  0
APPID
  2
AMDT_DM_ADJ
 70
     0
  0
APPID
  2
GENIUS_GENSCREG_15
 70
     0
  0
APPID
  2
GENIUS_GENOBJ-N-SDF_13
 70
     0
  0
APPID
  2
GENIUS_GENODEF_13
 70
     0
  0
ENDTAB
  0
TABLE
  2
DIMSTYLE
 70
     8
  0
DIMSTYLE
  2
STANDARD
 70
     0
  3

  4

  5

  6

  7

 40
1.0
 41
2.0
 42
2.0
 43
3.75
 44
2.0
 45
0.0
 46
0.0
 47
0.0
 48
0.0
140
4.0
141
0.09
142
0.0
143
25.399999999999999
144
1.0
145
0.0
146
1.0
147
1.0
 71
     0
 72
     0
 73
     1
 74
     1
 75
     0
 76
     0
 77
     0
 78
     8
170
     0
171
     2
172
     0
173
     1
174
     0
175
     0
176
   256
177
   256
178
   256
  0
DIMSTYLE
  2
BIGT
 70
     0
  3

  4

  5

  6

  7

 40
1.0
 41
2.2299999999999991
 42
0.5
 43
2.5
 44
1.0
 45
0.0
 46
0.0
 47
0.0
 48
0.0
140
3.5
141
0.0
142
0.0
143
25.399999999999999
144
1.0
145
0.0
146
1.0
147
1.0
 71
     0
 72
     0
 73
     0
 74
     0
 75
     0
 76
     0
 77
     3
 78
     9
170
     0
171
     2
172
     1
173
     0
174
     0
175
     0
176
   256
177
   256
178
    40
  0
DIMSTYLE
  2
AM_ANSI
 70
     0
  3

  4
mm
  5

  6

  7

 40
1.0
 41
0.1
 42
0.05
 43
0.5
 44
0.1
 45
0.0
 46
0.0
 47
0.1
 48
0.1
140
0.12
141
0.0
142
0.0
143
25.399999999999999
144
1.0
145
0.0
146
0.71
147
0.06
 71
     0
 72
     0
 73
     1
 74
     1
 75
     0
 76
     0
 77
     0
 78
     7
170
     0
171
     2
172
     0
173
     0
174
     0
175
     0
176
   256
177
   256
178
     2
  0
DIMSTYLE
  2
AM_ANSI$3
 70
     0
  3

  4
mm
  5

  6

  7

 40
1.0
 41
0.1
 42
0.05
 43
0.5
 44
0.1
 45
0.0
 46
0.0
 47
0.1
 48
0.1
140
0.12
141
0.0
142
0.0
143
25.399999999999999
144
1.0
145
0.0
146
0.71
147
0.06
 71
     0
 72
     0
 73
     1
 74
     1
 75
     0
 76
     0
 77
     0
 78
     7
170
     0
171
     2
172
     0
173
     0
174
     0
175
     0
176
   256
177
   256
178
     2
  0
DIMSTYLE
  2
AM_ANSI$4
 70
     0
  3

  4
mm
  5

  6

  7

 40
1.0
 41
0.1
 42
0.05
 43
0.5
 44
0.1
 45
0.0
 46
0.0
 47
0.1
 48
0.1
140
0.12
141
0.0
142
0.0
143
25.399999999999999
144
1.0
145
0.0
146
0.71
147
0.06
 71
     0
 72
     0
 73
     1
 74
     1
 75
     0
 76
     0
 77
     0
 78
     7
170
     0
171
     2
172
     0
173
     0
174
     0
175
     0
176
   256
177
   256
178
     2
  0
DIMSTYLE
  2
AM_ANSI$7
 70
     0
  3

  4
mm
  5

  6

  7

 40
1.0
 41
0.1
 42
0.05
 43
0.5
 44
0.1
 45
0.0
 46
0.0
 47
0.1
 48
0.1
140
0.24
141
0.0
142
0.0
143
25.399999999999999
144
1.0
145
0.0
146
0.71
147
0.06
 71
     0
 72
     0
 73
     1
 74
     1
 75
     0
 76
     0
 77
     0
 78
     7
170
     0
171
     2
172
     0
173
     0
174
     0
175
     0
176
   256
177
   256
178
     2
  0
DIMSTYLE
  2
AM_ANSI$SF
 70
     0
  3

  4
mm
  5

  6

  7

 40
1.0
 41
0.1
 42
0.05
 43
0.5
 44
0.1
 45
0.0
 46
0.0
 47
0.1
 48
0.1
140
0.12
141
0.0
142
0.0
143
25.399999999999999
144
1.0
145
0.0
146
0.71
147
0.06
 71
     0
 72
     0
 73
     1
 74
     1
 75
     1
 76
     1
 77
     0
 78
     7
170
     0
171
     2
172
     0
173
     0
174
     0
175
     0
176
   256
177
   256
178
     2
  0
DIMSTYLE
  2
AM_ANSI$SH
 70
     0
  3

  4
mm
  5

  6

  7

 40
1.0
 41
0.1
 42
0.05
 43
0.5
 44
0.1
 45
0.0
 46
0.0
 47
0.1
 48
0.1
140
0.12
141
0.0
142
0.0
143
25.399999999999999
144
1.0
145
0.0
146
0.71
147
0.06
 71
     0
 72
     0
 73
     1
 74
     1
 75
     1
 76
     1
 77
     0
 78
     7
170
     0
171
     2
172
     0
173
     1
174
     0
175
     0
176
   256
177
   256
178
     2
  0
ENDTAB
  0
ENDSEC
  0
SECTION
  2
BLOCKS
  0
BLOCK
  8
0
  2
$MODEL_SPACE
 70
     0
 10
0.0
 20
0.0
 30
0.0
  3
$MODEL_SPACE
  1

  0
ENDBLK
  5
F61
  8
0
  0
BLOCK
 67
     1
  8
0
  2
$PAPER_SPACE
 70
     0
 10
0.0
 20
0.0
 30
0.0
  3
$PAPER_SPACE
  1

  0
ENDBLK
  5
F5D
 67
     1
  8
0
  0
BLOCK
  8
0
  2
_OPEN
 70
     0
 10
0.0
 20
0.0
 30
0.0
  3
_OPEN
  1

  0
LINE
  5
595
  8
0
  6
BYBLOCK
 62
     0
 10
-1.0
 20
0.1666666666666666
 30
0.0
 11
0.0
 21
0.0
 31
0.0
  0
LINE
  5
596
  8
0
  6
BYBLOCK
 62
     0
 10
-1.0
 20
-0.1666666666666666
 30
0.0
 11
0.0
 21
0.0
 31
0.0
  0
LINE
  5
597
  8
0
  6
BYBLOCK
 62
     0
 10
0.0
 20
0.0
 30
0.0
 11
-1.0
 21
0.0
 31
0.0
  0
ENDBLK
  5
599
  8
0
  0
BLOCK
  8
0
  2
A$C097E2331
 70
     0
 10
0.0
 20
0.0
 30
0.0
  3
A$C097E2331
  1

  0
LINE
  5
105C
  8
243
 10
-34.29999999999999
 20
5.8664152946719241
 30
0.0
 11
-11.89999999999997
 21
8.25
 31
0.0
1001
GRPNAME
1000
NBS10 09
  0
LINE
  5
105D
  8
240
 10
-24.79999999999999
 20
15.0
 30
0.0
 11
-5.100000000000021
 21
15.0
 31
0.0
1001
GRPNAME
1000
PASTMD6X
  0
LINE
  5
105E
  8
245
 10
-35.100000000000009
 20
0.0
 30
0.0
 11
0.6999999999999889
 21
0.0
 31
0.0
1001
GRPNAME
1000
PASTMD6X
  0
LINE
  5
105F
  8
243
 10
-34.29999999999999
 20
-5.8664152946719241
 30
0.0
 11
-11.89999999999997
 21
-8.25
 31
0.0
1001
GRPNAME
1000
NBS10 0A
  0
LINE
  5
1060
  8
240
 10
-24.79999999999999
 20
-15.0
 30
0.0
 11
-5.100000000000021
 21
-15.0
 31
0.0
1001
GRPNAME
1000
PASTMD6Y
  0
LINE
  5
1061
  8
241
 10
-26.164213562373089
 20
0.0
 30
0.0
 11
-26.164213562373089
 21
-15.15
 31
0.0
1001
GRPNAME
1000
PASTMD6Y
  0
LINE
  5
1062
  8
241
 10
-24.79999999999999
 20
0.0
 30
0.0
 11
-24.79999999999999
 21
-15.0
 31
0.0
1001
GRPNAME
1000
PASTMD6Y
  0
LINE
  5
1063
  8
240
 10
-28.100000000000001
 20
-14.65
 30
0.0
 11
-28.100000000000001
 21
0.0
 31
0.0
1001
GRPNAME
1000
PASTMD6Y
  0
ARC
  5
1064
  8
240
 10
-27.600000000000009
 20
-14.65
 30
0.0
 40
0.5
 50
180.00000001286139
 51
270.0000000128631
1001
GRPNAME
1000
PASTMD6Y
  0
LINE
  5
1065
  8
240
 10
-26.107106781186541
 20
-15.09289321881344
 30
0.0
 11
-26.164213562373089
 21
-15.15
 31
0.0
1001
GRPNAME
1000
PASTMD6Y
  0
ARC
  5
1066
  8
240
 10
-25.40000000000002
 20
-15.80000000000001
 30
0.0
 40
1.0000000000000051
 50
53.130102552199837
 51
135.00000019804369
1001
GRPNAME
1000
PASTMD6Y
  0
LINE
  5
1067
  8
240
 10
-27.600000000000009
 20
-15.15
 30
0.0
 11
-26.164213562373089
 21
-15.15
 31
0.0
1001
GRPNAME
1000
PASTMD6Y
  0
LINE
  5
1068
  8
241
 10
-26.164213562373089
 20
0.0
 30
0.0
 11
-26.164213562373089
 21
15.15
 31
0.0
1001
GRPNAME
1000
PASTMD6X
  0
LINE
  5
1069
  8
241
 10
-24.79999999999999
 20
0.0
 30
0.0
 11
-24.79999999999999
 21
15.0
 31
0.0
1001
GRPNAME
1000
PASTMD6X
  0
LINE
  5
106A
  8
240
 10
-28.100000000000001
 20
14.65
 30
0.0
 11
-28.100000000000001
 21
0.0
 31
0.0
1001
GRPNAME
1000
PASTMD6X
  0
LINE
  5
106B
  8
243
 10
-34.29999999999999
 20
-5.8664152946719241
 30
0.0
 11
-34.29999999999999
 21
5.8664152946719241
 31
0.0
1001
GRPNAME
1000
NBS10 0A
  0
LINE
  5
106C
  8
243
 10
-29.899999999999991
 20
4.25
 30
0.0
 11
-29.899999999999991
 21
-4.25
 31
0.0
  0
LINE
  5
106D
  8
243
 10
-30.399999999999991
 20
-4.75
 30
0.0
 11
-34.29999999999999
 21
-4.75
 31
0.0
  0
ARC
  5
106E
  8
243
 10
-30.399999999999991
 20
-4.25
 30
0.0
 40
0.5
 50
270.0
 51
0.0
  0
LINE
  5
106F
  8
243
 10
-30.399999999999991
 20
4.75
 30
0.0
 11
-34.29999999999999
 21
4.75
 31
0.0
  0
ARC
  5
1070
  8
243
 10
-30.399999999999991
 20
4.25
 30
0.0
 40
0.5
 50
0.0
 51
90.0
  0
ARC
  5
1071
  8
240
 10
-27.600000000000009
 20
14.65
 30
0.0
 40
0.5
 50
89.999999989709835
 51
179.9999999897114
1001
GRPNAME
1000
PASTMD6X
  0
LINE
  5
1072
  8
240
 10
-26.107106781186541
 20
15.09289321881344
 30
0.0
 11
-26.164213562373089
 21
15.15
 31
0.0
1001
GRPNAME
1000
PASTMD6X
  0
ARC
  5
1073
  8
240
 10
-25.40000000000002
 20
15.80000000000001
 30
0.0
 40
0.9999999999999978
 50
224.99999985980679
 51
306.86989750565112
1001
GRPNAME
1000
PASTMD6X
  0
LINE
  5
1074
  8
240
 10
-27.600000000000009
 20
15.15
 30
0.0
 11
-26.164213562373089
 21
15.15
 31
0.0
1001
GRPNAME
1000
PASTMD6X
  0
LINE
  5
1075
  8
241
 10
-4.3000000000000114
 20
0.0
 30
0.0
 11
-4.3000000000000114
 21
-11.955688379741339
 31
0.0
1001
GRPNAME
1000
PASTMD6Y
  0
LINE
  5
1076
  8
243
 10
-7.2999999999999501
 20
-6.9220943808638227
 30
0.0
 11
-9.5999999999999623
 21
-8.25
 31
0.0
1001
GRPNAME
1000
NBS10 0A
  0
LINE
  5
1077
  8
243
 10
-9.7999999999999527
 20
-8.25
 30
0.0
 11
-9.7999999999999527
 21
-7.0
 31
0.0
1001
GRPNAME
1000
NBS10 0A
  0
LINE
  5
1078
  8
243
 10
-11.89999999999997
 20
-7.0
 30
0.0
 11
-11.89999999999997
 21
-8.25
 31
0.0
1001
GRPNAME
1000
NBS10 0A
  0
ARC
  5
1079
  8
240
 10
-0.4971171841314689
 20
-7.8772570618785931
 30
0.0
 40
0.5000000000000237
 50
311.9754062893457
 51
345.00000017225722
  0
LINE
  5
107A
  8
243
 10
-9.7999999999999527
 20
-8.25
 30
0.0
 11
-9.5999999999999623
 21
-8.25
 31
0.0
1001
GRPNAME
1000
NBS10 0A
  0
LINE
  5
107B
  8
240
 10
-4.3000000000000114
 20
-11.955688379741339
 30
0.0
 11
-4.3000000000000114
 21
-14.19999999999999
 31
0.0
1001
GRPNAME
1000
PASTMD6Y
  0
ARC
  5
107C
  8
240
 10
-5.100000000000021
 20
-14.19999999999999
 30
0.0
 40
0.8000000000000112
 50
270.0000000128598
 51
0.0000000128606365
1001
GRPNAME
1000
PASTMD6Y
  0
LINE
  5
107D
  8
240
 10
-0.1627114070842595
 20
-8.2489730506084964
 30
0.0
 11
-4.2429612508391852
 21
-11.919676385726261
 31
0.0
  0
ARC
  5
107E
  8
240
 10
-4.3767235616580251
 20
-11.77098999023428
 30
0.0
 40
0.1999999999999884
 50
292.55795888150197
 51
311.97540621575149
  0
LINE
  5
107F
  8
240
 10
-0.1627114070840889
 20
8.2489730506085266
 30
0.0
 11
-4.2429612508389001
 21
11.919676385726371
 31
0.0
1001
GRPNAME
1000
PASTMD1V
  0
LINE
  5
1080
  8
241
 10
-4.3000000000000114
 20
0.0
 30
0.0
 11
-4.3000000000000114
 21
11.95568837974152
 31
0.0
1001
GRPNAME
1000
PASTMD6X
  0
LINE
  5
1081
  8
243
 10
-11.89999999999997
 20
7.0
 30
0.0
 11
-9.7999999999999527
 21
7.0
 31
0.0
1001
GRPNAME
1000
NBS10 09
  0
LINE
  5
1082
  8
243
 10
-11.89999999999997
 20
-7.0
 30
0.0
 11
-9.7999999999999527
 21
-7.0
 31
0.0
1001
GRPNAME
1000
NBS10 0A
  0
LINE
  5
1083
  8
243
 10
-11.89999999999997
 20
7.0
 30
0.0
 11
-11.89999999999997
 21
8.25
 31
0.0
1001
GRPNAME
1000
NBS10 09
  0
LINE
  5
1084
  8
243
 10
-7.3000000000000131
 20
6.922094380863852
 30
0.0
 11
-7.3000000000000131
 21
-6.9220943808638804
 31
0.0
1001
GRPNAME
1000
NBS10 0A
  0
LINE
  5
1085
  8
240
 10
0.0
 20
0.0000000000000284
 30
0.0
 11
0.0
 21
7.9538421259633312
 31
0.0
1001
GRPNAME
1000
PASTMD1V
  0
LINE
  5
1086
  8
240
 10
0.0
 20
0.0
 30
0.0
 11
0.0
 21
-7.9538421259627059
 31
0.0
  0
LINE
  5
1087
  8
240
 10
0.0
 20
-7.9538421259627059
 30
0.0
 11
-0.0141542709869214
 21
-8.0066665844298655
 31
0.0
  0
LINE
  5
1088
  8
243
 10
-7.2999999999999501
 20
6.9220943808638227
 30
0.0
 11
-9.5999999999999623
 21
8.25
 31
0.0
1001
GRPNAME
1000
NBS10 09
  0
LINE
  5
1089
  8
243
 10
-9.7999999999999527
 20
8.25
 30
0.0
 11
-9.5999999999999623
 21
8.25
 31
0.0
1001
GRPNAME
1000
NBS10 09
  0
LINE
  5
108A
  8
243
 10
-9.7999999999999527
 20
8.25
 30
0.0
 11
-9.7999999999999527
 21
7.0
 31
0.0
1001
GRPNAME
1000
NBS10 09
  0
LINE
  5
108B
  8
240
 10
0.0
 20
7.9538421259633312
 30
0.0
 11
-0.0141542709867508
 21
8.0066665844298903
 31
0.0
1001
GRPNAME
1000
PASTMD1V
  0
LINE
  5
108C
  8
240
 10
-0.0036383774083788
 20
7.485352918079883
 30
0.0
 11
-0.0141542709868077
 21
7.5245987672015779
 31
0.0
1001
GRPNAME
1000
PASTMD1T
  0
ARC
  5
108D
  8
240
 10
-0.4971171841312981
 20
7.877257061878618
 30
0.0
 40
0.5000000000000157
 50
14.99999982774294
 51
48.024593710655978
1001
GRPNAME
1000
PASTMD1V
  0
LINE
  5
108E
  8
240
 10
-4.3000000000000114
 20
11.95568837974157
 30
0.0
 11
-4.3000000000000114
 21
14.19999999999999
 31
0.0
1001
GRPNAME
1000
PASTMD6X
  0
ARC
  5
108F
  8
240
 10
-4.37672356165774
 20
11.770989990234391
 30
0.0
 40
0.1999999999999947
 50
48.024593784248459
 51
67.442041118506765
1001
GRPNAME
1000
PASTMD1V
  0
ARC
  5
1090
  8
240
 10
-5.100000000000021
 20
14.19999999999999
 30
0.0
 40
0.8000000000000112
 50
0.000000089979673
 51
90.00000008997965
1001
GRPNAME
1000
PASTMD6X
  0
LINE
  5
1091
  8
243
 10
-29.899999999999991
 20
3.75
 30
0.0
 11
-7.3000000000000131
 21
3.75
 31
0.0
1001
GRPNAME
1000
PASTMD6X
  0
LINE
  5
1092
  8
243
 10
-29.899999999999991
 20
-3.75
 30
0.0
 11
-7.3000000000000131
 21
-3.75
 31
0.0
1001
GRPNAME
1000
PASTMD6X
  0
ENDBLK
  5
1094
  8
0
  0
ENDSEC
  0
SECTION
  2
ENTITIES
  0
LINE
  5
D06
  8
250
 10
-4.600000000000021
 20
-15.0
 30
0.0
 11
21.999999999999989
 21
-15.0
 31
0.0
  0
LINE
  5
D07
  8
250
 10
-4.6000000012563751
 20
15.0
 30
0.0
 11
22.0
 21
14.999999999999989
 31
0.0
  0
LINE
  5
D08
  8
250
 10
20.999999999999989
 20
-12.77000000000001
 30
0.0
 11
21.0
 21
12.769999999999991
 31
0.0
  0
TEXT
  5
D0C
  8
250
 10
19.999999999999989
 20
-4.0714285714285747
 30
0.0
 40
3.0
  1
\U+2205
 50
90.0
1001
ACAD
1000
MTEXTBEGIN
1070
    73
1070
     1
1070
    44
1040
1.0
1070
    74
1070
     0
1000
MTEXTEND
  0
TEXT
  5
D0D
  8
250
 10
19.999999999999989
 20
-1.3571428571428621
 30
0.0
 40
3.0
  1
30
 50
90.0
1001
ACAD
1000
MTEXTBEGIN
1070
    73
1070
     1
1070
    44
1040
1.0
1070
    74
1070
     0
1000
MTEXTEND
  0
LINE
  5
D0E
  8
250
 10
20.62833333333333
 20
12.769999999999991
 30
0.0
 11
21.0
 21
14.999999999999989
 31
0.0
  0
LINE
  5
D0F
  8
250
 10
21.37166666666667
 20
12.769999999999991
 30
0.0
 11
21.0
 21
14.999999999999989
 31
0.0
  0
LINE
  5
D10
  8
250
 10
21.0
 20
14.999999999999989
 30
0.0
 11
21.0
 21
12.769999999999991
 31
0.0
  0
LINE
  5
D11
  8
250
 10
21.371666666666648
 20
-12.77
 30
0.0
 11
20.999999999999989
 21
-15.0
 31
0.0
  0
LINE
  5
D12
  8
250
 10
20.62833333333332
 20
-12.77
 30
0.0
 11
20.999999999999989
 21
-15.0
 31
0.0
  0
LINE
  5
D13
  8
250
 10
20.999999999999989
 20
-15.0
 30
0.0
 11
20.999999999999989
 21
-12.77
 31
0.0
  0
TEXT
  5
D1C
  8
243
 10
-35.95238095238097
 20
35.0
 30
0.0
 40
5.0
  1
MPS10-07075
  7
YOKO
1001
ITEMNAME
1000
DI010
1001
ACAD
1000
MTEXTBEGIN
1070
    73
1070
     1
1070
    44
1040
1.0
1070
    74
1070
     0
1000
MTEXTEND
  0
LINE
  5
ED1
  8
250
 10
-6.8000000000000114
 20
3.75
 30
0.0
 11
13.058777571146351
 21
3.7499999999999929
 31
0.0
  0
LINE
  5
ED2
  8
250
 10
-6.8000000000000114
 20
-3.75
 30
0.0
 11
13.058777571146351
 21
-3.7500000000000062
 31
0.0
  0
LINE
  5
ED3
  8
250
 10
12.058777571146351
 20
1.519999999999994
 30
0.0
 11
12.058777571146351
 21
-1.520000000000006
 31
0.0
  0
TEXT
  5
ED7
  8
250
 10
11.058777571146351
 20
-8.0142857142857178
 30
0.0
 40
3.0
  1
\U+2205
 50
90.0
  0
TEXT
  5
ED8
  8
250
 10
11.058777571146351
 20
-5.3000000000000043
 30
0.0
 40
3.0
  1
7ü`7.5
 50
90.0
  0
LINE
  5
ED9
  8
250
 10
12.43044423781302
 20
-1.520000000000006
 30
0.0
 11
12.058777571146351
 21
-3.7500000000000062
 31
0.0
  0
LINE
  5
EDA
  8
250
 10
11.687110904479679
 20
-1.520000000000006
 30
0.0
 11
12.058777571146351
 21
-3.7500000000000062
 31
0.0
  0
LINE
  5
EDB
  8
250
 10
12.058777571146351
 20
-3.7500000000000062
 30
0.0
 11
12.058777571146351
 21
-1.520000000000006
 31
0.0
  0
LINE
  5
EDC
  8
250
 10
11.687110904479679
 20
1.519999999999994
 30
0.0
 11
12.058777571146351
 21
3.7499999999999929
 31
0.0
  0
LINE
  5
EDD
  8
250
 10
12.43044423781302
 20
1.519999999999994
 30
0.0
 11
12.058777571146351
 21
3.7499999999999929
 31
0.0
  0
LINE
  5
EDE
  8
250
 10
12.058777571146351
 20
3.7499999999999929
 30
0.0
 11
12.058777571146351
 21
1.519999999999994
 31
0.0
  0
INSERT
  5
1095
  8
240
  2
A$C097E2331
 10
0.0
 20
0.0
 30
0.0
  0
VIEWPORT
  5
22
 67
     1
  8
0
 10
261.51769911504419
 20
148.5
 30
0.0
 40
523.0353982300885
 41
297.0
 68
     1
 69
     1
1001
ACAD
1000
MVIEW
1002
{
1070
    16
1010
0.0
1020
0.0
1030
0.0
1010
0.0
1020
0.0
1030
1.0
1040
0.0
1040
297.0
1040
261.51769911504419
1040
148.5
1040
50.0
1040
0.0
1040
0.0
1070
     0
1070
   100
1070
     1
1070
     1
1070
     0
1070
     0
1070
     0
1070
     0
1040
0.0
1040
0.0
1040
0.0
1040
1.0
1040
1.0
1040
10.0
1040
10.0
1070
     0
1002
{
1002
}
1002
}
1001
GENIUS_GENOBJ-N-SDF_13
1002
{
1000
OWNER
1000
GEN
1002
}
1001
GENIUS_GENODEF_13
1002
{
1000
HIER
1070
     0
1002
}
1002
{
1000
MANEDIT
1070
     0
1002
}
1002
{
1000
NOSEL
1070
     0
1002
}
1002
{
1000
BEHIND
1070
     0
1002
}
1002
{
1000
OTHER
1070
     0
1002
}
1002
{
1000
REACTOR
1002
}
1001
GENIUS_GENSCREG_15
1000
PF
1040
1.0
1000
DF
1040
1.0
1000
MIN
1011
0.0
1021
-1.#QNAN00000000000E+000
1031
0.0
1021
0.0
1031
0.0
1000
MAX
1011
523.0353982300885
1021
-1.#QNAN00000000000E+000
1031
0.0
1021
297.0
1031
0.0
1000
FLAGS
1070
     2
  0
ENDSEC
  0
EOF
