  0
SECTION
  2
HEADER
  9
$ACADVER
  1
AC1009
  9
$INSBASE
 10
0.0
 20
0.0
 30
0.0
  9
$EXTMIN
 10
-35.015194197995022
 20
-15.26386226739163
 30
-0.0000000000000058
  9
$EXTMAX
 10
22.002581724645552
 20
40.005491401068468
 30
0.0000000000000104
  9
$LIMMIN
 10
0.0
 20
0.0
  9
$LIMMAX
 10
297.0
 20
210.0
  9
$ORTHOMODE
 70
     0
  9
$REGENMODE
 70
     1
  9
$FILLMODE
 70
     1
  9
$QTEXTMODE
 70
     0
  9
$MIRRTEXT
 70
     1
  9
$DRAGMODE
 70
     2
  9
$LTSCALE
 40
10.0
  9
$OSMODE
 70
   639
  9
$ATTMODE
 70
     1
  9
$TEXTSIZE
 40
3.0
  9
$TRACEWID
 40
1.0
  9
$TEXTSTYLE
  7
YOKO
  9
$CLAYER
  8
240
  9
$CELTYPE
  6
BYLAYER
  9
$CECOLOR
 62
   256
  9
$DIMSCALE
 40
1.0
  9
$DIMASZ
 40
2.2299999999999991
  9
$DIMEXO
 40
0.5
  9
$DIMDLI
 40
2.5
  9
$DIMRND
 40
0.0
  9
$DIMDLE
 40
0.0
  9
$DIMEXE
 40
1.0
  9
$DIMTP
 40
0.0
  9
$DIMTM
 40
0.0
  9
$DIMTXT
 40
3.0
  9
$DIMCEN
 40
0.0
  9
$DIMTSZ
 40
0.0
  9
$DIMTOL
 70
     0
  9
$DIMLIM
 70
     0
  9
$DIMTIH
 70
     0
  9
$DIMTOH
 70
     0
  9
$DIMSE1
 70
     0
  9
$DIMSE2
 70
     0
  9
$DIMTAD
 70
     3
  9
$DIMZIN
 70
     8
  9
$DIMBLK
  1
OPEN
  9
$DIMASO
 70
     1
  9
$DIMSHO
 70
     1
  9
$DIMPOST
  1

  9
$DIMAPOST
  1

  9
$DIMALT
 70
     0
  9
$DIMALTD
 70
     2
  9
$DIMALTF
 40
25.399999999999999
  9
$DIMLFAC
 40
1.0
  9
$DIMTOFL
 70
     1
  9
$DIMTVP
 40
0.0
  9
$DIMTIX
 70
     0
  9
$DIMSOXD
 70
     0
  9
$DIMSAH
 70
     0
  9
$DIMBLK1
  1

  9
$DIMBLK2
  1

  9
$DIMSTYLE
  2
BIGT
  9
$DIMCLRD
 70
   256
  9
$DIMCLRE
 70
   256
  9
$DIMCLRT
 70
    40
  9
$DIMTFAC
 40
1.0
  9
$DIMGAP
 40
1.0
  9
$LUNITS
 70
     2
  9
$LUPREC
 70
     2
  9
$SKETCHINC
 40
1.0
  9
$FILLETRAD
 40
0.0
  9
$AUNITS
 70
     0
  9
$AUPREC
 70
     3
  9
$MENU
  1
.
  9
$ELEVATION
 40
0.0
  9
$PELEVATION
 40
0.0
  9
$THICKNESS
 40
0.0
  9
$LIMCHECK
 70
     0
  9
$BLIPMODE
 70
     0
  9
$CHAMFERA
 40
10.0
  9
$CHAMFERB
 40
10.0
  9
$SKPOLY
 70
     0
  9
$TDCREATE
 40
2452880.4648967362
  9
$TDUPDATE
 40
2453612.6523160762
  9
$TDINDWG
 40
0.0347341551
  9
$TDUSRTIMER
 40
0.0347339699
  9
$USRTIMER
 70
     1
  9
$ANGBASE
 50
0.0
  9
$ANGDIR
 70
     0
  9
$PDMODE
 70
    35
  9
$PDSIZE
 40
2.0
  9
$PLINEWID
 40
0.0
  9
$COORDS
 70
     2
  9
$SPLFRAME
 70
     0
  9
$SPLINETYPE
 70
     6
  9
$SPLINESEGS
 70
     8
  9
$ATTDIA
 70
     1
  9
$ATTREQ
 70
     1
  9
$HANDLING
 70
     1
  9
$HANDSEED
  5
E9B
  9
$SURFTAB1
 70
     6
  9
$SURFTAB2
 70
     6
  9
$SURFTYPE
 70
     6
  9
$SURFU
 70
     6
  9
$SURFV
 70
     6
  9
$UCSNAME
  2

  9
$UCSORG
 10
0.0
 20
0.0
 30
0.0
  9
$UCSXDIR
 10
1.0
 20
0.0
 30
0.0
  9
$UCSYDIR
 10
0.0
 20
1.0
 30
0.0
  9
$PUCSNAME
  2

  9
$PUCSORG
 10
0.0
 20
0.0
 30
0.0
  9
$PUCSXDIR
 10
1.0
 20
0.0
 30
0.0
  9
$PUCSYDIR
 10
0.0
 20
1.0
 30
0.0
  9
$USERI1
 70
     1
  9
$USERI2
 70
     0
  9
$USERI3
 70
     0
  9
$USERI4
 70
     0
  9
$USERI5
 70
     0
  9
$USERR1
 40
0.0
  9
$USERR2
 40
0.0
  9
$USERR3
 40
0.0
  9
$USERR4
 40
0.0
  9
$USERR5
 40
0.0
  9
$WORLDVIEW
 70
     1
  9
$SHADEDGE
 70
     3
  9
$SHADEDIF
 70
    70
  9
$TILEMODE
 70
     1
  9
$MAXACTVP
 70
    16
  9
$PLIMCHECK
 70
     0
  9
$PEXTMIN
 10
1.0000000000000000E+020
 20
1.0000000000000000E+020
 30
1.0000000000000000E+020
  9
$PEXTMAX
 10
-1.0000000000000000E+020
 20
-1.0000000000000000E+020
 30
-1.0000000000000000E+020
  9
$PLIMMIN
 10
0.0
 20
0.0
  9
$PLIMMAX
 10
420.0
 20
297.0
  9
$UNITMODE
 70
     0
  9
$VISRETAIN
 70
     0
  9
$PLINEGEN
 70
     0
  9
$PSLTSCALE
 70
     1
  0
ENDSEC
  0
SECTION
  2
TABLES
  0
TABLE
  2
VPORT
 70
     4
  0
VPORT
  2
*ACTIVE
 70
     0
 10
0.0
 20
0.0
 11
1.0
 21
1.0
 12
-6.5063062366747308
 22
12.370814566838421
 13
0.0
 23
0.0
 14
7.0
 24
7.0
 15
7.0
 25
7.0
 16
0.0
 26
0.0
 36
1.0
 17
0.0
 27
0.0
 37
0.0
 40
68.471934417090139
 41
0.8386454183266932
 42
50.0
 43
0.0
 44
0.0
 50
0.0
 51
0.0
 71
     0
 72
  2000
 73
     1
 74
     0
 75
     0
 76
     0
 77
     0
 78
     0
  0
ENDTAB
  0
TABLE
  2
LTYPE
 70
    16
  0
LTYPE
  2
CONTINUOUS
 70
     0
  3
Solid line
 72
    65
 73
     0
 40
0.0
  0
LTYPE
  2
CENTER2
 70
     0
  3
___ _ ___ _ ___ _ ___ _ ___ _ ___ _ ___ _ ___ _
 72
    65
 73
     4
 40
1.125
 49
0.75
 49
-0.125
 49
0.125
 49
-0.125
  0
LTYPE
  2
HIDDEN2
 70
     0
  3
_ _ _ _ _ _ _ _ _ _ _ _ _ _ _ _ _ _ _ _ _ _ _ _
 72
    65
 73
     2
 40
0.1875
 49
0.125
 49
-0.0625
  0
LTYPE
  2
HIDDEN
 70
     0
  3
Hidden __ __ __ __ __ __ __ __ __ __ __ __ __ _
 72
    65
 73
     2
 40
9.5249999999999986
 49
6.349999999999997
 49
-3.174999999999998
  0
LTYPE
  2
PHANTOM2
 70
     0
  3
Phantom (.5x) ___ _ _ ___ _ _ ___ _ _ ___ _ _
 72
    65
 73
     6
 40
31.75
 49
15.875
 49
-3.174999999999998
 49
3.174999999999998
 49
-3.174999999999998
 49
3.174999999999998
 49
-3.174999999999998
  0
LTYPE
  2
CENTER
 70
     0
  3
Center ____ _ ____ _ ____ _ ____ _ ____ _ ____
 72
    65
 73
     4
 40
50.799999999999997
 49
31.75
 49
-6.349999999999997
 49
6.349999999999997
 49
-6.349999999999997
  0
LTYPE
  2
AMCONSTR
 70
     0
  3
_______________________
 72
    65
 73
     2
 40
9999.0
 49
9999.0
 49
0.0
  0
LTYPE
  2
AMZIGZAG2
 70
     0
  3
/\/-/\/-/\/-/\/-/\/-/\/
 72
    65
 73
     2
 40
0.4401
 49
0.0001
 49
-0.4400000000000002
  0
LTYPE
  2
ACANSTGB
 70
     0
  3
__ . . __ . .
 72
    65
 73
     6
 40
0.35433070866
 49
0.15748031496
 49
-0.03937007874
 49
0.03937007874
 49
-0.03937007874
 49
0.03937007874
 49
-0.03937007874
  0
LTYPE
  2
ACANSTGL
 70
     0
  3
_ _ _ _ _
 72
    65
 73
     2
 40
0.11811023622
 49
0.07874015748
 49
-0.03937007874
  0
ENDTAB
  0
TABLE
  2
LAYER
 70
     7
  0
LAYER
  2
0
 70
     0
 62
     7
  6
CONTINUOUS
  0
LAYER
  2
240
 70
     0
 62
     4
  6
CONTINUOUS
  0
LAYER
  2
241
 70
     0
 62
   211
  6
CONTINUOUS
  0
LAYER
  2
243
 70
     0
 62
   211
  6
HIDDEN2
  0
LAYER
  2
245
 70
     0
 62
     2
  6
CENTER2
  0
LAYER
  2
250
 70
     0
 62
     3
  6
CONTINUOUS
  0
LAYER
  2
DEFPOINTS
 70
     0
 62
     7
  6
CONTINUOUS
  0
ENDTAB
  0
TABLE
  2
STYLE
 70
     5
  0
STYLE
  2
STANDARD
 70
     0
 40
0.0
 41
1.0
 50
0.0
 71
     0
 42
3.0
  3
romans.shx
  4
BIGFONT.SHX
  0
STYLE
  2
YOKO
 70
     0
 40
0.0
 41
1.0
 50
0.0
 71
     0
 42
3.0
  3
romans.shx
  4
extfont.shx
  0
STYLE
  2
ACANSTS
 70
     0
 40
1.0
 41
1.0
 50
0.0
 71
     0
 42
3.0
  3
romans.shx
  4
extfont.shx
  0
STYLE
  2
ACANSGDT
 70
     0
 40
0.0
 41
1.0
 50
0.0
 71
     0
 42
3.0
  3
amgdtans.shx
  4

  0
ENDTAB
  0
TABLE
  2
VIEW
 70
     0
  0
ENDTAB
  0
TABLE
  2
UCS
 70
     0
  0
ENDTAB
  0
TABLE
  2
APPID
 70
    16
  0
APPID
  2
ACAD
 70
     0
  0
APPID
  2
GLOBAL
 70
     0
  0
APPID
  2
DETAIL
 70
     0
  0
APPID
  2
GRPNAME
 70
     0
  0
APPID
  2
GPARA
 70
     0
  0
APPID
  2
ITEMNAME
 70
     0
  0
APPID
  2
MCAD_NO_VIS
 70
     0
  0
APPID
  2
ACAD_TEMP_GRAPHIC
 70
     0
  0
APPID
  2
AD_DRAW
 70
     0
  0
APPID
  2
ACATTRIBSERVICES
 70
     0
  0
APPID
  2
DESIGNERASSEMBLIES
 70
     0
  0
APPID
  2
ACADM_DIM_EDIT
 70
     0
  0
APPID
  2
AMDT_DM_ADJ
 70
     0
  0
APPID
  2
GENIUS_GENSCREG_15
 70
     0
  0
APPID
  2
GENIUS_GENODEF_13
 70
     0
  0
APPID
  2
GENIUS_GENOBJ-N-SDF_13
 70
     0
  0
ENDTAB
  0
TABLE
  2
DIMSTYLE
 70
     8
  0
DIMSTYLE
  2
STANDARD
 70
     0
  3

  4

  5

  6

  7

 40
1.0
 41
2.0
 42
2.0
 43
3.75
 44
2.0
 45
0.0
 46
0.0
 47
0.0
 48
0.0
140
4.0
141
0.09
142
0.0
143
25.399999999999999
144
1.0
145
0.0
146
1.0
147
1.0
 71
     0
 72
     0
 73
     1
 74
     1
 75
     0
 76
     0
 77
     0
 78
     8
170
     0
171
     2
172
     0
173
     1
174
     0
175
     0
176
   256
177
   256
178
   256
  0
DIMSTYLE
  2
BIGT
 70
     0
  3

  4

  5

  6

  7

 40
1.0
 41
2.2299999999999991
 42
0.5
 43
2.5
 44
1.0
 45
0.0
 46
0.0
 47
0.0
 48
0.0
140
3.5
141
0.0
142
0.0
143
25.399999999999999
144
1.0
145
0.0
146
1.0
147
1.0
 71
     0
 72
     0
 73
     0
 74
     0
 75
     0
 76
     0
 77
     3
 78
     9
170
     0
171
     2
172
     1
173
     0
174
     0
175
     0
176
   256
177
   256
178
    40
  0
DIMSTYLE
  2
AM_ANSI
 70
     0
  3

  4
mm
  5

  6

  7

 40
1.0
 41
0.1
 42
0.05
 43
0.5
 44
0.1
 45
0.0
 46
0.0
 47
0.1
 48
0.1
140
0.12
141
0.0
142
0.0
143
25.399999999999999
144
1.0
145
0.0
146
0.71
147
0.06
 71
     0
 72
     0
 73
     1
 74
     1
 75
     0
 76
     0
 77
     0
 78
     7
170
     0
171
     2
172
     0
173
     0
174
     0
175
     0
176
   256
177
   256
178
     2
  0
DIMSTYLE
  2
AM_ANSI$3
 70
     0
  3

  4
mm
  5

  6

  7

 40
1.0
 41
0.1
 42
0.05
 43
0.5
 44
0.1
 45
0.0
 46
0.0
 47
0.1
 48
0.1
140
0.12
141
0.0
142
0.0
143
25.399999999999999
144
1.0
145
0.0
146
0.71
147
0.06
 71
     0
 72
     0
 73
     1
 74
     1
 75
     0
 76
     0
 77
     0
 78
     7
170
     0
171
     2
172
     0
173
     0
174
     0
175
     0
176
   256
177
   256
178
     2
  0
DIMSTYLE
  2
AM_ANSI$4
 70
     0
  3

  4
mm
  5

  6

  7

 40
1.0
 41
0.1
 42
0.05
 43
0.5
 44
0.1
 45
0.0
 46
0.0
 47
0.1
 48
0.1
140
0.12
141
0.0
142
0.0
143
25.399999999999999
144
1.0
145
0.0
146
0.71
147
0.06
 71
     0
 72
     0
 73
     1
 74
     1
 75
     0
 76
     0
 77
     0
 78
     7
170
     0
171
     2
172
     0
173
     0
174
     0
175
     0
176
   256
177
   256
178
     2
  0
DIMSTYLE
  2
AM_ANSI$7
 70
     0
  3

  4
mm
  5

  6

  7

 40
1.0
 41
0.1
 42
0.05
 43
0.5
 44
0.1
 45
0.0
 46
0.0
 47
0.1
 48
0.1
140
0.24
141
0.0
142
0.0
143
25.399999999999999
144
1.0
145
0.0
146
0.71
147
0.06
 71
     0
 72
     0
 73
     1
 74
     1
 75
     0
 76
     0
 77
     0
 78
     7
170
     0
171
     2
172
     0
173
     0
174
     0
175
     0
176
   256
177
   256
178
     2
  0
DIMSTYLE
  2
AM_ANSI$SF
 70
     0
  3

  4
mm
  5

  6

  7

 40
1.0
 41
0.1
 42
0.05
 43
0.5
 44
0.1
 45
0.0
 46
0.0
 47
0.1
 48
0.1
140
0.12
141
0.0
142
0.0
143
25.399999999999999
144
1.0
145
0.0
146
0.71
147
0.06
 71
     0
 72
     0
 73
     1
 74
     1
 75
     1
 76
     1
 77
     0
 78
     7
170
     0
171
     2
172
     0
173
     0
174
     0
175
     0
176
   256
177
   256
178
     2
  0
DIMSTYLE
  2
AM_ANSI$SH
 70
     0
  3

  4
mm
  5

  6

  7

 40
1.0
 41
0.1
 42
0.05
 43
0.5
 44
0.1
 45
0.0
 46
0.0
 47
0.1
 48
0.1
140
0.12
141
0.0
142
0.0
143
25.399999999999999
144
1.0
145
0.0
146
0.71
147
0.06
 71
     0
 72
     0
 73
     1
 74
     1
 75
     1
 76
     1
 77
     0
 78
     7
170
     0
171
     2
172
     0
173
     1
174
     0
175
     0
176
   256
177
   256
178
     2
  0
ENDTAB
  0
ENDSEC
  0
SECTION
  2
BLOCKS
  0
BLOCK
  8
0
  2
$MODEL_SPACE
 70
     0
 10
0.0
 20
0.0
 30
0.0
  3
$MODEL_SPACE
  1

  0
ENDBLK
  5
D54
  8
0
  0
BLOCK
 67
     1
  8
0
  2
$PAPER_SPACE
 70
     0
 10
0.0
 20
0.0
 30
0.0
  3
$PAPER_SPACE
  1

  0
ENDBLK
  5
D50
 67
     1
  8
0
  0
BLOCK
  8
0
  2
_OPEN
 70
     0
 10
0.0
 20
0.0
 30
0.0
  3
_OPEN
  1

  0
LINE
  5
595
  8
0
  6
BYBLOCK
 62
     0
 10
-1.0
 20
0.1666666666666666
 30
0.0
 11
0.0
 21
0.0
 31
0.0
  0
LINE
  5
596
  8
0
  6
BYBLOCK
 62
     0
 10
-1.0
 20
-0.1666666666666666
 30
0.0
 11
0.0
 21
0.0
 31
0.0
  0
LINE
  5
597
  8
0
  6
BYBLOCK
 62
     0
 10
0.0
 20
0.0
 30
0.0
 11
-1.0
 21
0.0
 31
0.0
  0
ENDBLK
  5
599
  8
0
  0
BLOCK
  8
0
  2
A$C529026EE
 70
     0
 10
0.0
 20
0.0
 30
0.0
  3
A$C529026EE
  1

  0
LINE
  5
E4B
  8
243
 10
-33.899999999999999
 20
5.8664152946719241
 30
0.0
 11
-11.49999999999997
 21
8.25
 31
0.0
1001
GRPNAME
1000
NBS10 09
  0
LINE
  5
E4C
  8
240
 10
-24.399999999999999
 20
15.0
 30
0.0
 11
-4.7000000000000171
 21
15.0
 31
0.0
1001
GRPNAME
1000
PASTMD6X
  0
LINE
  5
E4D
  8
245
 10
-34.70000000000001
 20
0.0
 30
0.0
 11
1.0999999999999941
 21
0.0
 31
0.0
1001
GRPNAME
1000
PASTMD6X
  0
LINE
  5
E4E
  8
243
 10
-33.899999999999999
 20
-5.8664152946719241
 30
0.0
 11
-11.49999999999997
 21
-8.25
 31
0.0
1001
GRPNAME
1000
NBS10 0A
  0
LINE
  5
E4F
  8
240
 10
-24.399999999999999
 20
-15.0
 30
0.0
 11
-4.7000000000000171
 21
-15.0
 31
0.0
1001
GRPNAME
1000
PASTMD6Y
  0
LINE
  5
E50
  8
241
 10
-25.764213562373101
 20
0.0
 30
0.0
 11
-25.764213562373101
 21
-15.15
 31
0.0
1001
GRPNAME
1000
PASTMD6Y
  0
LINE
  5
E51
  8
241
 10
-24.399999999999999
 20
0.0
 30
0.0
 11
-24.399999999999999
 21
-15.0
 31
0.0
1001
GRPNAME
1000
PASTMD6Y
  0
LINE
  5
E52
  8
240
 10
-27.70000000000001
 20
-14.65
 30
0.0
 11
-27.70000000000001
 21
0.0
 31
0.0
1001
GRPNAME
1000
PASTMD6Y
  0
ARC
  5
E53
  8
240
 10
-27.20000000000001
 20
-14.65
 30
0.0
 40
0.5
 50
180.00000001286139
 51
270.0000000128631
1001
GRPNAME
1000
PASTMD6Y
  0
LINE
  5
E54
  8
240
 10
-27.20000000000001
 20
-15.15
 30
0.0
 11
-25.764213562373101
 21
-15.15
 31
0.0
1001
GRPNAME
1000
PASTMD6Y
  0
LINE
  5
E55
  8
240
 10
-25.70710678118655
 20
-15.09289321881344
 30
0.0
 11
-25.764213562373101
 21
-15.15
 31
0.0
1001
GRPNAME
1000
PASTMD6Y
  0
ARC
  5
E56
  8
240
 10
-25.000000000000028
 20
-15.80000000000001
 30
0.0
 40
1.0000000000000051
 50
53.130102552199837
 51
135.00000019804369
1001
GRPNAME
1000
PASTMD6Y
  0
LINE
  5
E57
  8
241
 10
-25.764213562373101
 20
0.0
 30
0.0
 11
-25.764213562373101
 21
15.15
 31
0.0
1001
GRPNAME
1000
PASTMD6X
  0
LINE
  5
E58
  8
241
 10
-24.399999999999999
 20
0.0
 30
0.0
 11
-24.399999999999999
 21
15.0
 31
0.0
1001
GRPNAME
1000
PASTMD6X
  0
LINE
  5
E59
  8
240
 10
-27.70000000000001
 20
14.65
 30
0.0
 11
-27.70000000000001
 21
0.0
 31
0.0
1001
GRPNAME
1000
PASTMD6X
  0
LINE
  5
E5A
  8
243
 10
-33.899999999999999
 20
-5.8664152946719241
 30
0.0
 11
-33.899999999999999
 21
5.8664152946719241
 31
0.0
1001
GRPNAME
1000
NBS10 0A
  0
LINE
  5
E5B
  8
243
 10
-24.900000000000041
 20
3.75
 30
0.0
 11
-24.900000000000041
 21
-3.75
 31
0.0
  0
LINE
  5
E5C
  8
243
 10
-25.900000000000031
 20
-4.75
 30
0.0
 11
-33.899999999999999
 21
-4.75
 31
0.0
  0
ARC
  5
E5D
  8
243
 10
-25.900000000000031
 20
-3.75
 30
0.0
 40
1.0
 50
270.0
 51
0.0
  0
LINE
  5
E5E
  8
243
 10
-25.900000000000031
 20
4.75
 30
0.0
 11
-33.899999999999999
 21
4.75
 31
0.0
  0
ARC
  5
E5F
  8
243
 10
-25.900000000000031
 20
3.75
 30
0.0
 40
1.0
 50
0.0
 51
90.0
  0
ARC
  5
E60
  8
240
 10
-27.20000000000001
 20
14.65
 30
0.0
 40
0.5
 50
89.999999989709835
 51
179.9999999897114
1001
GRPNAME
1000
PASTMD6X
  0
LINE
  5
E61
  8
240
 10
-27.20000000000001
 20
15.15
 30
0.0
 11
-25.764213562373101
 21
15.15
 31
0.0
1001
GRPNAME
1000
PASTMD6X
  0
LINE
  5
E62
  8
240
 10
-25.70710678118655
 20
15.09289321881344
 30
0.0
 11
-25.764213562373101
 21
15.15
 31
0.0
1001
GRPNAME
1000
PASTMD6X
  0
ARC
  5
E63
  8
240
 10
-25.000000000000028
 20
15.80000000000001
 30
0.0
 40
0.9999999999999978
 50
224.99999985980679
 51
306.86989750565112
1001
GRPNAME
1000
PASTMD6X
  0
LINE
  5
E64
  8
241
 10
-3.900000000000003
 20
0.0
 30
0.0
 11
-3.900000000000003
 21
-11.94678014049755
 31
0.0
1001
GRPNAME
1000
PASTMD6Y
  0
LINE
  5
E65
  8
243
 10
-6.8999999999999471
 20
-6.9220943808638227
 30
0.0
 11
-9.1999999999999602
 21
-8.25
 31
0.0
1001
GRPNAME
1000
NBS10 0A
  0
LINE
  5
E66
  8
243
 10
-9.3999999999999488
 20
-8.25
 30
0.0
 11
-9.3999999999999488
 21
-7.0
 31
0.0
1001
GRPNAME
1000
NBS10 0A
  0
LINE
  5
E67
  8
243
 10
-11.49999999999997
 20
-7.0
 30
0.0
 11
-11.49999999999997
 21
-8.25
 31
0.0
1001
GRPNAME
1000
NBS10 0A
  0
LINE
  5
E68
  8
240
 10
-0.0661816189027604
 20
-7.2376119111194432
 30
0.0
 11
-3.8399662349077039
 21
-11.89687001911178
 31
0.0
  0
LINE
  5
E69
  8
243
 10
-9.3999999999999488
 20
-8.25
 30
0.0
 11
-9.1999999999999602
 21
-8.25
 31
0.0
1001
GRPNAME
1000
NBS10 0A
  0
LINE
  5
E6A
  8
240
 10
-3.900000000000003
 20
-11.946780140497509
 30
0.0
 11
-3.900000000000003
 21
-14.19999999999999
 31
0.0
1001
GRPNAME
1000
PASTMD6Y
  0
ARC
  5
E6B
  8
240
 10
-4.7000000000000171
 20
-14.19999999999999
 30
0.0
 40
0.8000000000000112
 50
270.0000000128598
 51
0.0000000128606365
1001
GRPNAME
1000
PASTMD6Y
  0
ARC
  5
E6C
  8
240
 10
-3.9953825092479152
 20
-11.770989990234311
 30
0.0
 40
0.1999999999999912
 50
298.4839489337877
 51
320.99411998842101
  0
LINE
  5
E6D
  8
240
 10
-0.0661816189025899
 20
7.2376119111195001
 30
0.0
 11
-3.8399662349074202
 21
11.896870019111899
 31
0.0
1001
GRPNAME
1000
PASTMD1P
  0
LINE
  5
E6E
  8
241
 10
-3.900000000000003
 20
0.0
 30
0.0
 11
-3.900000000000003
 21
11.943468485978441
 31
0.0
1001
GRPNAME
1000
PASTMD6X
  0
LINE
  5
E6F
  8
243
 10
-11.49999999999997
 20
7.0
 30
0.0
 11
-9.3999999999999488
 21
7.0
 31
0.0
1001
GRPNAME
1000
NBS10 09
  0
LINE
  5
E70
  8
243
 10
-11.49999999999997
 20
-7.0
 30
0.0
 11
-9.3999999999999488
 21
-7.0
 31
0.0
1001
GRPNAME
1000
NBS10 0A
  0
LINE
  5
E71
  8
243
 10
-11.49999999999997
 20
7.0
 30
0.0
 11
-11.49999999999997
 21
8.25
 31
0.0
1001
GRPNAME
1000
NBS10 09
  0
LINE
  5
E72
  8
243
 10
-6.9000000000000021
 20
6.922094380863852
 30
0.0
 11
-6.9000000000000021
 21
-6.9220943808638804
 31
0.0
1001
GRPNAME
1000
NBS10 0A
  0
LINE
  5
E73
  8
240
 10
0.0
 20
0.0000000000000284
 30
0.0
 11
0.0
 21
7.1308243819818067
 31
0.0
1001
GRPNAME
1000
PASTMD7P
  0
LINE
  5
E74
  8
240
 10
0.0
 20
0.0000000000000284
 30
0.0
 11
0.0
 21
-7.1308243819813821
 31
0.0
  0
ARC
  5
E75
  8
240
 10
-0.454722304753318
 20
-6.9229118389256703
 30
0.0
 40
0.5000000000000651
 50
320.99412004191549
 51
335.428713163586
  0
LINE
  5
E76
  8
243
 10
-6.8999999999999471
 20
6.9220943808638227
 30
0.0
 11
-9.1999999999999602
 21
8.25
 31
0.0
1001
GRPNAME
1000
NBS10 09
  0
LINE
  5
E77
  8
243
 10
-9.3999999999999488
 20
8.25
 30
0.0
 11
-9.1999999999999602
 21
8.25
 31
0.0
1001
GRPNAME
1000
NBS10 09
  0
LINE
  5
E78
  8
243
 10
-9.3999999999999488
 20
8.25
 30
0.0
 11
-9.3999999999999488
 21
7.0
 31
0.0
1001
GRPNAME
1000
NBS10 09
  0
ARC
  5
E79
  8
240
 10
-0.4547223047531477
 20
6.922911838925728
 30
0.0
 40
0.5000000000000615
 50
24.571286836460629
 51
39.005879958084471
1001
GRPNAME
1000
PASTMD1P
  0
LINE
  5
E7A
  8
240
 10
-3.900000000000003
 20
11.94678014049777
 30
0.0
 11
-3.900000000000003
 21
14.19999999999999
 31
0.0
1001
GRPNAME
1000
PASTMD6X
  0
ARC
  5
E7B
  8
240
 10
-3.9953825092476309
 20
11.770989990234421
 30
0.0
 40
0.1999999999999643
 50
39.005880011578931
 51
61.516051066213699
1001
GRPNAME
1000
PASTMD1P
  0
ARC
  5
E7C
  8
240
 10
-4.7000000000000171
 20
14.19999999999999
 30
0.0
 40
0.8000000000000112
 50
0.000000089979673
 51
90.00000008997965
1001
GRPNAME
1000
PASTMD6X
  0
LINE
  5
E7D
  8
243
 10
-24.900000000000041
 20
2.75
 30
0.0
 11
-6.9000000000000039
 21
2.75
 31
0.0
1001
GRPNAME
1000
PASTMD6X
  0
LINE
  5
E7E
  8
243
 10
-24.900000000000041
 20
-2.75
 30
0.0
 11
-6.9000000000000039
 21
-2.75
 31
0.0
1001
GRPNAME
1000
PASTMD6X
  0
ENDBLK
  5
E80
  8
0
  0
ENDSEC
  0
SECTION
  2
ENTITIES
  0
LINE
  5
AF7
  8
250
 10
-4.199999999820446
 20
-15.0
 30
0.0
 11
21.999999999999989
 21
-15.0
 31
0.0
  0
LINE
  5
AF8
  8
250
 10
-4.2000000012563694
 20
15.0
 30
0.0
 11
22.0
 21
14.999999999999989
 31
0.0
  0
LINE
  5
AF9
  8
250
 10
20.999999999999989
 20
-12.77000000000001
 30
0.0
 11
21.0
 21
12.769999999999991
 31
0.0
  0
TEXT
  5
AFD
  8
250
 10
19.999999999999989
 20
-4.0714285714285747
 30
0.0
 40
3.0
  1
\U+2205
 50
90.0
1001
ACAD
1000
MTEXTBEGIN
1070
    73
1070
     1
1070
    44
1040
1.0
1070
    74
1070
     0
1000
MTEXTEND
  0
TEXT
  5
AFE
  8
250
 10
19.999999999999989
 20
-1.3571428571428621
 30
0.0
 40
3.0
  1
30
 50
90.0
1001
ACAD
1000
MTEXTBEGIN
1070
    73
1070
     1
1070
    44
1040
1.0
1070
    74
1070
     0
1000
MTEXTEND
  0
LINE
  5
AFF
  8
250
 10
20.62833333333333
 20
12.769999999999991
 30
0.0
 11
21.0
 21
14.999999999999989
 31
0.0
  0
LINE
  5
B00
  8
250
 10
21.37166666666667
 20
12.769999999999991
 30
0.0
 11
21.0
 21
14.999999999999989
 31
0.0
  0
LINE
  5
B01
  8
250
 10
21.0
 20
14.999999999999989
 30
0.0
 11
21.0
 21
12.769999999999991
 31
0.0
  0
LINE
  5
B02
  8
250
 10
21.371666666666648
 20
-12.77
 30
0.0
 11
20.999999999999989
 21
-15.0
 31
0.0
  0
LINE
  5
B03
  8
250
 10
20.62833333333332
 20
-12.77
 30
0.0
 11
20.999999999999989
 21
-15.0
 31
0.0
  0
LINE
  5
B04
  8
250
 10
20.999999999999989
 20
-15.0
 30
0.0
 11
20.999999999999989
 21
-12.77
 31
0.0
  0
TEXT
  5
B0D
  8
243
 10
-35.95238095238097
 20
35.0
 30
0.0
 40
5.0
  1
MPS10-05055
  7
YOKO
1001
ITEMNAME
1000
DI010
1001
ACAD
1000
MTEXTBEGIN
1070
    73
1070
     1
1070
    44
1040
1.0
1070
    74
1070
     0
1000
MTEXTEND
  0
LINE
  5
CC5
  8
250
 10
-6.4000000000000039
 20
2.75
 30
0.0
 11
12.41621867769191
 21
2.7499999999999951
 31
0.0
  0
LINE
  5
CC6
  8
250
 10
-6.4000000000000039
 20
-2.75
 30
0.0
 11
12.41621867769191
 21
-2.750000000000004
 31
0.0
  0
LINE
  5
CC7
  8
250
 10
11.416218677691919
 20
4.9799999999999933
 30
0.0
 11
11.416218677691919
 21
7.2099999999999911
 31
0.0
  0
LINE
  5
CC8
  8
250
 10
11.41621867769191
 20
-4.9800000000000031
 30
0.0
 11
11.41621867769191
 21
-7.2100000000000009
 31
0.0
  0
LINE
  5
CC9
  8
250
 10
11.41621867769191
 20
2.7499999999999951
 30
0.0
 11
11.41621867769191
 21
-2.750000000000004
 31
0.0
  0
TEXT
  5
CCD
  8
250
 10
10.41621867769191
 20
-8.0142857142857178
 30
0.0
 40
3.0
  1
\U+2205
 50
90.0
  0
TEXT
  5
CCE
  8
250
 10
10.41621867769191
 20
-5.3000000000000007
 30
0.0
 40
3.0
  1
5ü`5.5
 50
90.0
  0
LINE
  5
CCF
  8
250
 10
11.04455201102525
 20
-4.9800000000000031
 30
0.0
 11
11.41621867769191
 21
-2.750000000000004
 31
0.0
  0
LINE
  5
CD0
  8
250
 10
11.78788534435858
 20
-4.9800000000000031
 30
0.0
 11
11.41621867769191
 21
-2.750000000000004
 31
0.0
  0
LINE
  5
CD1
  8
250
 10
11.41621867769191
 20
-2.750000000000004
 30
0.0
 11
11.41621867769191
 21
-4.9800000000000031
 31
0.0
  0
LINE
  5
CD2
  8
250
 10
11.78788534435858
 20
4.9799999999999933
 30
0.0
 11
11.41621867769191
 21
2.7499999999999951
 31
0.0
  0
LINE
  5
CD3
  8
250
 10
11.04455201102525
 20
4.9799999999999933
 30
0.0
 11
11.41621867769191
 21
2.7499999999999951
 31
0.0
  0
LINE
  5
CD4
  8
250
 10
11.41621867769191
 20
2.7499999999999951
 30
0.0
 11
11.41621867769191
 21
4.9799999999999933
 31
0.0
  0
INSERT
  5
E81
  8
240
  2
A$C529026EE
 10
0.0
 20
0.0
 30
0.0
  0
VIEWPORT
  5
22
 67
     1
  8
0
 10
261.51769911504419
 20
148.5
 30
0.0
 40
523.0353982300885
 41
297.0
 68
     1
 69
     1
1001
ACAD
1000
MVIEW
1002
{
1070
    16
1010
0.0
1020
0.0
1030
0.0
1010
0.0
1020
0.0
1030
1.0
1040
0.0
1040
297.0
1040
261.51769911504419
1040
148.5
1040
50.0
1040
0.0
1040
0.0
1070
     0
1070
   100
1070
     1
1070
     1
1070
     0
1070
     0
1070
     0
1070
     0
1040
0.0
1040
0.0
1040
0.0
1040
1.0
1040
1.0
1040
10.0
1040
10.0
1070
     0
1002
{
1002
}
1002
}
1001
GENIUS_GENODEF_13
1002
{
1000
HIER
1070
     0
1002
}
1002
{
1000
MANEDIT
1070
     0
1002
}
1002
{
1000
NOSEL
1070
     0
1002
}
1002
{
1000
BEHIND
1070
     0
1002
}
1002
{
1000
OTHER
1070
     0
1002
}
1002
{
1000
REACTOR
1002
}
1001
GENIUS_GENOBJ-N-SDF_13
1002
{
1000
OWNER
1000
GEN
1002
}
1001
GENIUS_GENSCREG_15
1000
PF
1040
1.0
1000
DF
1040
1.0
1000
MIN
1011
0.0
1021
0.0
1031
0.0
1021
0.0
1031
0.0
1000
MAX
1011
523.0353982300885
1021
0.0
1031
0.0
1021
297.0
1031
0.0
1000
FLAGS
1070
     2
  0
ENDSEC
  0
EOF
