  0
SECTION
  2
HEADER
  9
$ACADVER
  1
AC1009
  9
$INSBASE
 10
0.0
 20
0.0
 30
0.0
  9
$EXTMIN
 10
-34.720244125625982
 20
-15.267300937292701
 30
-0.0000000349181948
  9
$EXTMAX
 10
22.01911203914301
 20
40.00289642203284
 30
0.0000000814935747
  9
$LIMMIN
 10
0.0
 20
0.0
  9
$LIMMAX
 10
297.0
 20
210.0
  9
$ORTHOMODE
 70
     0
  9
$REGENMODE
 70
     1
  9
$FILLMODE
 70
     1
  9
$QTEXTMODE
 70
     0
  9
$MIRRTEXT
 70
     1
  9
$DRAGMODE
 70
     2
  9
$LTSCALE
 40
10.0
  9
$OSMODE
 70
   639
  9
$ATTMODE
 70
     1
  9
$TEXTSIZE
 40
3.0
  9
$TRACEWID
 40
1.0
  9
$TEXTSTYLE
  7
YOKO
  9
$CLAYER
  8
240
  9
$CELTYPE
  6
BYLAYER
  9
$CECOLOR
 62
   256
  9
$DIMSCALE
 40
1.0
  9
$DIMASZ
 40
2.2299999999999991
  9
$DIMEXO
 40
0.5
  9
$DIMDLI
 40
2.5
  9
$DIMRND
 40
0.0
  9
$DIMDLE
 40
0.0
  9
$DIMEXE
 40
1.0
  9
$DIMTP
 40
0.0
  9
$DIMTM
 40
0.0
  9
$DIMTXT
 40
3.0
  9
$DIMCEN
 40
0.0
  9
$DIMTSZ
 40
0.0
  9
$DIMTOL
 70
     0
  9
$DIMLIM
 70
     0
  9
$DIMTIH
 70
     0
  9
$DIMTOH
 70
     0
  9
$DIMSE1
 70
     0
  9
$DIMSE2
 70
     0
  9
$DIMTAD
 70
     3
  9
$DIMZIN
 70
     8
  9
$DIMBLK
  1
OPEN
  9
$DIMASO
 70
     1
  9
$DIMSHO
 70
     1
  9
$DIMPOST
  1

  9
$DIMAPOST
  1

  9
$DIMALT
 70
     0
  9
$DIMALTD
 70
     2
  9
$DIMALTF
 40
25.399999999999999
  9
$DIMLFAC
 40
1.0
  9
$DIMTOFL
 70
     1
  9
$DIMTVP
 40
0.0
  9
$DIMTIX
 70
     0
  9
$DIMSOXD
 70
     0
  9
$DIMSAH
 70
     0
  9
$DIMBLK1
  1

  9
$DIMBLK2
  1

  9
$DIMSTYLE
  2
BIGT
  9
$DIMCLRD
 70
   256
  9
$DIMCLRE
 70
   256
  9
$DIMCLRT
 70
    40
  9
$DIMTFAC
 40
1.0
  9
$DIMGAP
 40
1.0
  9
$LUNITS
 70
     2
  9
$LUPREC
 70
     2
  9
$SKETCHINC
 40
1.0
  9
$FILLETRAD
 40
0.0
  9
$AUNITS
 70
     0
  9
$AUPREC
 70
     3
  9
$MENU
  1
.
  9
$ELEVATION
 40
0.0
  9
$PELEVATION
 40
0.0
  9
$THICKNESS
 40
0.0
  9
$LIMCHECK
 70
     0
  9
$BLIPMODE
 70
     0
  9
$CHAMFERA
 40
10.0
  9
$CHAMFERB
 40
10.0
  9
$SKPOLY
 70
     0
  9
$TDCREATE
 40
2452880.4648967362
  9
$TDUPDATE
 40
2453612.4742822219
  9
$TDINDWG
 40
0.003218125
  9
$TDUSRTIMER
 40
0.0032179514
  9
$USRTIMER
 70
     1
  9
$ANGBASE
 50
0.0
  9
$ANGDIR
 70
     0
  9
$PDMODE
 70
    35
  9
$PDSIZE
 40
2.0
  9
$PLINEWID
 40
0.0
  9
$COORDS
 70
     2
  9
$SPLFRAME
 70
     0
  9
$SPLINETYPE
 70
     6
  9
$SPLINESEGS
 70
     8
  9
$ATTDIA
 70
     1
  9
$ATTREQ
 70
     1
  9
$HANDLING
 70
     1
  9
$HANDSEED
  5
8F2
  9
$SURFTAB1
 70
     6
  9
$SURFTAB2
 70
     6
  9
$SURFTYPE
 70
     6
  9
$SURFU
 70
     6
  9
$SURFV
 70
     6
  9
$UCSNAME
  2

  9
$UCSORG
 10
0.0
 20
0.0
 30
0.0
  9
$UCSXDIR
 10
1.0
 20
0.0
 30
0.0
  9
$UCSYDIR
 10
0.0
 20
1.0
 30
0.0
  9
$PUCSNAME
  2

  9
$PUCSORG
 10
0.0
 20
0.0
 30
0.0
  9
$PUCSXDIR
 10
1.0
 20
0.0
 30
0.0
  9
$PUCSYDIR
 10
0.0
 20
1.0
 30
0.0
  9
$USERI1
 70
     1
  9
$USERI2
 70
     0
  9
$USERI3
 70
     0
  9
$USERI4
 70
     0
  9
$USERI5
 70
     0
  9
$USERR1
 40
0.0
  9
$USERR2
 40
0.0
  9
$USERR3
 40
0.0
  9
$USERR4
 40
0.0
  9
$USERR5
 40
0.0
  9
$WORLDVIEW
 70
     1
  9
$SHADEDGE
 70
     3
  9
$SHADEDIF
 70
    70
  9
$TILEMODE
 70
     1
  9
$MAXACTVP
 70
    16
  9
$PLIMCHECK
 70
     0
  9
$PEXTMIN
 10
1.0000000000000000E+020
 20
1.0000000000000000E+020
 30
1.0000000000000000E+020
  9
$PEXTMAX
 10
-1.0000000000000000E+020
 20
-1.0000000000000000E+020
 30
-1.0000000000000000E+020
  9
$PLIMMIN
 10
0.0
 20
0.0
  9
$PLIMMAX
 10
420.0
 20
297.0
  9
$UNITMODE
 70
     0
  9
$VISRETAIN
 70
     0
  9
$PLINEGEN
 70
     0
  9
$PSLTSCALE
 70
     1
  0
ENDSEC
  0
SECTION
  2
TABLES
  0
TABLE
  2
VPORT
 70
     8
  0
VPORT
  2
*ACTIVE
 70
     0
 10
0.0
 20
0.0
 11
1.0
 21
1.0
 12
-6.3505660432414839
 22
12.367797742370071
 13
0.0
 23
0.0
 14
7.0
 24
7.0
 15
7.0
 25
7.0
 16
0.0
 26
0.0
 36
1.0
 17
0.0
 27
0.0
 37
0.0
 40
55.600168686843922
 41
1.267928286852589
 42
50.0
 43
0.0
 44
0.0
 50
0.0
 51
0.0
 71
     0
 72
  2000
 73
     1
 74
     0
 75
     0
 76
     0
 77
     0
 78
     0
  0
ENDTAB
  0
TABLE
  2
LTYPE
 70
    16
  0
LTYPE
  2
CONTINUOUS
 70
     0
  3
Solid line
 72
    65
 73
     0
 40
0.0
  0
LTYPE
  2
CENTER2
 70
     0
  3
___ _ ___ _ ___ _ ___ _ ___ _ ___ _ ___ _ ___ _
 72
    65
 73
     4
 40
1.125
 49
0.75
 49
-0.125
 49
0.125
 49
-0.125
  0
LTYPE
  2
HIDDEN2
 70
     0
  3
_ _ _ _ _ _ _ _ _ _ _ _ _ _ _ _ _ _ _ _ _ _ _ _
 72
    65
 73
     2
 40
0.1875
 49
0.125
 49
-0.0625
  0
LTYPE
  2
HIDDEN
 70
     0
  3
Hidden __ __ __ __ __ __ __ __ __ __ __ __ __ _
 72
    65
 73
     2
 40
9.5249999999999986
 49
6.3499999999999988
 49
-3.1749999999999989
  0
LTYPE
  2
PHANTOM2
 70
     0
  3
Phantom (.5x) ___ _ _ ___ _ _ ___ _ _ ___ _ _
 72
    65
 73
     6
 40
31.75
 49
15.875
 49
-3.1749999999999989
 49
3.1749999999999989
 49
-3.1749999999999989
 49
3.1749999999999989
 49
-3.1749999999999989
  0
LTYPE
  2
CENTER
 70
     0
  3
Center ____ _ ____ _ ____ _ ____ _ ____ _ ____
 72
    65
 73
     4
 40
50.799999999999997
 49
31.75
 49
-6.3499999999999988
 49
6.3499999999999988
 49
-6.3499999999999988
  0
LTYPE
  2
AM_ISO02W050
 70
     0
  3
__ __ __ __ __ __ __ __ __ __ __ __ __ __ __
 72
    65
 73
     2
 40
7.5
 49
6.0
 49
-1.5
  0
LTYPE
  2
AM_ISO08W050
 70
     0
  3
____ . ____ . ____ . ____ . ____ . ____ . ____
 72
    65
 73
     4
 40
18.0
 49
12.0
 49
-1.5
 49
3.0
 49
-1.5
  0
LTYPE
  2
AM_ISO09W050
 70
     0
  3
_____ . . _____ . . _____ . . ____ .. ____
 72
    65
 73
     6
 40
22.5
 49
12.0
 49
-1.5
 49
3.0
 49
-1.5
 49
3.0
 49
-1.5
  0
LTYPE
  2
AMCONSTR
 70
     0
  3
_______________________
 72
    65
 73
     2
 40
9999.0
 49
9999.0
 49
0.0
  0
LTYPE
  2
AM_ISO08W050X2
 70
     0
  3
__ . __ . __ . __ . __ . __
 72
    65
 73
     4
 40
9.0
 49
6.0
 49
-0.75
 49
1.5
 49
-0.75
  0
LTYPE
  2
AM_ISO02W050X2
 70
     0
  3
 _ _ _ _ _ _ _ _ _ _ _ _
 72
    65
 73
     2
 40
3.75
 49
3.0
 49
-0.75
  0
LTYPE
  2
AMZIGZAG
 70
     0
  3
/\/-/\/-/\/-/\/-/\/-/\/
 72
    65
 73
     2
 40
11.0001
 49
0.0001
 49
-11.0
  0
LTYPE
  2
ACISOWELD
 70
     0
  3
_ _ _ _ _
 72
    65
 73
     2
 40
2.0
 49
2.0
 49
-1.0
  0
LTYPE
  2
ACISOTGB
 70
     0
  3
__ . . __ . .
 72
    65
 73
     6
 40
9.0
 49
4.0
 49
-1.0
 49
1.0
 49
-1.0
 49
1.0
 49
-1.0
  0
LTYPE
  2
ACISOTGL
 70
     0
  3
_ _ _ _ _
 72
    65
 73
     2
 40
3.0
 49
2.0
 49
-1.0
  0
ENDTAB
  0
TABLE
  2
LAYER
 70
     7
  0
LAYER
  2
0
 70
     0
 62
     7
  6
CONTINUOUS
  0
LAYER
  2
240
 70
     0
 62
     4
  6
CONTINUOUS
  0
LAYER
  2
241
 70
     0
 62
   211
  6
CONTINUOUS
  0
LAYER
  2
243
 70
     0
 62
   211
  6
HIDDEN2
  0
LAYER
  2
245
 70
     0
 62
     2
  6
CENTER2
  0
LAYER
  2
250
 70
     0
 62
     3
  6
CONTINUOUS
  0
LAYER
  2
DEFPOINTS
 70
     0
 62
     7
  6
CONTINUOUS
  0
ENDTAB
  0
TABLE
  2
STYLE
 70
     5
  0
STYLE
  2
STANDARD
 70
     0
 40
0.0
 41
1.0
 50
0.0
 71
     0
 42
3.0
  3
romans.shx
  4
BIGFONT.SHX
  0
STYLE
  2
YOKO
 70
     0
 40
0.0
 41
1.0
 50
0.0
 71
     0
 42
3.0
  3
romans.shx
  4
extfont.shx
  0
STYLE
  2

 70
     1
 40
0.0
 41
1.0
 50
0.0
 71
     0
 42
3.0
  3
ltypeshp.shx
  4

  0
STYLE
  2
ACISOTS
 70
     0
 40
1.0
 41
1.0
 50
0.0
 71
     0
 42
3.0
  3
isocp.shx
  4
extfont.shx
  0
STYLE
  2
ACISOGDT
 70
     0
 40
0.0
 41
1.0
 50
0.0
 71
     0
 42
3.0
  3
amgdt.shx
  4

  0
ENDTAB
  0
TABLE
  2
VIEW
 70
     0
  0
ENDTAB
  0
TABLE
  2
UCS
 70
     0
  0
ENDTAB
  0
TABLE
  2
APPID
 70
    15
  0
APPID
  2
ACAD
 70
     0
  0
APPID
  2
GLOBAL
 70
     0
  0
APPID
  2
DETAIL
 70
     0
  0
APPID
  2
GRPNAME
 70
     0
  0
APPID
  2
GPARA
 70
     0
  0
APPID
  2
MCAD_NO_VIS
 70
     0
  0
APPID
  2
ACAD_TEMP_GRAPHIC
 70
     0
  0
APPID
  2
AD_DRAW
 70
     0
  0
APPID
  2
ACATTRIBSERVICES
 70
     0
  0
APPID
  2
DESIGNERASSEMBLIES
 70
     0
  0
APPID
  2
ACADM_DIM_EDIT
 70
     0
  0
APPID
  2
AMDT_DM_ADJ
 70
     0
  0
APPID
  2
GENIUS_GENSCREG_15
 70
     0
  0
APPID
  2
GENIUS_GENODEF_13
 70
     0
  0
APPID
  2
GENIUS_GENOBJ-N-SDF_13
 70
     0
  0
ENDTAB
  0
TABLE
  2
DIMSTYLE
 70
     9
  0
DIMSTYLE
  2
STANDARD
 70
     0
  3

  4

  5

  6

  7

 40
1.0
 41
2.0
 42
2.0
 43
3.75
 44
2.0
 45
0.0
 46
0.0
 47
0.0
 48
0.0
140
4.0
141
0.09
142
0.0
143
25.399999999999999
144
1.0
145
0.0
146
1.0
147
1.0
 71
     0
 72
     0
 73
     1
 74
     1
 75
     0
 76
     0
 77
     0
 78
     8
170
     0
171
     2
172
     0
173
     1
174
     0
175
     0
176
   256
177
   256
178
   256
  0
DIMSTYLE
  2
BIGT
 70
     0
  3

  4

  5
OPEN
  6

  7

 40
1.0
 41
2.2299999999999991
 42
0.5
 43
2.5
 44
1.0
 45
0.0
 46
0.0
 47
0.0
 48
0.0
140
3.5
141
0.0
142
0.0
143
25.399999999999999
144
1.0
145
0.0
146
1.0
147
1.0
 71
     0
 72
     0
 73
     0
 74
     0
 75
     0
 76
     0
 77
     3
 78
     9
170
     0
171
     2
172
     1
173
     0
174
     0
175
     0
176
   256
177
   256
178
    40
  0
DIMSTYLE
  2
AM_ISO
 70
     0
  3

  4
"
  5

  6

  7

 40
1.0
 41
2.5
 42
1.0
 43
10.0
 44
1.0
 45
0.0
 46
0.0
 47
0.1
 48
0.1
140
3.5
141
0.0
142
0.0
143
0.0393701
144
1.0
145
0.0
146
0.71
147
1.5
 71
     0
 72
     0
 73
     0
 74
     0
 75
     0
 76
     0
 77
     1
 78
     8
170
     0
171
     2
172
     1
173
     0
174
     0
175
     0
176
   256
177
   256
178
     2
  0
DIMSTYLE
  2
AM_ISO$3
 70
     0
  3

  4
"
  5

  6

  7

 40
1.0
 41
2.5
 42
1.0
 43
10.0
 44
1.0
 45
0.0
 46
0.0
 47
0.1
 48
0.1
140
3.5
141
0.0
142
0.0
143
0.0393701
144
1.0
145
0.0
146
0.71
147
1.5
 71
     0
 72
     0
 73
     0
 74
     1
 75
     0
 76
     0
 77
     1
 78
     8
170
     0
171
     2
172
     0
173
     0
174
     0
175
     0
176
   256
177
   256
178
     2
  0
DIMSTYLE
  2
AM_ISO$4
 70
     0
  3

  4
"
  5

  6

  7

 40
1.0
 41
2.5
 42
1.0
 43
10.0
 44
1.0
 45
0.0
 46
0.0
 47
0.1
 48
0.1
140
3.5
141
0.0
142
0.0
143
0.0393701
144
1.0
145
0.0
146
0.71
147
1.5
 71
     0
 72
     0
 73
     0
 74
     1
 75
     0
 76
     0
 77
     1
 78
     8
170
     0
171
     2
172
     0
173
     0
174
     0
175
     0
176
   256
177
   256
178
     2
  0
DIMSTYLE
  2
AM_ISO$6
 70
     0
  3

  4
"
  5

  6

  7

 40
1.0
 41
2.5
 42
1.0
 43
10.0
 44
1.0
 45
0.0
 46
0.0
 47
0.1
 48
0.1
140
3.5
141
0.0
142
0.0
143
0.0393701
144
1.0
145
0.0
146
0.71
147
1.5
 71
     0
 72
     0
 73
     0
 74
     0
 75
     0
 76
     0
 77
     0
 78
     8
170
     0
171
     2
172
     1
173
     0
174
     0
175
     0
176
   256
177
   256
178
     2
  0
DIMSTYLE
  2
AM_ISO$7
 70
     0
  3

  4
"
  5

  6

  7

 40
1.0
 41
2.5
 42
1.0
 43
10.0
 44
1.0
 45
0.0
 46
0.0
 47
0.1
 48
0.1
140
5.0
141
0.0
142
0.0
143
0.0393701
144
1.0
145
0.0
146
0.71
147
1.5
 71
     0
 72
     0
 73
     0
 74
     0
 75
     0
 76
     0
 77
     1
 78
     8
170
     0
171
     2
172
     1
173
     0
174
     0
175
     0
176
   256
177
   256
178
     2
  0
DIMSTYLE
  2
AM_ISO$SF
 70
     0
  3

  4
"
  5

  6

  7

 40
1.0
 41
2.5
 42
1.0
 43
10.0
 44
1.0
 45
0.0
 46
0.0
 47
0.1
 48
0.1
140
3.5
141
0.0
142
0.0
143
0.0393701
144
1.0
145
0.0
146
0.71
147
1.5
 71
     0
 72
     0
 73
     0
 74
     0
 75
     1
 76
     1
 77
     1
 78
     8
170
     0
171
     2
172
     1
173
     0
174
     0
175
     0
176
   256
177
   256
178
     2
  0
DIMSTYLE
  2
AM_ISO$SH
 70
     0
  3

  4
"
  5

  6
GENAXEH
  7

 40
1.0
 41
2.5
 42
1.0
 43
10.0
 44
1.0
 45
0.0
 46
0.0
 47
0.1
 48
0.1
140
3.5
141
0.0
142
0.0
143
0.0393701
144
2.0
145
0.0
146
0.71
147
1.5
 71
     0
 72
     0
 73
     0
 74
     0
 75
     1
 76
     1
 77
     1
 78
     8
170
     0
171
     2
172
     1
173
     1
174
     0
175
     0
176
   256
177
   256
178
     2
  0
ENDTAB
  0
ENDSEC
  0
SECTION
  2
BLOCKS
  0
BLOCK
  8
0
  2
$MODEL_SPACE
 70
     0
 10
0.0
 20
0.0
 30
0.0
  3
$MODEL_SPACE
  1

  0
ENDBLK
  5
1C
  8
0
  0
BLOCK
 67
     1
  8
0
  2
$PAPER_SPACE
 70
     0
 10
0.0
 20
0.0
 30
0.0
  3
$PAPER_SPACE
  1

  0
ENDBLK
  5
19
 67
     1
  8
0
  0
BLOCK
  8
0
  2
_OPEN
 70
     0
 10
0.0
 20
0.0
 30
0.0
  3
_OPEN
  1

  0
LINE
  5
595
  8
0
  6
BYBLOCK
 62
     0
 10
-1.0
 20
0.1666666666666666
 30
0.0
 11
0.0
 21
0.0
 31
0.0
  0
LINE
  5
596
  8
0
  6
BYBLOCK
 62
     0
 10
-1.0
 20
-0.1666666666666666
 30
0.0
 11
0.0
 21
0.0
 31
0.0
  0
LINE
  5
597
  8
0
  6
BYBLOCK
 62
     0
 10
0.0
 20
0.0
 30
0.0
 11
-1.0
 21
0.0
 31
0.0
  0
ENDBLK
  5
599
  8
0
  0
BLOCK
  8
0
  2
A$C3DDB4250
 70
     0
 10
0.0
 20
0.0
 30
0.0
  3
A$C3DDB4250
  1

  0
LINE
  5
791
  8
240
 10
-0.0397206174379505
 20
6.2264864685089938
 30
0.0
 11
-3.8405631402572449
 21
11.88254166401873
 31
0.0
1001
GRPNAME
1000
PASTMD1D
  0
LINE
  5
792
  8
243
 10
-33.899999999999999
 20
5.8664152946719241
 30
0.0
 11
-11.49999999999997
 21
8.25
 31
0.0
1001
GRPNAME
1000
NBS10 09
  0
LINE
  5
793
  8
243
 10
-6.9000000000000039
 20
6.922094380863852
 30
0.0
 11
-6.9000000000000039
 21
-6.9220943808638822
 31
0.0
1001
GRPNAME
1000
NBS10 0A
  0
LINE
  5
794
  8
241
 10
-24.399999999999999
 20
0.0
 30
0.0
 11
-24.399999999999999
 21
15.0
 31
0.0
1001
GRPNAME
1000
PASTMD6X
  0
LINE
  5
795
  8
241
 10
-3.9000000000000039
 20
0.0
 30
0.0
 11
-3.9000000000000039
 21
11.940235827091859
 31
0.0
1001
GRPNAME
1000
PASTMD6X
  0
LINE
  5
796
  8
241
 10
-25.764213562373101
 20
0.0
 30
0.0
 11
-25.764213562373101
 21
15.15
 31
0.0
1001
GRPNAME
1000
PASTMD6X
  0
LINE
  5
797
  8
240
 10
-27.70000000000001
 20
14.65
 30
0.0
 11
-27.70000000000001
 21
0.0
 31
0.0
1001
GRPNAME
1000
PASTMD6X
  0
LINE
  5
798
  8
243
 10
-18.900000000000031
 20
2.0
 30
0.0
 11
-7.4000000000000341
 21
2.0
 31
0.0
1001
GRPNAME
1000
NBS10
  0
LINE
  5
799
  8
243
 10
-18.900000000000031
 20
-2.0
 30
0.0
 11
-7.4000000000000341
 21
-2.0
 31
0.0
1001
GRPNAME
1000
NBS10
  0
LINE
  5
79A
  8
245
 10
-34.70000000000001
 20
0.0
 30
0.0
 11
1.0999999999999941
 21
0.0
 31
0.0
1001
GRPNAME
1000
PASTMD6X
  0
LINE
  5
79B
  8
243
 10
-33.899999999999999
 20
-5.8664152946719241
 30
0.0
 11
-11.49999999999997
 21
-8.25
 31
0.0
1001
GRPNAME
1000
NBS10 0A
  0
LINE
  5
79C
  8
240
 10
-24.399999999999999
 20
-15.0
 30
0.0
 11
-4.7000000000000171
 21
-15.0
 31
0.0
1001
GRPNAME
1000
PASTMD6Y
  0
LINE
  5
79D
  8
241
 10
-25.764213562373101
 20
0.0
 30
0.0
 11
-25.764213562373101
 21
-15.15
 31
0.0
1001
GRPNAME
1000
PASTMD6Y
  0
LINE
  5
79E
  8
241
 10
-24.399999999999999
 20
0.0
 30
0.0
 11
-24.399999999999999
 21
-15.0
 31
0.0
1001
GRPNAME
1000
PASTMD6Y
  0
LINE
  5
79F
  8
240
 10
-27.70000000000001
 20
-14.65
 30
0.0
 11
-27.70000000000001
 21
0.0
 31
0.0
1001
GRPNAME
1000
PASTMD6Y
  0
ARC
  5
7A0
  8
240
 10
-25.000000000000028
 20
-15.80000000000001
 30
0.0
 40
1.0000000000000051
 50
53.130102552199837
 51
135.00000019804369
1001
GRPNAME
1000
PASTMD6Y
  0
LINE
  5
7A1
  8
240
 10
-27.20000000000001
 20
-15.15
 30
0.0
 11
-25.764213562373101
 21
-15.15
 31
0.0
1001
GRPNAME
1000
PASTMD6Y
  0
LINE
  5
7A2
  8
240
 10
-25.70710678118655
 20
-15.09289321881344
 30
0.0
 11
-25.764213562373101
 21
-15.15
 31
0.0
1001
GRPNAME
1000
PASTMD6Y
  0
ARC
  5
7A3
  8
240
 10
-27.20000000000001
 20
-14.65
 30
0.0
 40
0.5
 50
180.00000001286139
 51
270.0000000128631
1001
GRPNAME
1000
PASTMD6Y
  0
LINE
  5
7A4
  8
243
 10
-19.900000000000031
 20
4.75
 30
0.0
 11
-33.900000000000041
 21
4.75
 31
0.0
1001
GRPNAME
1000
NBS10
  0
LINE
  5
7A5
  8
243
 10
-19.900000000000031
 20
-4.75
 30
0.0
 11
-33.900000000000041
 21
-4.75
 31
0.0
  0
LINE
  5
7A6
  8
243
 10
-33.899999999999999
 20
-5.8664152946719241
 30
0.0
 11
-33.899999999999999
 21
5.8664152946719241
 31
0.0
1001
GRPNAME
1000
NBS10 0A
  0
LINE
  5
7A7
  8
243
 10
-18.900000000000031
 20
3.75
 30
0.0
 11
-18.900000000000031
 21
-3.75
 31
0.0
1001
GRPNAME
1000
NBS10
  0
ARC
  5
7A8
  8
243
 10
-19.900000000000031
 20
-3.75
 30
0.0
 40
1.0
 50
270.0
 51
0.0
  0
ARC
  5
7A9
  8
243
 10
-19.900000000000031
 20
3.75
 30
0.0
 40
1.0
 50
0.0
 51
90.0
  0
LINE
  5
7AA
  8
240
 10
-0.0397206174379505
 20
-6.2264864685089938
 30
0.0
 11
-3.8405631402572449
 21
-11.88254166401873
 31
0.0
1001
GRPNAME
1000
PASTMD1R
  0
LINE
  5
7AB
  8
241
 10
-3.9000000000000039
 20
0.0
 30
0.0
 11
-3.9000000000000039
 21
-11.940235827091859
 31
0.0
1001
GRPNAME
1000
PASTMD6Y
  0
LINE
  5
7AC
  8
240
 10
-3.9000000000000039
 20
-11.940235827091859
 30
0.0
 11
-3.9000000000000039
 21
-14.19999999999999
 31
0.0
1001
GRPNAME
1000
PASTMD6Y
  0
ARC
  5
7AD
  8
240
 10
-4.7000000000000171
 20
-14.19999999999999
 30
0.0
 40
0.8000000000000112
 50
270.0000000128598
 51
0.0000000128606365
1001
GRPNAME
1000
PASTMD6Y
  0
ARC
  5
7AE
  8
240
 10
-4.0065638151833118
 20
-11.770989990234391
 30
0.0
 40
0.2000000000000008
 50
302.19612712233891
 51
326.09908485599851
1001
GRPNAME
1000
PASTMD1R
  0
LINE
  5
7AF
  8
243
 10
-6.8999999999999471
 20
-6.9220943808638253
 30
0.0
 11
-9.1999999999999602
 21
-8.25
 31
0.0
1001
GRPNAME
1000
NBS10 0A
  0
LINE
  5
7B0
  8
243
 10
-11.49999999999997
 20
-7.0
 30
0.0
 11
-9.3999999999999471
 21
-7.0
 31
0.0
1001
GRPNAME
1000
NBS10 0A
  0
LINE
  5
7B1
  8
243
 10
-11.49999999999997
 20
-7.0
 30
0.0
 11
-11.49999999999997
 21
-8.25
 31
0.0
1001
GRPNAME
1000
NBS10 0A
  0
LINE
  5
7B2
  8
243
 10
-9.3999999999999471
 20
-8.25
 30
0.0
 11
-9.1999999999999602
 21
-8.25
 31
0.0
1001
GRPNAME
1000
NBS10 0A
  0
LINE
  5
7B3
  8
243
 10
-9.3999999999999471
 20
-8.25
 30
0.0
 11
-9.3999999999999471
 21
-7.0
 31
0.0
1001
GRPNAME
1000
NBS10 0A
  0
ARC
  5
7B4
  8
243
 10
-7.4000000000000341
 20
-2.5
 30
0.0
 40
0.5
 50
0.0000000128647076
 51
90.000000012864689
  0
ARC
  5
7B5
  8
243
 10
-7.4000000000000341
 20
2.5
 30
0.0
 40
0.5
 50
269.99999997684353
 51
359.99999997684353
  0
LINE
  5
7B6
  8
240
 10
0.0
 20
0.0
 30
0.0
 11
0.0
 21
-6.1555198271041283
 31
0.0
1001
GRPNAME
1000
PASTMD7J
  0
ARC
  5
7B7
  8
240
 10
-0.4547223047531476
 20
-5.9476072840481597
 30
0.0
 40
0.5000000000000111
 50
326.09908491917378
 51
335.42871316355019
1001
GRPNAME
1000
PASTMD1R
  0
LINE
  5
7B8
  8
240
 10
0.0
 20
0.0
 30
0.0
 11
0.0
 21
6.1555198271041283
 31
0.0
1001
GRPNAME
1000
PASTMD7G
  0
ARC
  5
7B9
  8
240
 10
-0.4547223047531476
 20
5.9476072840481597
 30
0.0
 40
0.5000000000000016
 50
24.571286836449719
 51
33.900915166954888
1001
GRPNAME
1000
PASTMD1D
  0
LINE
  5
7BA
  8
240
 10
-24.399999999999999
 20
15.0
 30
0.0
 11
-4.7000000000000171
 21
15.0
 31
0.0
1001
GRPNAME
1000
PASTMD6X
  0
ARC
  5
7BB
  8
240
 10
-25.000000000000028
 20
15.80000000000001
 30
0.0
 40
0.9999999999999978
 50
224.99999985980679
 51
306.86989750565112
1001
GRPNAME
1000
PASTMD6X
  0
ARC
  5
7BC
  8
240
 10
-27.20000000000001
 20
14.65
 30
0.0
 40
0.5
 50
89.999999989709835
 51
179.9999999897114
1001
GRPNAME
1000
PASTMD6X
  0
LINE
  5
7BD
  8
240
 10
-27.20000000000001
 20
15.15
 30
0.0
 11
-25.764213562373101
 21
15.15
 31
0.0
1001
GRPNAME
1000
PASTMD6X
  0
LINE
  5
7BE
  8
240
 10
-25.70710678118655
 20
15.09289321881344
 30
0.0
 11
-25.764213562373101
 21
15.15
 31
0.0
1001
GRPNAME
1000
PASTMD6X
  0
ARC
  5
7BF
  8
240
 10
-4.7000000000000171
 20
14.19999999999999
 30
0.0
 40
0.8000000000000112
 50
0.000000089979673
 51
90.00000008997965
1001
GRPNAME
1000
PASTMD6X
  0
LINE
  5
7C0
  8
243
 10
-6.8999999999999471
 20
6.9220943808638253
 30
0.0
 11
-9.1999999999999602
 21
8.25
 31
0.0
1001
GRPNAME
1000
NBS10 09
  0
LINE
  5
7C1
  8
243
 10
-11.49999999999997
 20
7.0
 30
0.0
 11
-9.3999999999999471
 21
7.0
 31
0.0
1001
GRPNAME
1000
NBS10 09
  0
LINE
  5
7C2
  8
243
 10
-11.49999999999997
 20
7.0
 30
0.0
 11
-11.49999999999997
 21
8.25
 31
0.0
1001
GRPNAME
1000
NBS10 09
  0
LINE
  5
7C3
  8
243
 10
-9.3999999999999471
 20
8.25
 30
0.0
 11
-9.1999999999999602
 21
8.25
 31
0.0
1001
GRPNAME
1000
NBS10 09
  0
LINE
  5
7C4
  8
243
 10
-9.3999999999999471
 20
8.25
 30
0.0
 11
-9.3999999999999471
 21
7.0
 31
0.0
1001
GRPNAME
1000
NBS10 09
  0
ARC
  5
7C5
  8
240
 10
-4.0065638151833118
 20
11.770989990234391
 30
0.0
 40
0.2000000000000099
 50
33.900915209071222
 51
57.803872942736568
1001
GRPNAME
1000
PASTMD1D
  0
LINE
  5
7C6
  8
240
 10
-3.9000000000000039
 20
11.940235827091859
 30
0.0
 11
-3.9000000000000039
 21
14.19999999999999
 31
0.0
1001
GRPNAME
1000
PASTMD6X
  0
ENDBLK
  5
7C8
  8
0
  0
BLOCK
  8
0
  2
GENAXEH
 70
     0
 10
0.0
 20
0.0
 30
0.0
  3
GENAXEH
  1

  0
LINE
  5
893
  8
0
 10
-1.0
 20
0.0
 30
0.0
 11
1.0
 21
0.0
 31
0.0
  0
ENDBLK
  5
895
  8
0
  0
BLOCK
  8
0
  2
*U6
 70
     1
 10
0.0
 20
0.0
 30
0.0
  3
*U6
  1

  0
TEXT
  5
8E5
  8
250
 62
    40
 10
19.999999999999989
 20
-4.0714285714285756
 30
0.0
 40
3.0
  1
\U+2205
 50
90.0
  0
TEXT
  5
8E6
  8
250
 62
    40
 10
19.999999999999989
 20
-1.3571428571428621
 30
0.0
 40
3.0
  1
30
 50
90.0
  0
ENDBLK
  5
8E8
  8
0
  0
BLOCK
  8
0
  2
*U7
 70
     1
 10
0.0
 20
0.0
 30
0.0
  3
*U7
  1

  0
TEXT
  5
8EE
  8
250
 62
    40
 10
13.020935637625231
 20
-5.9428571428571457
 30
0.0
 40
3.0
  1
\U+2205
 50
90.0
  0
TEXT
  5
8EF
  8
250
 62
    40
 10
13.020935637625231
 20
-3.2285714285714322
 30
0.0
 40
3.0
  1
3ü`4
 50
90.0
  0
ENDBLK
  5
8F1
  8
0
  0
ENDSEC
  0
SECTION
  2
ENTITIES
  0
TEXT
  5
6B4
  8
243
 10
-35.0
 20
35.0
 30
0.0
 40
5.0
  1
MPS10-0304
  7
YOKO
 11
-35.0
 21
35.0
 31
0.0
 73
     1
  0
INSERT
  5
7C9
  8
240
  2
A$C3DDB4250
 10
0.0
 20
0.0
 30
0.0
  0
LINE
  5
8AF
  8
250
 10
-6.9000000001122981
 20
-2.0
 30
0.0
 11
15.020935637625231
 21
-2.0000000000000062
 31
0.0
  0
LINE
  5
8B0
  8
250
 10
-6.9000000002021116
 20
2.0
 30
0.0
 11
15.020935637625231
 21
1.9999999999999929
 31
0.0
  0
LINE
  5
8B1
  8
250
 10
14.02093563762522
 20
-4.2300000000000049
 30
0.0
 11
14.02093563762522
 21
-6.4600000000000044
 31
0.0
  0
LINE
  5
8B2
  8
250
 10
14.020935637625231
 20
4.2299999999999924
 30
0.0
 11
14.020935637625231
 21
6.4599999999999911
 31
0.0
  0
LINE
  5
8B3
  8
250
 10
14.020935637625231
 20
-2.0000000000000062
 30
0.0
 11
14.020935637625231
 21
1.9999999999999929
 31
0.0
  0
LINE
  5
8B7
  8
250
 10
-4.2000000000000171
 20
-15.0
 30
0.0
 11
21.999999999999989
 21
-15.0
 31
0.0
  0
LINE
  5
8B8
  8
250
 10
-4.2000000012563703
 20
15.0
 30
0.0
 11
22.0
 21
14.999999999999989
 31
0.0
  0
LINE
  5
8B9
  8
250
 10
20.999999999999989
 20
-12.77000000000001
 30
0.0
 11
21.0
 21
12.769999999999991
 31
0.0
  0
TEXT
  5
8BD
  8
250
 10
19.999999999999989
 20
-4.0714285714285756
 30
0.0
 40
3.0
  1
\U+2205
 50
90.0
1001
ACAD
1000
MTEXTBEGIN
1070
    73
1070
     1
1070
    44
1040
1.0
1070
    74
1070
     0
1000
MTEXTEND
  0
TEXT
  5
8BE
  8
250
 10
19.999999999999989
 20
-1.3571428571428621
 30
0.0
 40
3.0
  1
30
 50
90.0
1001
ACAD
1000
MTEXTBEGIN
1070
    73
1070
     1
1070
    44
1040
1.0
1070
    74
1070
     0
1000
MTEXTEND
  0
LINE
  5
8BF
  8
250
 10
20.62833333333333
 20
12.769999999999991
 30
0.0
 11
21.0
 21
14.999999999999989
 31
0.0
  0
LINE
  5
8C0
  8
250
 10
21.37166666666667
 20
12.769999999999991
 30
0.0
 11
21.0
 21
14.999999999999989
 31
0.0
  0
LINE
  5
8C1
  8
250
 10
21.0
 20
14.999999999999989
 30
0.0
 11
21.0
 21
12.769999999999991
 31
0.0
  0
LINE
  5
8C2
  8
250
 10
21.371666666666648
 20
-12.77
 30
0.0
 11
20.999999999999989
 21
-15.0
 31
0.0
  0
LINE
  5
8C3
  8
250
 10
20.62833333333332
 20
-12.77
 30
0.0
 11
20.999999999999989
 21
-15.0
 31
0.0
  0
LINE
  5
8C4
  8
250
 10
20.999999999999989
 20
-15.0
 30
0.0
 11
20.999999999999989
 21
-12.77
 31
0.0
  0
TEXT
  5
8C5
  8
250
 10
13.020935637625231
 20
-5.9428571428571457
 30
0.0
 40
3.0
  1
\U+2205
 50
90.0
  0
TEXT
  5
8C6
  8
250
 10
13.020935637625231
 20
-3.2285714285714322
 30
0.0
 40
3.0
  1
3ü`4
 50
90.0
  0
LINE
  5
8C7
  8
250
 10
14.39260230429189
 20
4.2299999999999933
 30
0.0
 11
14.020935637625231
 21
1.9999999999999929
 31
0.0
  0
LINE
  5
8C8
  8
250
 10
13.649268970958561
 20
4.2299999999999933
 30
0.0
 11
14.020935637625231
 21
1.9999999999999929
 31
0.0
  0
LINE
  5
8C9
  8
250
 10
14.020935637625231
 20
1.9999999999999929
 30
0.0
 11
14.020935637625231
 21
4.2299999999999933
 31
0.0
  0
LINE
  5
8CA
  8
250
 10
13.649268970958561
 20
-4.2300000000000049
 30
0.0
 11
14.020935637625231
 21
-2.0000000000000062
 31
0.0
  0
LINE
  5
8CB
  8
250
 10
14.39260230429189
 20
-4.2300000000000049
 30
0.0
 11
14.020935637625231
 21
-2.0000000000000062
 31
0.0
  0
LINE
  5
8CC
  8
250
 10
14.020935637625231
 20
-2.0000000000000062
 30
0.0
 11
14.020935637625231
 21
-4.2300000000000049
 31
0.0
  0
VIEWPORT
  5
22
 67
     1
  8
0
 10
261.51769911504419
 20
148.5
 30
0.0
 40
523.0353982300885
 41
297.0
 68
     1
 69
     1
1001
ACAD
1000
MVIEW
1002
{
1070
    16
1010
0.0
1020
0.0
1030
0.0
1010
0.0
1020
0.0
1030
1.0
1040
0.0
1040
297.0
1040
261.51769911504419
1040
148.5
1040
50.0
1040
0.0
1040
0.0
1070
     0
1070
   100
1070
     1
1070
     1
1070
     0
1070
     0
1070
     0
1070
     0
1040
0.0
1040
0.0
1040
0.0
1040
1.0
1040
1.0
1040
10.0
1040
10.0
1070
     0
1002
{
1002
}
1002
}
1001
GENIUS_GENODEF_13
1002
{
1000
HIER
1070
     0
1002
}
1002
{
1000
MANEDIT
1070
     0
1002
}
1002
{
1000
NOSEL
1070
     0
1002
}
1002
{
1000
BEHIND
1070
     0
1002
}
1002
{
1000
OTHER
1070
     0
1002
}
1002
{
1000
REACTOR
1002
}
1001
GENIUS_GENOBJ-N-SDF_13
1002
{
1000
OWNER
1000
GEN
1002
}
1001
GENIUS_GENSCREG_15
1000
PF
1040
1.0
1000
DF
1040
1.0
1000
MIN
1011
0.0
1021
0.0
1031
-0.0
1021
0.0
1031
0.0
1000
MAX
1011
523.0353982300885
1021
0.0
1031
-0.0
1021
297.0
1031
0.0
1000
FLAGS
1070
     2
  0
ENDSEC
  0
EOF
