  0
SECTION
  2
HEADER
  9
$ACADVER
  1
AC1009
  9
$INSBASE
 10
0.0
 20
0.0
 30
0.0
  9
$EXTMIN
 10
-34.705058405563371
 20
-15.25698849410634
 30
-0.0000000000112498
  9
$EXTMAX
 10
22.010720928641721
 20
40.014895449101111
 30
0.0000000000002956
  9
$LIMMIN
 10
0.0
 20
0.0
  9
$LIMMAX
 10
297.0
 20
210.0
  9
$ORTHOMODE
 70
     0
  9
$REGENMODE
 70
     1
  9
$FILLMODE
 70
     1
  9
$QTEXTMODE
 70
     0
  9
$MIRRTEXT
 70
     1
  9
$DRAGMODE
 70
     2
  9
$LTSCALE
 40
10.0
  9
$OSMODE
 70
   639
  9
$ATTMODE
 70
     1
  9
$TEXTSIZE
 40
3.0
  9
$TRACEWID
 40
1.0
  9
$TEXTSTYLE
  7
YOKO
  9
$CLAYER
  8
240
  9
$CELTYPE
  6
BYLAYER
  9
$CECOLOR
 62
   256
  9
$DIMSCALE
 40
1.0
  9
$DIMASZ
 40
2.2299999999999991
  9
$DIMEXO
 40
0.5
  9
$DIMDLI
 40
2.5
  9
$DIMRND
 40
0.0
  9
$DIMDLE
 40
0.0
  9
$DIMEXE
 40
1.0
  9
$DIMTP
 40
0.0
  9
$DIMTM
 40
0.0
  9
$DIMTXT
 40
3.0
  9
$DIMCEN
 40
0.0
  9
$DIMTSZ
 40
0.0
  9
$DIMTOL
 70
     0
  9
$DIMLIM
 70
     0
  9
$DIMTIH
 70
     0
  9
$DIMTOH
 70
     0
  9
$DIMSE1
 70
     0
  9
$DIMSE2
 70
     0
  9
$DIMTAD
 70
     3
  9
$DIMZIN
 70
     8
  9
$DIMBLK
  1
OPEN
  9
$DIMASO
 70
     1
  9
$DIMSHO
 70
     1
  9
$DIMPOST
  1

  9
$DIMAPOST
  1

  9
$DIMALT
 70
     0
  9
$DIMALTD
 70
     2
  9
$DIMALTF
 40
25.399999999999999
  9
$DIMLFAC
 40
1.0
  9
$DIMTOFL
 70
     1
  9
$DIMTVP
 40
0.0
  9
$DIMTIX
 70
     0
  9
$DIMSOXD
 70
     0
  9
$DIMSAH
 70
     0
  9
$DIMBLK1
  1

  9
$DIMBLK2
  1

  9
$DIMSTYLE
  2
BIGT
  9
$DIMCLRD
 70
   256
  9
$DIMCLRE
 70
   256
  9
$DIMCLRT
 70
    40
  9
$DIMTFAC
 40
1.0
  9
$DIMGAP
 40
1.0
  9
$LUNITS
 70
     2
  9
$LUPREC
 70
     2
  9
$SKETCHINC
 40
1.0
  9
$FILLETRAD
 40
0.0
  9
$AUNITS
 70
     0
  9
$AUPREC
 70
     3
  9
$MENU
  1
.
  9
$ELEVATION
 40
0.0
  9
$PELEVATION
 40
0.0
  9
$THICKNESS
 40
0.0
  9
$LIMCHECK
 70
     0
  9
$BLIPMODE
 70
     0
  9
$CHAMFERA
 40
10.0
  9
$CHAMFERB
 40
10.0
  9
$SKPOLY
 70
     0
  9
$TDCREATE
 40
2452880.4648967362
  9
$TDUPDATE
 40
2453612.6168174888
  9
$TDINDWG
 40
0.0060297222
  9
$TDUSRTIMER
 40
0.006029375
  9
$USRTIMER
 70
     1
  9
$ANGBASE
 50
0.0
  9
$ANGDIR
 70
     0
  9
$PDMODE
 70
    35
  9
$PDSIZE
 40
2.0
  9
$PLINEWID
 40
0.0
  9
$COORDS
 70
     2
  9
$SPLFRAME
 70
     0
  9
$SPLINETYPE
 70
     6
  9
$SPLINESEGS
 70
     8
  9
$ATTDIA
 70
     1
  9
$ATTREQ
 70
     1
  9
$HANDLING
 70
     1
  9
$HANDSEED
  5
AED
  9
$SURFTAB1
 70
     6
  9
$SURFTAB2
 70
     6
  9
$SURFTYPE
 70
     6
  9
$SURFU
 70
     6
  9
$SURFV
 70
     6
  9
$UCSNAME
  2

  9
$UCSORG
 10
0.0
 20
0.0
 30
0.0
  9
$UCSXDIR
 10
1.0
 20
0.0
 30
0.0
  9
$UCSYDIR
 10
0.0
 20
1.0
 30
0.0
  9
$PUCSNAME
  2

  9
$PUCSORG
 10
0.0
 20
0.0
 30
0.0
  9
$PUCSXDIR
 10
1.0
 20
0.0
 30
0.0
  9
$PUCSYDIR
 10
0.0
 20
1.0
 30
0.0
  9
$USERI1
 70
     1
  9
$USERI2
 70
     0
  9
$USERI3
 70
     0
  9
$USERI4
 70
     0
  9
$USERI5
 70
     0
  9
$USERR1
 40
0.0
  9
$USERR2
 40
0.0
  9
$USERR3
 40
0.0
  9
$USERR4
 40
0.0
  9
$USERR5
 40
0.0
  9
$WORLDVIEW
 70
     1
  9
$SHADEDGE
 70
     3
  9
$SHADEDIF
 70
    70
  9
$TILEMODE
 70
     1
  9
$MAXACTVP
 70
    16
  9
$PLIMCHECK
 70
     0
  9
$PEXTMIN
 10
1.0000000000000000E+020
 20
1.0000000000000000E+020
 30
1.0000000000000000E+020
  9
$PEXTMAX
 10
-1.0000000000000000E+020
 20
-1.0000000000000000E+020
 30
-1.0000000000000000E+020
  9
$PLIMMIN
 10
0.0
 20
0.0
  9
$PLIMMAX
 10
420.0
 20
297.0
  9
$UNITMODE
 70
     0
  9
$VISRETAIN
 70
     0
  9
$PLINEGEN
 70
     0
  9
$PSLTSCALE
 70
     1
  0
ENDSEC
  0
SECTION
  2
TABLES
  0
TABLE
  2
VPORT
 70
    49
  0
VPORT
  2
*ACTIVE
 70
     0
 10
0.0
 20
0.0
 11
1.0
 21
1.0
 12
-6.3471687384608249
 22
12.37895347749739
 13
0.0
 23
0.0
 14
7.0
 24
7.0
 15
7.0
 25
7.0
 16
0.0
 26
0.0
 36
1.0
 17
0.0
 27
0.0
 37
0.0
 40
55.601865339883318
 41
1.266932270916334
 42
50.0
 43
0.0
 44
0.0
 50
0.0
 51
0.0
 71
     0
 72
  2000
 73
     1
 74
     0
 75
     0
 76
     0
 77
     0
 78
     0
  0
ENDTAB
  0
TABLE
  2
LTYPE
 70
    19
  0
LTYPE
  2
CONTINUOUS
 70
     0
  3
Solid line
 72
    65
 73
     0
 40
0.0
  0
LTYPE
  2
CENTER2
 70
     0
  3
___ _ ___ _ ___ _ ___ _ ___ _ ___ _ ___ _ ___ _
 72
    65
 73
     4
 40
1.125
 49
0.75
 49
-0.125
 49
0.125
 49
-0.125
  0
LTYPE
  2
HIDDEN2
 70
     0
  3
_ _ _ _ _ _ _ _ _ _ _ _ _ _ _ _ _ _ _ _ _ _ _ _
 72
    65
 73
     2
 40
0.1875
 49
0.125
 49
-0.0625
  0
LTYPE
  2
HIDDEN
 70
     0
  3
Hidden __ __ __ __ __ __ __ __ __ __ __ __ __ _
 72
    65
 73
     2
 40
9.5249999999999986
 49
6.3499999999999979
 49
-3.174999999999998
  0
LTYPE
  2
PHANTOM2
 70
     0
  3
Phantom (.5x) ___ _ _ ___ _ _ ___ _ _ ___ _ _
 72
    65
 73
     6
 40
31.75
 49
15.875
 49
-3.174999999999998
 49
3.174999999999998
 49
-3.174999999999998
 49
3.174999999999998
 49
-3.174999999999998
  0
LTYPE
  2
CENTER
 70
     0
  3
Center ____ _ ____ _ ____ _ ____ _ ____ _ ____
 72
    65
 73
     4
 40
50.799999999999997
 49
31.75
 49
-6.3499999999999979
 49
6.3499999999999979
 49
-6.3499999999999979
  0
LTYPE
  2
AMCONSTR
 70
     0
  3
_______________________
 72
    65
 73
     2
 40
9999.0
 49
9999.0
 49
0.0
  0
LTYPE
  2
AMZIGZAG2
 70
     0
  3
/\/-/\/-/\/-/\/-/\/-/\/
 72
    65
 73
     2
 40
0.4401
 49
0.0001
 49
-0.4400000000000001
  0
LTYPE
  2
ACANSTGB
 70
     0
  3
__ . . __ . .
 72
    65
 73
     6
 40
0.35433070866
 49
0.15748031496
 49
-0.03937007874
 49
0.03937007874
 49
-0.03937007874
 49
0.03937007874
 49
-0.03937007874
  0
LTYPE
  2
ACANSTGL
 70
     0
  3
_ _ _ _ _
 72
    65
 73
     2
 40
0.11811023622
 49
0.07874015748
 49
-0.03937007874
  0
ENDTAB
  0
TABLE
  2
LAYER
 70
     8
  0
LAYER
  2
0
 70
     0
 62
     7
  6
CONTINUOUS
  0
LAYER
  2
240
 70
     0
 62
     4
  6
CONTINUOUS
  0
LAYER
  2
241
 70
     0
 62
   211
  6
CONTINUOUS
  0
LAYER
  2
243
 70
     0
 62
   211
  6
HIDDEN2
  0
LAYER
  2
245
 70
     0
 62
     2
  6
CENTER2
  0
LAYER
  2
250
 70
     0
 62
     3
  6
CONTINUOUS
  0
LAYER
  2
DEFPOINTS
 70
     0
 62
     7
  6
CONTINUOUS
  0
ENDTAB
  0
TABLE
  2
STYLE
 70
     7
  0
STYLE
  2
STANDARD
 70
     0
 40
0.0
 41
1.0
 50
0.0
 71
     0
 42
3.0
  3
romans.shx
  4
BIGFONT.SHX
  0
STYLE
  2
YOKO
 70
     0
 40
0.0
 41
1.0
 50
0.0
 71
     0
 42
3.0
  3
romans.shx
  4
extfont.shx
  0
STYLE
  2

 70
     1
 40
0.0
 41
1.0
 50
0.0
 71
     0
 42
3.0
  3
ltypeshp.shx
  4

  0
STYLE
  2
ACANSTS
 70
     0
 40
1.0
 41
1.0
 50
0.0
 71
     0
 42
3.0
  3
romans.shx
  4
extfont.shx
  0
STYLE
  2
ACANSGDT
 70
     0
 40
0.0
 41
1.0
 50
0.0
 71
     0
 42
3.0
  3
amgdtans.shx
  4

  0
ENDTAB
  0
TABLE
  2
VIEW
 70
     0
  0
ENDTAB
  0
TABLE
  2
UCS
 70
     0
  0
ENDTAB
  0
TABLE
  2
APPID
 70
    15
  0
APPID
  2
ACAD
 70
     0
  0
APPID
  2
GLOBAL
 70
     0
  0
APPID
  2
DETAIL
 70
     0
  0
APPID
  2
GRPNAME
 70
     0
  0
APPID
  2
GPARA
 70
     0
  0
APPID
  2
MCAD_NO_VIS
 70
     0
  0
APPID
  2
ACAD_TEMP_GRAPHIC
 70
     0
  0
APPID
  2
AD_DRAW
 70
     0
  0
APPID
  2
ACATTRIBSERVICES
 70
     0
  0
APPID
  2
DESIGNERASSEMBLIES
 70
     0
  0
APPID
  2
ACADM_DIM_EDIT
 70
     0
  0
APPID
  2
AMDT_DM_ADJ
 70
     0
  0
APPID
  2
GENIUS_GENSCREG_15
 70
     0
  0
APPID
  2
GENIUS_GENODEF_13
 70
     0
  0
APPID
  2
GENIUS_GENOBJ-N-SDF_13
 70
     0
  0
ENDTAB
  0
TABLE
  2
DIMSTYLE
 70
    15
  0
DIMSTYLE
  2
STANDARD
 70
     0
  3

  4

  5

  6

  7

 40
1.0
 41
2.0
 42
2.0
 43
3.75
 44
2.0
 45
0.0
 46
0.0
 47
0.0
 48
0.0
140
4.0
141
0.09
142
0.0
143
25.399999999999999
144
1.0
145
0.0
146
1.0
147
1.0
 71
     0
 72
     0
 73
     1
 74
     1
 75
     0
 76
     0
 77
     0
 78
     8
170
     0
171
     2
172
     0
173
     1
174
     0
175
     0
176
   256
177
   256
178
   256
  0
DIMSTYLE
  2
BIGT
 70
     0
  3

  4

  5

  6

  7

 40
1.0
 41
2.2299999999999991
 42
0.5
 43
2.5
 44
1.0
 45
0.0
 46
0.0
 47
0.0
 48
0.0
140
3.5
141
0.0
142
0.0
143
25.399999999999999
144
1.0
145
0.0
146
1.0
147
1.0
 71
     0
 72
     0
 73
     0
 74
     0
 75
     0
 76
     0
 77
     3
 78
     9
170
     0
171
     2
172
     1
173
     0
174
     0
175
     0
176
   256
177
   256
178
    40
  0
DIMSTYLE
  2
AM_ANSI
 70
     0
  3

  4
mm
  5

  6

  7

 40
1.0
 41
0.1
 42
0.05
 43
0.5
 44
0.1
 45
0.0
 46
0.0
 47
0.1
 48
0.1
140
0.12
141
0.0
142
0.0
143
25.399999999999999
144
1.0
145
0.0
146
0.71
147
0.06
 71
     0
 72
     0
 73
     1
 74
     1
 75
     0
 76
     0
 77
     0
 78
     7
170
     0
171
     2
172
     0
173
     0
174
     0
175
     0
176
   256
177
   256
178
     2
  0
DIMSTYLE
  2
AM_ANSI$3
 70
     0
  3

  4
mm
  5

  6

  7

 40
1.0
 41
0.1
 42
0.05
 43
0.5
 44
0.1
 45
0.0
 46
0.0
 47
0.1
 48
0.1
140
0.12
141
0.0
142
0.0
143
25.399999999999999
144
1.0
145
0.0
146
0.71
147
0.06
 71
     0
 72
     0
 73
     1
 74
     1
 75
     0
 76
     0
 77
     0
 78
     7
170
     0
171
     2
172
     0
173
     0
174
     0
175
     0
176
   256
177
   256
178
     2
  0
DIMSTYLE
  2
AM_ANSI$4
 70
     0
  3

  4
mm
  5

  6

  7

 40
1.0
 41
0.1
 42
0.05
 43
0.5
 44
0.1
 45
0.0
 46
0.0
 47
0.1
 48
0.1
140
0.12
141
0.0
142
0.0
143
25.399999999999999
144
1.0
145
0.0
146
0.71
147
0.06
 71
     0
 72
     0
 73
     1
 74
     1
 75
     0
 76
     0
 77
     0
 78
     7
170
     0
171
     2
172
     0
173
     0
174
     0
175
     0
176
   256
177
   256
178
     2
  0
DIMSTYLE
  2
AM_ANSI$7
 70
     0
  3

  4
mm
  5

  6

  7

 40
1.0
 41
0.1
 42
0.05
 43
0.5
 44
0.1
 45
0.0
 46
0.0
 47
0.1
 48
0.1
140
0.24
141
0.0
142
0.0
143
25.399999999999999
144
1.0
145
0.0
146
0.71
147
0.06
 71
     0
 72
     0
 73
     1
 74
     1
 75
     0
 76
     0
 77
     0
 78
     7
170
     0
171
     2
172
     0
173
     0
174
     0
175
     0
176
   256
177
   256
178
     2
  0
DIMSTYLE
  2
AM_ANSI$SF
 70
     0
  3

  4
mm
  5

  6

  7

 40
1.0
 41
0.1
 42
0.05
 43
0.5
 44
0.1
 45
0.0
 46
0.0
 47
0.1
 48
0.1
140
0.12
141
0.0
142
0.0
143
25.399999999999999
144
1.0
145
0.0
146
0.71
147
0.06
 71
     0
 72
     0
 73
     1
 74
     1
 75
     1
 76
     1
 77
     0
 78
     7
170
     0
171
     2
172
     0
173
     0
174
     0
175
     0
176
   256
177
   256
178
     2
  0
DIMSTYLE
  2
AM_ANSI$SH
 70
     0
  3

  4
mm
  5

  6
GENAXEH
  7

 40
1.0
 41
0.1
 42
0.05
 43
0.5
 44
0.1
 45
0.0
 46
0.0
 47
0.1
 48
0.1
140
0.12
141
0.0
142
0.0
143
25.399999999999999
144
1.0
145
0.0
146
0.71
147
0.06
 71
     0
 72
     0
 73
     1
 74
     1
 75
     1
 76
     1
 77
     0
 78
     7
170
     0
171
     2
172
     0
173
     1
174
     0
175
     0
176
   256
177
   256
178
     2
  0
ENDTAB
  0
ENDSEC
  0
SECTION
  2
BLOCKS
  0
BLOCK
  8
0
  2
$MODEL_SPACE
 70
     0
 10
0.0
 20
0.0
 30
0.0
  3
$MODEL_SPACE
  1

  0
ENDBLK
  5
913
  8
0
  0
BLOCK
 67
     1
  8
0
  2
$PAPER_SPACE
 70
     0
 10
0.0
 20
0.0
 30
0.0
  3
$PAPER_SPACE
  1

  0
ENDBLK
  5
90F
 67
     1
  8
0
  0
BLOCK
  8
0
  2
_OPEN
 70
     0
 10
0.0
 20
0.0
 30
0.0
  3
_OPEN
  1

  0
LINE
  5
595
  8
0
  6
BYBLOCK
 62
     0
 10
-1.0
 20
0.1666666666666666
 30
0.0
 11
0.0
 21
0.0
 31
0.0
  0
LINE
  5
596
  8
0
  6
BYBLOCK
 62
     0
 10
-1.0
 20
-0.1666666666666666
 30
0.0
 11
0.0
 21
0.0
 31
0.0
  0
LINE
  5
597
  8
0
  6
BYBLOCK
 62
     0
 10
0.0
 20
0.0
 30
0.0
 11
-1.0
 21
0.0
 31
0.0
  0
ENDBLK
  5
599
  8
0
  0
BLOCK
  8
0
  2
GENAXEH
 70
     0
 10
0.0
 20
0.0
 30
0.0
  3
GENAXEH
  1

  0
LINE
  5
893
  8
0
 10
-1.0
 20
0.0
 30
0.0
 11
1.0
 21
0.0
 31
0.0
  0
ENDBLK
  5
895
  8
0
  0
BLOCK
  8
0
  2
A$C2AE5682F
 70
     0
 10
0.0
 20
0.0
 30
0.0
  3
A$C2AE5682F
  1

  0
LINE
  5
A97
  8
243
 10
-18.900000000000031
 20
-1.75
 30
0.0
 11
-6.9000000000000048
 21
-1.75
 31
0.0
1001
GRPNAME
1000
PASTMD6X
  0
LINE
  5
A98
  8
243
 10
-18.900000000000031
 20
1.75
 30
0.0
 11
-6.9000000000000048
 21
1.75
 31
0.0
1001
GRPNAME
1000
PASTMD6X
  0
LINE
  5
A99
  8
240
 10
-3.900000000000003
 20
11.940235827091859
 30
0.0
 11
-3.900000000000003
 21
14.19999999999999
 31
0.0
1001
GRPNAME
1000
PASTMD6X
  0
ARC
  5
A9A
  8
240
 10
-4.006563815183311
 20
11.770989990234391
 30
0.0
 40
0.2000000000000099
 50
33.900915209071229
 51
57.803872942736568
1001
GRPNAME
1000
PASTMD1D
  0
LINE
  5
A9B
  8
243
 10
-9.3999999999999488
 20
8.25
 30
0.0
 11
-9.3999999999999488
 21
7.0
 31
0.0
1001
GRPNAME
1000
NBS10 09
  0
LINE
  5
A9C
  8
243
 10
-9.3999999999999488
 20
8.25
 30
0.0
 11
-9.1999999999999602
 21
8.25
 31
0.0
1001
GRPNAME
1000
NBS10 09
  0
LINE
  5
A9D
  8
243
 10
-11.49999999999997
 20
7.0
 30
0.0
 11
-11.49999999999997
 21
8.25
 31
0.0
1001
GRPNAME
1000
NBS10 09
  0
LINE
  5
A9E
  8
243
 10
-11.49999999999997
 20
7.0
 30
0.0
 11
-9.3999999999999488
 21
7.0
 31
0.0
1001
GRPNAME
1000
NBS10 09
  0
LINE
  5
A9F
  8
243
 10
-6.8999999999999471
 20
6.9220943808638236
 30
0.0
 11
-9.1999999999999602
 21
8.25
 31
0.0
1001
GRPNAME
1000
NBS10 09
  0
ARC
  5
AA0
  8
240
 10
-4.7000000000000171
 20
14.19999999999999
 30
0.0
 40
0.8000000000000112
 50
0.000000089979673
 51
90.00000008997965
1001
GRPNAME
1000
PASTMD6X
  0
LINE
  5
AA1
  8
240
 10
-25.70710678118655
 20
15.09289321881344
 30
0.0
 11
-25.764213562373101
 21
15.15
 31
0.0
1001
GRPNAME
1000
PASTMD6X
  0
LINE
  5
AA2
  8
240
 10
-27.20000000000001
 20
15.15
 30
0.0
 11
-25.764213562373101
 21
15.15
 31
0.0
1001
GRPNAME
1000
PASTMD6X
  0
ARC
  5
AA3
  8
240
 10
-27.20000000000001
 20
14.65
 30
0.0
 40
0.5
 50
89.999999989709835
 51
179.9999999897114
1001
GRPNAME
1000
PASTMD6X
  0
ARC
  5
AA4
  8
240
 10
-25.000000000000028
 20
15.80000000000001
 30
0.0
 40
0.9999999999999978
 50
224.99999985980679
 51
306.86989750565112
1001
GRPNAME
1000
PASTMD6X
  0
LINE
  5
AA5
  8
240
 10
-24.399999999999999
 20
15.0
 30
0.0
 11
-4.7000000000000171
 21
15.0
 31
0.0
1001
GRPNAME
1000
PASTMD6X
  0
ARC
  5
AA6
  8
240
 10
-0.4547223047531477
 20
5.9476072840481589
 30
0.0
 40
0.5000000000000016
 50
24.571286836449719
 51
33.900915166954888
1001
GRPNAME
1000
PASTMD1D
  0
LINE
  5
AA7
  8
240
 10
0.0
 20
0.0
 30
0.0
 11
0.0
 21
6.1555198271041283
 31
0.0
1001
GRPNAME
1000
PASTMD7G
  0
ARC
  5
AA8
  8
240
 10
-0.4547223047531477
 20
-5.9476072840481589
 30
0.0
 40
0.5000000000000111
 50
326.09908491917378
 51
335.42871316355019
1001
GRPNAME
1000
PASTMD1R
  0
LINE
  5
AA9
  8
240
 10
0.0
 20
0.0
 30
0.0
 11
0.0
 21
-6.1555198271041283
 31
0.0
1001
GRPNAME
1000
PASTMD7J
  0
LINE
  5
AAA
  8
243
 10
-9.3999999999999488
 20
-8.25
 30
0.0
 11
-9.3999999999999488
 21
-7.0
 31
0.0
1001
GRPNAME
1000
NBS10 0A
  0
LINE
  5
AAB
  8
243
 10
-9.3999999999999488
 20
-8.25
 30
0.0
 11
-9.1999999999999602
 21
-8.25
 31
0.0
1001
GRPNAME
1000
NBS10 0A
  0
LINE
  5
AAC
  8
243
 10
-11.49999999999997
 20
-7.0
 30
0.0
 11
-11.49999999999997
 21
-8.25
 31
0.0
1001
GRPNAME
1000
NBS10 0A
  0
LINE
  5
AAD
  8
243
 10
-11.49999999999997
 20
-7.0
 30
0.0
 11
-9.3999999999999488
 21
-7.0
 31
0.0
1001
GRPNAME
1000
NBS10 0A
  0
LINE
  5
AAE
  8
243
 10
-6.8999999999999471
 20
-6.9220943808638236
 30
0.0
 11
-9.1999999999999602
 21
-8.25
 31
0.0
1001
GRPNAME
1000
NBS10 0A
  0
ARC
  5
AAF
  8
240
 10
-4.006563815183311
 20
-11.770989990234391
 30
0.0
 40
0.2000000000000008
 50
302.19612712233891
 51
326.09908485599851
1001
GRPNAME
1000
PASTMD1R
  0
ARC
  5
AB0
  8
240
 10
-4.7000000000000171
 20
-14.19999999999999
 30
0.0
 40
0.8000000000000112
 50
270.0000000128598
 51
0.0000000128606365
1001
GRPNAME
1000
PASTMD6Y
  0
LINE
  5
AB1
  8
240
 10
-3.900000000000003
 20
-11.940235827091859
 30
0.0
 11
-3.900000000000003
 21
-14.19999999999999
 31
0.0
1001
GRPNAME
1000
PASTMD6Y
  0
LINE
  5
AB2
  8
241
 10
-3.900000000000003
 20
0.0
 30
0.0
 11
-3.900000000000003
 21
-11.940235827091859
 31
0.0
1001
GRPNAME
1000
PASTMD6Y
  0
LINE
  5
AB3
  8
240
 10
-0.0397206174379505
 20
-6.2264864685089929
 30
0.0
 11
-3.840563140257244
 21
-11.88254166401873
 31
0.0
1001
GRPNAME
1000
PASTMD1R
  0
ARC
  5
AB4
  8
243
 10
-19.900000000000031
 20
3.75
 30
0.0
 40
1.0
 50
0.0
 51
90.0
  0
ARC
  5
AB5
  8
243
 10
-19.900000000000031
 20
-3.75
 30
0.0
 40
1.0
 50
270.0
 51
0.0
  0
LINE
  5
AB6
  8
243
 10
-18.900000000000031
 20
3.75
 30
0.0
 11
-18.900000000000031
 21
-3.75
 31
0.0
1001
GRPNAME
1000
NBS10
  0
LINE
  5
AB7
  8
243
 10
-33.899999999999999
 20
-5.8664152946719241
 30
0.0
 11
-33.899999999999999
 21
5.8664152946719241
 31
0.0
1001
GRPNAME
1000
NBS10 0A
  0
LINE
  5
AB8
  8
243
 10
-19.900000000000031
 20
-4.75
 30
0.0
 11
-33.900000000000041
 21
-4.75
 31
0.0
  0
LINE
  5
AB9
  8
243
 10
-19.900000000000031
 20
4.75
 30
0.0
 11
-33.900000000000041
 21
4.75
 31
0.0
1001
GRPNAME
1000
NBS10
  0
ARC
  5
ABA
  8
240
 10
-27.20000000000001
 20
-14.65
 30
0.0
 40
0.5
 50
180.00000001286139
 51
270.0000000128631
1001
GRPNAME
1000
PASTMD6Y
  0
LINE
  5
ABB
  8
240
 10
-25.70710678118655
 20
-15.09289321881344
 30
0.0
 11
-25.764213562373101
 21
-15.15
 31
0.0
1001
GRPNAME
1000
PASTMD6Y
  0
LINE
  5
ABC
  8
240
 10
-27.20000000000001
 20
-15.15
 30
0.0
 11
-25.764213562373101
 21
-15.15
 31
0.0
1001
GRPNAME
1000
PASTMD6Y
  0
ARC
  5
ABD
  8
240
 10
-25.000000000000028
 20
-15.80000000000001
 30
0.0
 40
1.0000000000000051
 50
53.130102552199837
 51
135.00000019804369
1001
GRPNAME
1000
PASTMD6Y
  0
LINE
  5
ABE
  8
240
 10
-27.70000000000001
 20
-14.65
 30
0.0
 11
-27.70000000000001
 21
0.0
 31
0.0
1001
GRPNAME
1000
PASTMD6Y
  0
LINE
  5
ABF
  8
241
 10
-24.399999999999999
 20
0.0
 30
0.0
 11
-24.399999999999999
 21
-15.0
 31
0.0
1001
GRPNAME
1000
PASTMD6Y
  0
LINE
  5
AC0
  8
241
 10
-25.764213562373101
 20
0.0
 30
0.0
 11
-25.764213562373101
 21
-15.15
 31
0.0
1001
GRPNAME
1000
PASTMD6Y
  0
LINE
  5
AC1
  8
240
 10
-24.399999999999999
 20
-15.0
 30
0.0
 11
-4.7000000000000171
 21
-15.0
 31
0.0
1001
GRPNAME
1000
PASTMD6Y
  0
LINE
  5
AC2
  8
243
 10
-33.899999999999999
 20
-5.8664152946719241
 30
0.0
 11
-11.49999999999997
 21
-8.25
 31
0.0
1001
GRPNAME
1000
NBS10 0A
  0
LINE
  5
AC3
  8
245
 10
-34.70000000000001
 20
0.0
 30
0.0
 11
1.0999999999999941
 21
0.0
 31
0.0
1001
GRPNAME
1000
PASTMD6X
  0
LINE
  5
AC4
  8
240
 10
-27.70000000000001
 20
14.65
 30
0.0
 11
-27.70000000000001
 21
0.0
 31
0.0
1001
GRPNAME
1000
PASTMD6X
  0
LINE
  5
AC5
  8
241
 10
-25.764213562373101
 20
0.0
 30
0.0
 11
-25.764213562373101
 21
15.15
 31
0.0
1001
GRPNAME
1000
PASTMD6X
  0
LINE
  5
AC6
  8
241
 10
-3.900000000000003
 20
0.0
 30
0.0
 11
-3.900000000000003
 21
11.940235827091859
 31
0.0
1001
GRPNAME
1000
PASTMD6X
  0
LINE
  5
AC7
  8
241
 10
-24.399999999999999
 20
0.0
 30
0.0
 11
-24.399999999999999
 21
15.0
 31
0.0
1001
GRPNAME
1000
PASTMD6X
  0
LINE
  5
AC8
  8
243
 10
-6.900000000000003
 20
6.922094380863852
 30
0.0
 11
-6.900000000000003
 21
-6.9220943808638813
 31
0.0
1001
GRPNAME
1000
NBS10 0A
  0
LINE
  5
AC9
  8
243
 10
-33.899999999999999
 20
5.8664152946719241
 30
0.0
 11
-11.49999999999997
 21
8.25
 31
0.0
1001
GRPNAME
1000
NBS10 09
  0
LINE
  5
ACA
  8
240
 10
-0.0397206174379505
 20
6.2264864685089929
 30
0.0
 11
-3.840563140257244
 21
11.88254166401873
 31
0.0
1001
GRPNAME
1000
PASTMD1D
  0
ENDBLK
  5
ACC
  8
0
  0
BLOCK
  8
0
  2
*U10
 70
     1
 10
0.0
 20
0.0
 30
0.0
  3
*U10
  1

  0
TEXT
  5
AE9
  8
240
 62
    40
 10
9.2019202111010827
 20
-8.0142857142857178
 30
0.0
 40
3.0
  1
\U+2205
 50
90.0
  0
TEXT
  5
AEA
  8
240
 62
    40
 10
9.2019202111010827
 20
-5.3000000000000043
 30
0.0
 40
3.0
  1
3ü`3.5
 50
90.0
  0
ENDBLK
  5
AEC
  8
0
  0
ENDSEC
  0
SECTION
  2
ENTITIES
  0
TEXT
  5
6B4
  8
243
 10
-35.0
 20
35.0
 30
0.0
 40
5.0
  1
MPS10-03035
  7
YOKO
 11
-35.0
 21
35.0
 31
0.0
 73
     1
  0
LINE
  5
8B7
  8
250
 10
-4.2000000000000171
 20
-15.0
 30
0.0
 11
21.999999999999989
 21
-15.0
 31
0.0
  0
LINE
  5
8B8
  8
250
 10
-4.2000000012563694
 20
15.0
 30
0.0
 11
22.0
 21
14.999999999999989
 31
0.0
  0
LINE
  5
8B9
  8
250
 10
20.999999999999989
 20
-12.77000000000001
 30
0.0
 11
21.0
 21
12.769999999999991
 31
0.0
  0
TEXT
  5
8BD
  8
250
 10
19.999999999999989
 20
-4.0714285714285747
 30
0.0
 40
3.0
  1
\U+2205
 50
90.0
1001
ACAD
1000
MTEXTBEGIN
1070
    73
1070
     1
1070
    44
1040
1.0
1070
    74
1070
     0
1000
MTEXTEND
  0
TEXT
  5
8BE
  8
250
 10
19.999999999999989
 20
-1.3571428571428621
 30
0.0
 40
3.0
  1
30
 50
90.0
1001
ACAD
1000
MTEXTBEGIN
1070
    73
1070
     1
1070
    44
1040
1.0
1070
    74
1070
     0
1000
MTEXTEND
  0
LINE
  5
8BF
  8
250
 10
20.62833333333333
 20
12.769999999999991
 30
0.0
 11
21.0
 21
14.999999999999989
 31
0.0
  0
LINE
  5
8C0
  8
250
 10
21.37166666666667
 20
12.769999999999991
 30
0.0
 11
21.0
 21
14.999999999999989
 31
0.0
  0
LINE
  5
8C1
  8
250
 10
21.0
 20
14.999999999999989
 30
0.0
 11
21.0
 21
12.769999999999991
 31
0.0
  0
LINE
  5
8C2
  8
250
 10
21.371666666666648
 20
-12.77
 30
0.0
 11
20.999999999999989
 21
-15.0
 31
0.0
  0
LINE
  5
8C3
  8
250
 10
20.62833333333332
 20
-12.77
 30
0.0
 11
20.999999999999989
 21
-15.0
 31
0.0
  0
LINE
  5
8C4
  8
250
 10
20.999999999999989
 20
-15.0
 30
0.0
 11
20.999999999999989
 21
-12.77
 31
0.0
  0
LINE
  5
A7F
  8
250
 10
-6.4000000000000021
 20
1.75
 30
0.0
 11
11.201920211101079
 21
1.7499999999999949
 31
0.0
  0
LINE
  5
A80
  8
250
 10
-6.4000000000000021
 20
-1.75
 30
0.0
 11
11.201920211101079
 21
-1.7500000000000051
 31
0.0
  0
LINE
  5
A81
  8
250
 10
10.201920211101079
 20
3.9799999999999942
 30
0.0
 11
10.201920211101079
 21
6.209999999999992
 31
0.0
  0
LINE
  5
A82
  8
250
 10
10.201920211101079
 20
-3.980000000000004
 30
0.0
 11
10.201920211101079
 21
-6.2100000000000026
 31
0.0
  0
LINE
  5
A83
  8
250
 10
10.201920211101079
 20
1.7499999999999949
 30
0.0
 11
10.201920211101079
 21
-1.7500000000000051
 31
0.0
  0
TEXT
  5
A87
  8
250
 10
9.2019202111010827
 20
-8.0142857142857178
 30
0.0
 40
3.0
  1
\U+2205
 50
90.0
  0
TEXT
  5
A88
  8
250
 10
9.2019202111010827
 20
-5.3000000000000043
 30
0.0
 40
3.0
  1
3ü`3.5
 50
90.0
  0
LINE
  5
A89
  8
250
 10
9.8302535444344166
 20
-3.9800000000000031
 30
0.0
 11
10.201920211101079
 21
-1.7500000000000051
 31
0.0
  0
LINE
  5
A8A
  8
250
 10
10.573586877767751
 20
-3.9800000000000031
 30
0.0
 11
10.201920211101079
 21
-1.7500000000000051
 31
0.0
  0
LINE
  5
A8B
  8
250
 10
10.201920211101079
 20
-1.7500000000000051
 30
0.0
 11
10.201920211101079
 21
-3.9800000000000031
 31
0.0
  0
LINE
  5
A8C
  8
250
 10
10.573586877767751
 20
3.9799999999999942
 30
0.0
 11
10.201920211101079
 21
1.7499999999999949
 31
0.0
  0
LINE
  5
A8D
  8
250
 10
9.8302535444344166
 20
3.9799999999999942
 30
0.0
 11
10.201920211101079
 21
1.7499999999999949
 31
0.0
  0
LINE
  5
A8E
  8
250
 10
10.201920211101079
 20
1.7499999999999949
 30
0.0
 11
10.201920211101079
 21
3.9799999999999942
 31
0.0
  0
INSERT
  5
ACE
  8
240
  2
A$C2AE5682F
 10
0.0
 20
0.0
 30
0.0
  0
VIEWPORT
  5
22
 67
     1
  8
0
 10
261.51769911504419
 20
148.5
 30
0.0
 40
523.0353982300885
 41
297.0
 68
     1
 69
     1
1001
ACAD
1000
MVIEW
1002
{
1070
    16
1010
0.0
1020
0.0
1030
0.0
1010
0.0
1020
0.0
1030
1.0
1040
0.0
1040
297.0
1040
261.51769911504419
1040
148.5
1040
50.0
1040
0.0
1040
0.0
1070
     0
1070
   100
1070
     1
1070
     1
1070
     0
1070
     0
1070
     0
1070
     0
1040
0.0
1040
0.0
1040
0.0
1040
1.0
1040
1.0
1040
10.0
1040
10.0
1070
     0
1002
{
1002
}
1002
}
1001
GENIUS_GENODEF_13
1002
{
1000
HIER
1070
     0
1002
}
1002
{
1000
MANEDIT
1070
     0
1002
}
1002
{
1000
NOSEL
1070
     0
1002
}
1002
{
1000
BEHIND
1070
     0
1002
}
1002
{
1000
OTHER
1070
     0
1002
}
1002
{
1000
REACTOR
1002
}
1001
GENIUS_GENOBJ-N-SDF_13
1002
{
1000
OWNER
1000
GEN
1002
}
1001
GENIUS_GENSCREG_15
1000
PF
1040
1.0
1000
DF
1040
1.0
1000
MIN
1011
0.0
1021
0.0
1031
0.0
1021
0.0
1031
0.0
1000
MAX
1011
523.0353982300885
1021
0.0
1031
0.0
1021
297.0
1031
0.0
1000
FLAGS
1070
     2
  0
ENDSEC
  0
EOF
