  0
SECTION
  2
HEADER
  9
$ACADVER
  1
AC1009
  9
$INSBASE
 10
0.0
 20
0.0
 30
0.0
  9
$EXTMIN
 10
-27.647599848456711
 20
-12.75695036925282
 30
-0.0000000000112498
  9
$EXTMAX
 10
27.589009587770882
 20
40.014960722352548
 30
0.0000000000002956
  9
$LIMMIN
 10
0.0
 20
0.0
  9
$LIMMAX
 10
297.0
 20
210.0
  9
$ORTHOMODE
 70
     0
  9
$REGENMODE
 70
     1
  9
$FILLMODE
 70
     1
  9
$QTEXTMODE
 70
     0
  9
$MIRRTEXT
 70
     1
  9
$DRAGMODE
 70
     2
  9
$LTSCALE
 40
10.0
  9
$OSMODE
 70
   639
  9
$ATTMODE
 70
     1
  9
$TEXTSIZE
 40
3.0
  9
$TRACEWID
 40
1.0
  9
$TEXTSTYLE
  7
YOKO
  9
$CLAYER
  8
240
  9
$CELTYPE
  6
BYLAYER
  9
$CECOLOR
 62
   256
  9
$DIMSCALE
 40
1.0
  9
$DIMASZ
 40
2.2299999999999991
  9
$DIMEXO
 40
0.5
  9
$DIMDLI
 40
2.5
  9
$DIMRND
 40
0.0
  9
$DIMDLE
 40
0.0
  9
$DIMEXE
 40
1.0
  9
$DIMTP
 40
0.0
  9
$DIMTM
 40
0.0
  9
$DIMTXT
 40
3.0
  9
$DIMCEN
 40
0.0
  9
$DIMTSZ
 40
0.0
  9
$DIMTOL
 70
     0
  9
$DIMLIM
 70
     0
  9
$DIMTIH
 70
     0
  9
$DIMTOH
 70
     0
  9
$DIMSE1
 70
     0
  9
$DIMSE2
 70
     0
  9
$DIMTAD
 70
     3
  9
$DIMZIN
 70
     8
  9
$DIMBLK
  1
OPEN
  9
$DIMASO
 70
     1
  9
$DIMSHO
 70
     1
  9
$DIMPOST
  1

  9
$DIMAPOST
  1

  9
$DIMALT
 70
     0
  9
$DIMALTD
 70
     2
  9
$DIMALTF
 40
25.399999999999999
  9
$DIMLFAC
 40
1.0
  9
$DIMTOFL
 70
     1
  9
$DIMTVP
 40
0.0
  9
$DIMTIX
 70
     0
  9
$DIMSOXD
 70
     0
  9
$DIMSAH
 70
     0
  9
$DIMBLK1
  1

  9
$DIMBLK2
  1

  9
$DIMSTYLE
  2
BIGT
  9
$DIMCLRD
 70
   256
  9
$DIMCLRE
 70
   256
  9
$DIMCLRT
 70
    40
  9
$DIMTFAC
 40
1.0
  9
$DIMGAP
 40
1.0
  9
$LUNITS
 70
     2
  9
$LUPREC
 70
     2
  9
$SKETCHINC
 40
1.0
  9
$FILLETRAD
 40
0.0
  9
$AUNITS
 70
     0
  9
$AUPREC
 70
     3
  9
$MENU
  1
.
  9
$ELEVATION
 40
0.0
  9
$PELEVATION
 40
0.0
  9
$THICKNESS
 40
0.0
  9
$LIMCHECK
 70
     0
  9
$BLIPMODE
 70
     0
  9
$CHAMFERA
 40
10.0
  9
$CHAMFERB
 40
10.0
  9
$SKPOLY
 70
     0
  9
$TDCREATE
 40
2452880.4648967362
  9
$TDUPDATE
 40
2453612.6112082181
  9
$TDINDWG
 40
0.0464259606
  9
$TDUSRTIMER
 40
0.0464257755
  9
$USRTIMER
 70
     1
  9
$ANGBASE
 50
0.0
  9
$ANGDIR
 70
     0
  9
$PDMODE
 70
    35
  9
$PDSIZE
 40
2.0
  9
$PLINEWID
 40
0.0
  9
$COORDS
 70
     2
  9
$SPLFRAME
 70
     0
  9
$SPLINETYPE
 70
     6
  9
$SPLINESEGS
 70
     8
  9
$ATTDIA
 70
     1
  9
$ATTREQ
 70
     1
  9
$HANDLING
 70
     1
  9
$HANDSEED
  5
24BD
  9
$SURFTAB1
 70
     6
  9
$SURFTAB2
 70
     6
  9
$SURFTYPE
 70
     6
  9
$SURFU
 70
     6
  9
$SURFV
 70
     6
  9
$UCSNAME
  2

  9
$UCSORG
 10
0.0
 20
0.0
 30
0.0
  9
$UCSXDIR
 10
1.0
 20
0.0
 30
0.0
  9
$UCSYDIR
 10
0.0
 20
1.0
 30
0.0
  9
$PUCSNAME
  2

  9
$PUCSORG
 10
0.0
 20
0.0
 30
0.0
  9
$PUCSXDIR
 10
1.0
 20
0.0
 30
0.0
  9
$PUCSYDIR
 10
0.0
 20
1.0
 30
0.0
  9
$USERI1
 70
     1
  9
$USERI2
 70
     0
  9
$USERI3
 70
     0
  9
$USERI4
 70
     0
  9
$USERI5
 70
     0
  9
$USERR1
 40
0.0
  9
$USERR2
 40
0.0
  9
$USERR3
 40
0.0
  9
$USERR4
 40
0.0
  9
$USERR5
 40
0.0
  9
$WORLDVIEW
 70
     1
  9
$SHADEDGE
 70
     3
  9
$SHADEDIF
 70
    70
  9
$TILEMODE
 70
     1
  9
$MAXACTVP
 70
    16
  9
$PLIMCHECK
 70
     0
  9
$PEXTMIN
 10
1.0000000000000000E+020
 20
1.0000000000000000E+020
 30
1.0000000000000000E+020
  9
$PEXTMAX
 10
-1.0000000000000000E+020
 20
-1.0000000000000000E+020
 30
-1.0000000000000000E+020
  9
$PLIMMIN
 10
0.0
 20
0.0
  9
$PLIMMAX
 10
420.0
 20
297.0
  9
$UNITMODE
 70
     0
  9
$VISRETAIN
 70
     0
  9
$PLINEGEN
 70
     0
  9
$PSLTSCALE
 70
     1
  0
ENDSEC
  0
SECTION
  2
TABLES
  0
TABLE
  2
VPORT
 70
    54
  0
VPORT
  2
*ACTIVE
 70
     0
 10
0.0
 20
0.0
 11
1.0
 21
1.0
 12
-0.0292951303429199
 22
13.629005176549869
 13
0.0
 23
0.0
 14
7.0
 24
7.0
 15
7.0
 25
7.0
 16
0.0
 26
0.0
 36
1.0
 17
0.0
 27
0.0
 37
0.0
 40
53.086967277226897
 41
1.266932270916334
 42
50.0
 43
0.0
 44
0.0
 50
0.0
 51
0.0
 71
     0
 72
  2000
 73
     1
 74
     0
 75
     0
 76
     0
 77
     0
 78
     0
  0
ENDTAB
  0
TABLE
  2
LTYPE
 70
    19
  0
LTYPE
  2
CONTINUOUS
 70
     0
  3
Solid line
 72
    65
 73
     0
 40
0.0
  0
LTYPE
  2
CENTER2
 70
     0
  3
___ _ ___ _ ___ _ ___ _ ___ _ ___ _ ___ _ ___ _
 72
    65
 73
     4
 40
1.125
 49
0.75
 49
-0.125
 49
0.125
 49
-0.125
  0
LTYPE
  2
HIDDEN2
 70
     0
  3
_ _ _ _ _ _ _ _ _ _ _ _ _ _ _ _ _ _ _ _ _ _ _ _
 72
    65
 73
     2
 40
0.1875
 49
0.125
 49
-0.0625
  0
LTYPE
  2
HIDDEN
 70
     0
  3
Hidden __ __ __ __ __ __ __ __ __ __ __ __ __ _
 72
    65
 73
     2
 40
9.5249999999999986
 49
6.3499999999999979
 49
-3.174999999999998
  0
LTYPE
  2
PHANTOM2
 70
     0
  3
Phantom (.5x) ___ _ _ ___ _ _ ___ _ _ ___ _ _
 72
    65
 73
     6
 40
31.75
 49
15.875
 49
-3.174999999999998
 49
3.174999999999998
 49
-3.174999999999998
 49
3.174999999999998
 49
-3.174999999999998
  0
LTYPE
  2
CENTER
 70
     0
  3
Center ____ _ ____ _ ____ _ ____ _ ____ _ ____
 72
    65
 73
     4
 40
50.799999999999997
 49
31.75
 49
-6.3499999999999979
 49
6.3499999999999979
 49
-6.3499999999999979
  0
LTYPE
  2
AMCONSTR
 70
     0
  3
_______________________
 72
    65
 73
     2
 40
9999.0
 49
9999.0
 49
0.0
  0
LTYPE
  2
AMZIGZAG2
 70
     0
  3
/\/-/\/-/\/-/\/-/\/-/\/
 72
    65
 73
     2
 40
0.4401
 49
0.0001
 49
-0.4400000000000001
  0
LTYPE
  2
ACANSTGB
 70
     0
  3
__ . . __ . .
 72
    65
 73
     6
 40
0.35433070866
 49
0.15748031496
 49
-0.03937007874
 49
0.03937007874
 49
-0.03937007874
 49
0.03937007874
 49
-0.03937007874
  0
LTYPE
  2
ACANSTGL
 70
     0
  3
_ _ _ _ _
 72
    65
 73
     2
 40
0.11811023622
 49
0.07874015748
 49
-0.03937007874
  0
ENDTAB
  0
TABLE
  2
LAYER
 70
     8
  0
LAYER
  2
0
 70
     0
 62
     7
  6
CONTINUOUS
  0
LAYER
  2
240
 70
     0
 62
     4
  6
CONTINUOUS
  0
LAYER
  2
241
 70
     0
 62
   211
  6
CONTINUOUS
  0
LAYER
  2
243
 70
     0
 62
   211
  6
HIDDEN2
  0
LAYER
  2
245
 70
     0
 62
     2
  6
CENTER2
  0
LAYER
  2
250
 70
     0
 62
     3
  6
CONTINUOUS
  0
LAYER
  2
DEFPOINTS
 70
     0
 62
     7
  6
CONTINUOUS
  0
ENDTAB
  0
TABLE
  2
STYLE
 70
     7
  0
STYLE
  2
STANDARD
 70
     0
 40
0.0
 41
1.0
 50
0.0
 71
     0
 42
3.0
  3
romans.shx
  4
BIGFONT.SHX
  0
STYLE
  2
YOKO
 70
     0
 40
0.0
 41
1.0
 50
0.0
 71
     0
 42
3.0
  3
romans.shx
  4
extfont.shx
  0
STYLE
  2

 70
     1
 40
0.0
 41
1.0
 50
0.0
 71
     0
 42
3.0
  3
ltypeshp.shx
  4

  0
STYLE
  2
ACANSTS
 70
     0
 40
1.0
 41
1.0
 50
0.0
 71
     0
 42
3.0
  3
romans.shx
  4
extfont.shx
  0
STYLE
  2
ACANSGDT
 70
     0
 40
0.0
 41
1.0
 50
0.0
 71
     0
 42
3.0
  3
amgdtans.shx
  4

  0
ENDTAB
  0
TABLE
  2
VIEW
 70
     0
  0
ENDTAB
  0
TABLE
  2
UCS
 70
     0
  0
ENDTAB
  0
TABLE
  2
APPID
 70
    16
  0
APPID
  2
ACAD
 70
     0
  0
APPID
  2
GLOBAL
 70
     0
  0
APPID
  2
DETAIL
 70
     0
  0
APPID
  2
GRPNAME
 70
     0
  0
APPID
  2
GPARA
 70
     0
  0
APPID
  2
ITEMNAME
 70
     0
  0
APPID
  2
MCAD_NO_VIS
 70
     0
  0
APPID
  2
ACAD_TEMP_GRAPHIC
 70
     0
  0
APPID
  2
AD_DRAW
 70
     0
  0
APPID
  2
ACATTRIBSERVICES
 70
     0
  0
APPID
  2
DESIGNERASSEMBLIES
 70
     0
  0
APPID
  2
ACADM_DIM_EDIT
 70
     0
  0
APPID
  2
AMDT_DM_ADJ
 70
     0
  0
APPID
  2
GENIUS_GENSCREG_15
 70
     0
  0
APPID
  2
GENIUS_GENOBJ-N-SDF_13
 70
     0
  0
APPID
  2
GENIUS_GENODEF_13
 70
     0
  0
ENDTAB
  0
TABLE
  2
DIMSTYLE
 70
    15
  0
DIMSTYLE
  2
STANDARD
 70
     0
  3

  4

  5

  6

  7

 40
1.0
 41
2.0
 42
2.0
 43
3.75
 44
2.0
 45
0.0
 46
0.0
 47
0.0
 48
0.0
140
4.0
141
0.09
142
0.0
143
25.399999999999999
144
1.0
145
0.0
146
1.0
147
1.0
 71
     0
 72
     0
 73
     1
 74
     1
 75
     0
 76
     0
 77
     0
 78
     8
170
     0
171
     2
172
     0
173
     1
174
     0
175
     0
176
   256
177
   256
178
   256
  0
DIMSTYLE
  2
BIGT
 70
     0
  3

  4

  5

  6

  7

 40
1.0
 41
2.2299999999999991
 42
0.5
 43
2.5
 44
1.0
 45
0.0
 46
0.0
 47
0.0
 48
0.0
140
3.5
141
0.0
142
0.0
143
25.399999999999999
144
1.0
145
0.0
146
1.0
147
1.0
 71
     0
 72
     0
 73
     0
 74
     0
 75
     0
 76
     0
 77
     3
 78
     9
170
     0
171
     2
172
     1
173
     0
174
     0
175
     0
176
   256
177
   256
178
    40
  0
DIMSTYLE
  2
AM_ANSI
 70
     0
  3

  4
mm
  5

  6

  7

 40
1.0
 41
0.1
 42
0.05
 43
0.5
 44
0.1
 45
0.0
 46
0.0
 47
0.1
 48
0.1
140
0.12
141
0.0
142
0.0
143
25.399999999999999
144
1.0
145
0.0
146
0.71
147
0.06
 71
     0
 72
     0
 73
     1
 74
     1
 75
     0
 76
     0
 77
     0
 78
     7
170
     0
171
     2
172
     0
173
     0
174
     0
175
     0
176
   256
177
   256
178
     2
  0
DIMSTYLE
  2
AM_ANSI$3
 70
     0
  3

  4
mm
  5

  6

  7

 40
1.0
 41
0.1
 42
0.05
 43
0.5
 44
0.1
 45
0.0
 46
0.0
 47
0.1
 48
0.1
140
0.12
141
0.0
142
0.0
143
25.399999999999999
144
1.0
145
0.0
146
0.71
147
0.06
 71
     0
 72
     0
 73
     1
 74
     1
 75
     0
 76
     0
 77
     0
 78
     7
170
     0
171
     2
172
     0
173
     0
174
     0
175
     0
176
   256
177
   256
178
     2
  0
DIMSTYLE
  2
AM_ANSI$4
 70
     0
  3

  4
mm
  5

  6

  7

 40
1.0
 41
0.1
 42
0.05
 43
0.5
 44
0.1
 45
0.0
 46
0.0
 47
0.1
 48
0.1
140
0.12
141
0.0
142
0.0
143
25.399999999999999
144
1.0
145
0.0
146
0.71
147
0.06
 71
     0
 72
     0
 73
     1
 74
     1
 75
     0
 76
     0
 77
     0
 78
     7
170
     0
171
     2
172
     0
173
     0
174
     0
175
     0
176
   256
177
   256
178
     2
  0
DIMSTYLE
  2
AM_ANSI$7
 70
     0
  3

  4
mm
  5

  6

  7

 40
1.0
 41
0.1
 42
0.05
 43
0.5
 44
0.1
 45
0.0
 46
0.0
 47
0.1
 48
0.1
140
0.24
141
0.0
142
0.0
143
25.399999999999999
144
1.0
145
0.0
146
0.71
147
0.06
 71
     0
 72
     0
 73
     1
 74
     1
 75
     0
 76
     0
 77
     0
 78
     7
170
     0
171
     2
172
     0
173
     0
174
     0
175
     0
176
   256
177
   256
178
     2
  0
DIMSTYLE
  2
AM_ANSI$SF
 70
     0
  3

  4
mm
  5

  6

  7

 40
1.0
 41
0.1
 42
0.05
 43
0.5
 44
0.1
 45
0.0
 46
0.0
 47
0.1
 48
0.1
140
0.12
141
0.0
142
0.0
143
25.399999999999999
144
1.0
145
0.0
146
0.71
147
0.06
 71
     0
 72
     0
 73
     1
 74
     1
 75
     1
 76
     1
 77
     0
 78
     7
170
     0
171
     2
172
     0
173
     0
174
     0
175
     0
176
   256
177
   256
178
     2
  0
DIMSTYLE
  2
AM_ANSI$SH
 70
     0
  3

  4
mm
  5

  6
GENAXEH
  7

 40
1.0
 41
0.1
 42
0.05
 43
0.5
 44
0.1
 45
0.0
 46
0.0
 47
0.1
 48
0.1
140
0.12
141
0.0
142
0.0
143
25.399999999999999
144
1.0
145
0.0
146
0.71
147
0.06
 71
     0
 72
     0
 73
     1
 74
     1
 75
     1
 76
     1
 77
     0
 78
     7
170
     0
171
     2
172
     0
173
     1
174
     0
175
     0
176
   256
177
   256
178
     2
  0
ENDTAB
  0
ENDSEC
  0
SECTION
  2
BLOCKS
  0
BLOCK
  8
0
  2
$MODEL_SPACE
 70
     0
 10
0.0
 20
0.0
 30
0.0
  3
$MODEL_SPACE
  1

  0
ENDBLK
  5
22CE
  8
0
  0
BLOCK
 67
     1
  8
0
  2
$PAPER_SPACE
 70
     0
 10
0.0
 20
0.0
 30
0.0
  3
$PAPER_SPACE
  1

  0
ENDBLK
  5
22CA
 67
     1
  8
0
  0
BLOCK
  8
0
  2
_OPEN
 70
     0
 10
0.0
 20
0.0
 30
0.0
  3
_OPEN
  1

  0
LINE
  5
595
  8
0
  6
BYBLOCK
 62
     0
 10
-1.0
 20
0.1666666666666666
 30
0.0
 11
0.0
 21
0.0
 31
0.0
  0
LINE
  5
596
  8
0
  6
BYBLOCK
 62
     0
 10
-1.0
 20
-0.1666666666666666
 30
0.0
 11
0.0
 21
0.0
 31
0.0
  0
LINE
  5
597
  8
0
  6
BYBLOCK
 62
     0
 10
0.0
 20
0.0
 30
0.0
 11
-1.0
 21
0.0
 31
0.0
  0
ENDBLK
  5
599
  8
0
  0
BLOCK
  8
0
  2
GENAXEH
 70
     0
 10
0.0
 20
0.0
 30
0.0
  3
GENAXEH
  1

  0
LINE
  5
2249
  8
0
 10
-1.0
 20
0.0
 30
0.0
 11
1.0
 21
0.0
 31
0.0
  0
ENDBLK
  5
224B
  8
0
  0
BLOCK
  8
0
  2
A$C21F973FA
 70
     0
 10
0.0
 20
0.0
 30
0.0
  3
A$C21F973FA
  1

  0
LINE
  5
246A
  8
243
 10
-24.899999999999999
 20
-2.7499999999999991
 30
0.0
 11
-6.900000000000003
 21
-2.75
 31
0.0
1001
GRPNAME
1000
PASTMD60
  0
LINE
  5
246B
  8
243
 10
-24.899999999999999
 20
2.7499999999999991
 30
0.0
 11
-6.900000000000003
 21
2.75
 31
0.0
1001
GRPNAME
1000
PASTMD60
  0
ARC
  5
246C
  8
240
 10
-4.5999999999999934
 20
11.80000000000001
 30
0.0
 40
0.6999999999999889
 50
359.9999999871377
 51
89.999999987135325
1001
GRPNAME
1000
PASTMD60
  0
LINE
  5
246D
  8
240
 10
-4.4188266684281796
 20
12.47616006191617
 30
0.0
 11
-4.5078432516887972
 21
12.50001198351384
 31
0.0
1001
GRPNAME
1000
PASTMD29
  0
ARC
  5
246E
  8
240
 10
-3.957797474631775
 20
9.3890012413263513
 30
0.0
 40
0.1999999999999824
 50
57.762747564110967
 51
73.202658754580341
1001
GRPNAME
1000
PASTMD1P
  0
LINE
  5
246F
  8
240
 10
-0.1865131210061577
 20
7.2471204721693132
 30
0.0
 11
-3.8511122070003121
 21
9.5581705460787401
 31
0.0
1001
GRPNAME
1000
PASTMD1P
  0
ARC
  5
2470
  8
240
 10
-0.4532262900847856
 20
6.824197210288359
 30
0.0
 40
0.4999999999999766
 50
24.980362690768938
 51
57.762747468823932
1001
GRPNAME
1000
PASTMD1P
  0
LINE
  5
2471
  8
240
 10
0.0
 20
0.0
 30
0.0
 11
0.0
 21
7.0353510167327871
 31
0.0
1001
GRPNAME
1000
PASTMD7F
  0
LINE
  5
2472
  8
241
 10
-3.900000000000003
 20
0.0
 30
0.0
 11
-3.900000000000003
 21
9.5804678230741445
 31
0.0
1001
GRPNAME
1000
PASTMD60
  0
LINE
  5
2473
  8
243
 10
-10.50000000000002
 20
5.2500000000000284
 30
0.0
 11
-8.5999999999999943
 21
5.2500000000000284
 31
0.0
1001
GRPNAME
1000
NBS8
  0
LINE
  5
2474
  8
243
 10
-10.50000000000002
 20
5.2500000000000284
 30
0.0
 11
-10.50000000000002
 21
6.2499999999999698
 31
0.0
1001
GRPNAME
1000
NBS8
  0
LINE
  5
2475
  8
243
 10
-8.5999999999999943
 20
6.2500000000000258
 30
0.0
 11
-8.5000000000000249
 21
6.2500000000000258
 31
0.0
1001
GRPNAME
1000
NBS8
  0
LINE
  5
2476
  8
243
 10
-8.5999999999999943
 20
5.2500000000000284
 30
0.0
 11
-8.5999999999999943
 21
6.2500000000000258
 31
0.0
1001
GRPNAME
1000
NBS8
  0
LINE
  5
2477
  8
243
 10
-6.900000000000003
 20
5.3262395692966322
 30
0.0
 11
-8.5000000000000249
 21
6.2500000000000258
 31
0.0
1001
GRPNAME
1000
NBS8
  0
LINE
  5
2478
  8
243
 10
-10.50000000000002
 20
-5.2500000000000284
 30
0.0
 11
-8.5999999999999943
 21
-5.2500000000000284
 31
0.0
1001
GRPNAME
1000
NBS8  02
  0
LINE
  5
2479
  8
243
 10
-6.900000000000003
 20
-5.3262395692966322
 30
0.0
 11
-6.900000000000003
 21
5.3262395692966322
 31
0.0
1001
GRPNAME
1000
NBS8  02
  0
LINE
  5
247A
  8
240
 10
-3.900000000000003
 20
9.5804678230741445
 30
0.0
 11
-3.900000000000003
 21
11.80000000000001
 31
0.0
1001
GRPNAME
1000
PASTMD60
  0
ARC
  5
247B
  8
240
 10
-0.4532262900847856
 20
-6.824197210288359
 30
0.0
 40
0.4999999999999887
 50
302.23725260554551
 51
335.01963730922807
1001
GRPNAME
1000
PASTMD1X
  0
ARC
  5
247C
  8
240
 10
-3.957797474631775
 20
-9.3890012413263513
 30
0.0
 40
0.1999999999999921
 50
286.79734124541773
 51
302.23725247437238
1001
GRPNAME
1000
PASTMD1X
  0
LINE
  5
247D
  8
240
 10
-0.1865131210061577
 20
-7.2471204721693132
 30
0.0
 11
-3.8511122070003121
 21
-9.5581705460787401
 31
0.0
1001
GRPNAME
1000
PASTMD1X
  0
ARC
  5
247E
  8
240
 10
-4.599999999999965
 20
-11.80000000000001
 30
0.0
 40
0.6999999999999889
 50
269.99999991002352
 51
359.99999991002107
1001
GRPNAME
1000
PASTMD61
  0
LINE
  5
247F
  8
240
 10
-4.4188266684281521
 20
-12.47616006191617
 30
0.0
 11
-4.5078432516887661
 21
-12.50001198351384
 31
0.0
1001
GRPNAME
1000
PASTMD2F
  0
LINE
  5
2480
  8
240
 10
-3.899999999999975
 20
-9.5804678230741445
 30
0.0
 11
-3.899999999999975
 21
-11.80000000000001
 31
0.0
1001
GRPNAME
1000
PASTMD61
  0
LINE
  5
2481
  8
243
 10
-8.5999999999999943
 20
-6.2500000000000258
 30
0.0
 11
-8.5000000000000249
 21
-6.2500000000000258
 31
0.0
1001
GRPNAME
1000
NBS8  02
  0
LINE
  5
2482
  8
243
 10
-10.50000000000002
 20
-5.2500000000000284
 30
0.0
 11
-10.50000000000002
 21
-6.2499999999999698
 31
0.0
1001
GRPNAME
1000
NBS8  02
  0
LINE
  5
2483
  8
241
 10
-3.900000000000003
 20
0.0
 30
0.0
 11
-3.900000000000003
 21
-9.5773785158124127
 31
0.0
1001
GRPNAME
1000
PASTMD61
  0
LINE
  5
2484
  8
243
 10
-6.900000000000003
 20
-5.3262395692966322
 30
0.0
 11
-8.5000000000000249
 21
-6.2500000000000258
 31
0.0
1001
GRPNAME
1000
NBS8  02
  0
LINE
  5
2485
  8
243
 10
-8.5999999999999943
 20
-5.2500000000000284
 30
0.0
 11
-8.5999999999999943
 21
-6.2500000000000258
 31
0.0
1001
GRPNAME
1000
NBS8  02
  0
LINE
  5
2486
  8
240
 10
0.0
 20
0.0
 30
0.0
 11
0.0
 21
-7.0353510167328173
 31
0.0
1001
GRPNAME
1000
PASTMD7H
  0
ARC
  5
2487
  8
240
 10
-26.299999999999979
 20
12.15
 30
0.0
 40
0.5
 50
89.999999989709835
 51
179.9999999897114
1001
GRPNAME
1000
PASTMD60
  0
LINE
  5
2488
  8
240
 10
-24.792963938332228
 20
12.5928932188134
 30
0.0
 11
-24.850070719518829
 21
12.65
 31
0.0
1001
GRPNAME
1000
PASTMD60
  0
LINE
  5
2489
  8
240
 10
-26.299999999999979
 20
12.65
 30
0.0
 11
-24.850070719518829
 21
12.65
 31
0.0
1001
GRPNAME
1000
PASTMD60
  0
ARC
  5
248A
  8
240
 10
-24.085857157145679
 20
13.30000000000001
 30
0.0
 40
1.0000000000000171
 50
224.9999999176591
 51
306.86989756349931
1001
GRPNAME
1000
PASTMD60
  0
LINE
  5
248B
  8
243
 10
-24.899999999999999
 20
-4.7364990121742192
 30
0.0
 11
-24.899999999999999
 21
4.7364990121742192
 31
0.0
1001
GRPNAME
1000
NBS8  02
  0
LINE
  5
248C
  8
240
 10
-26.799999999999979
 20
12.15
 30
0.0
 11
-26.799999999999979
 21
0.0
 31
0.0
1001
GRPNAME
1000
PASTMD60
  0
LINE
  5
248D
  8
241
 10
-24.850070719518829
 20
0.0
 30
0.0
 11
-24.850070719518829
 21
12.65
 31
0.0
1001
GRPNAME
1000
PASTMD60
  0
LINE
  5
248E
  8
241
 10
-23.485857157145709
 20
0.0
 30
0.0
 11
-23.485857157145709
 21
12.5
 31
0.0
1001
GRPNAME
1000
PASTMD60
  0
ARC
  5
248F
  8
240
 10
-26.299999999999979
 20
-12.15
 30
0.0
 40
0.5
 50
180.00000001286139
 51
270.0000000128631
1001
GRPNAME
1000
PASTMD61
  0
LINE
  5
2490
  8
240
 10
-24.792963938332228
 20
-12.5928932188134
 30
0.0
 11
-24.850070719518829
 21
-12.65
 31
0.0
1001
GRPNAME
1000
PASTMD61
  0
LINE
  5
2491
  8
240
 10
-26.299999999999979
 20
-12.65
 30
0.0
 11
-24.850070719518829
 21
-12.65
 31
0.0
1001
GRPNAME
1000
PASTMD61
  0
ARC
  5
2492
  8
240
 10
-24.085857157145679
 20
-13.30000000000001
 30
0.0
 40
1.0000000000000111
 50
53.130102494351171
 51
135.00000014019139
1001
GRPNAME
1000
PASTMD61
  0
LINE
  5
2493
  8
240
 10
-26.799999999999979
 20
-12.15
 30
0.0
 11
-26.799999999999979
 21
0.0
 31
0.0
1001
GRPNAME
1000
PASTMD61
  0
LINE
  5
2494
  8
241
 10
-23.485857157145709
 20
0.0
 30
0.0
 11
-23.485857157145709
 21
-12.5
 31
0.0
1001
GRPNAME
1000
PASTMD61
  0
LINE
  5
2495
  8
241
 10
-24.850070719518829
 20
0.0
 30
0.0
 11
-24.850070719518829
 21
-12.65
 31
0.0
1001
GRPNAME
1000
PASTMD61
  0
LINE
  5
2496
  8
243
 10
-10.50000000000002
 20
-6.2499999999999698
 30
0.0
 11
-24.899999999999999
 21
-4.7364990121742192
 31
0.0
1001
GRPNAME
1000
NBS8  02
  0
LINE
  5
2497
  8
240
 10
-23.485857157145709
 20
-12.5
 30
0.0
 11
-4.599999999999965
 21
-12.5
 31
0.0
1001
GRPNAME
1000
PASTMD61
  0
LINE
  5
2498
  8
245
 10
-27.642649067081599
 20
0.0
 30
0.0
 11
1.30000000000001
 21
0.0
 31
0.0
1001
GRPNAME
1000
PASTMD60
  0
LINE
  5
2499
  8
243
 10
-10.50000000000002
 20
6.2499999999999698
 30
0.0
 11
-24.899999999999999
 21
4.7364990121742192
 31
0.0
1001
GRPNAME
1000
NBS8
  0
LINE
  5
249A
  8
240
 10
-23.485857157145709
 20
12.5
 30
0.0
 11
-4.5999999999999934
 21
12.5
 31
0.0
1001
GRPNAME
1000
PASTMD60
  0
ENDBLK
  5
249C
  8
0
  0
BLOCK
  8
0
  2
*U10
 70
     1
 10
0.0
 20
0.0
 30
0.0
  3
*U10
  1

  0
TEXT
  5
24B9
  8
240
 62
    40
 10
9.6969100091830285
 20
-8.0142857142857178
 30
0.0
 40
3.0
  1
\U+2205
 50
90.0
  0
TEXT
  5
24BA
  8
240
 62
    40
 10
9.6969100091830285
 20
-5.3000000000000016
 30
0.0
 40
3.0
  1
5ü`5.5
 50
90.0
  0
ENDBLK
  5
24BC
  8
0
  0
ENDSEC
  0
SECTION
  2
ENTITIES
  0
LINE
  5
226D
  8
250
 10
-4.1000000010992306
 20
-12.5
 30
0.0
 11
21.999999999999989
 21
-12.5
 31
0.0
  0
LINE
  5
226E
  8
250
 10
-4.0999999999999934
 20
12.5
 30
0.0
 11
22.0
 21
12.499999999999989
 31
0.0
  0
LINE
  5
226F
  8
250
 10
20.999999999999989
 20
-10.27
 30
0.0
 11
21.0
 21
10.269999999999991
 31
0.0
  0
TEXT
  5
2273
  8
250
 10
19.999999999999989
 20
-4.0714285714285747
 30
0.0
 40
3.0
  1
\U+2205
 50
90.0
1001
ACAD
1000
MTEXTBEGIN
1070
    73
1070
     1
1070
    44
1040
1.0
1070
    74
1070
     0
1000
MTEXTEND
  0
TEXT
  5
2274
  8
250
 10
19.999999999999989
 20
-1.3571428571428621
 30
0.0
 40
3.0
  1
25
 50
90.0
1001
ACAD
1000
MTEXTBEGIN
1070
    73
1070
     1
1070
    44
1040
1.0
1070
    74
1070
     0
1000
MTEXTEND
  0
LINE
  5
2275
  8
250
 10
20.62833333333333
 20
10.269999999999991
 30
0.0
 11
21.0
 21
12.499999999999989
 31
0.0
  0
LINE
  5
2276
  8
250
 10
21.37166666666667
 20
10.269999999999991
 30
0.0
 11
21.0
 21
12.499999999999989
 31
0.0
  0
LINE
  5
2277
  8
250
 10
21.0
 20
12.499999999999989
 30
0.0
 11
21.0
 21
10.269999999999991
 31
0.0
  0
LINE
  5
2278
  8
250
 10
21.371666666666648
 20
-10.27
 30
0.0
 11
20.999999999999989
 21
-12.5
 31
0.0
  0
LINE
  5
2279
  8
250
 10
20.62833333333332
 20
-10.27
 30
0.0
 11
20.999999999999989
 21
-12.5
 31
0.0
  0
LINE
  5
227A
  8
250
 10
20.999999999999989
 20
-12.5
 30
0.0
 11
20.999999999999989
 21
-10.27
 31
0.0
  0
TEXT
  5
2283
  8
243
 10
-21.952380952380949
 20
35.0
 30
0.0
 40
5.0
  1
MPS8-05055
  7
YOKO
1001
ITEMNAME
1000
DI010
1001
ACAD
1000
MTEXTBEGIN
1070
    73
1070
     1
1070
    44
1040
1.0
1070
    74
1070
     0
1000
MTEXTEND
  0
LINE
  5
244D
  8
250
 10
-6.4000000000000021
 20
2.75
 30
0.0
 11
11.69691000918303
 21
2.7499999999999938
 31
0.0
  0
LINE
  5
244E
  8
250
 10
-6.4000000000000021
 20
-2.75
 30
0.0
 11
11.69691000918303
 21
-2.7500000000000049
 31
0.0
  0
LINE
  5
244F
  8
250
 10
10.69691000918303
 20
4.9799999999999942
 30
0.0
 11
10.69691000918303
 21
7.209999999999992
 31
0.0
  0
LINE
  5
2450
  8
250
 10
10.69691000918302
 20
-4.9800000000000031
 30
0.0
 11
10.69691000918302
 21
-7.2100000000000026
 31
0.0
  0
LINE
  5
2451
  8
250
 10
10.69691000918303
 20
2.7499999999999951
 30
0.0
 11
10.69691000918303
 21
-2.750000000000004
 31
0.0
  0
TEXT
  5
2455
  8
250
 10
9.6969100091830285
 20
-8.0142857142857178
 30
0.0
 40
3.0
  1
\U+2205
 50
90.0
  0
TEXT
  5
2456
  8
250
 10
9.6969100091830285
 20
-5.3000000000000016
 30
0.0
 40
3.0
  1
5ü`5.5
 50
90.0
  0
LINE
  5
2457
  8
250
 10
10.325243342516361
 20
-4.9800000000000031
 30
0.0
 11
10.69691000918303
 21
-2.750000000000004
 31
0.0
  0
LINE
  5
2458
  8
250
 10
11.068576675849689
 20
-4.9800000000000031
 30
0.0
 11
10.69691000918303
 21
-2.750000000000004
 31
0.0
  0
LINE
  5
2459
  8
250
 10
10.69691000918303
 20
-2.750000000000004
 30
0.0
 11
10.69691000918303
 21
-4.9800000000000031
 31
0.0
  0
LINE
  5
245A
  8
250
 10
11.068576675849689
 20
4.9799999999999951
 30
0.0
 11
10.69691000918303
 21
2.7499999999999951
 31
0.0
  0
LINE
  5
245B
  8
250
 10
10.325243342516361
 20
4.9799999999999951
 30
0.0
 11
10.69691000918303
 21
2.7499999999999951
 31
0.0
  0
LINE
  5
245C
  8
250
 10
10.69691000918303
 20
2.7499999999999951
 30
0.0
 11
10.69691000918303
 21
4.9799999999999951
 31
0.0
  0
INSERT
  5
249E
  8
240
  2
A$C21F973FA
 10
0.0
 20
0.0
 30
0.0
  0
VIEWPORT
  5
22
 67
     1
  8
0
 10
261.51769911504419
 20
148.5
 30
0.0
 40
523.0353982300885
 41
297.0
 68
     1
 69
     1
1001
ACAD
1000
MVIEW
1002
{
1070
    16
1010
0.0
1020
0.0
1030
0.0
1010
0.0
1020
0.0
1030
1.0
1040
0.0
1040
297.0
1040
261.51769911504419
1040
148.5
1040
50.0
1040
0.0
1040
0.0
1070
     0
1070
   100
1070
     1
1070
     1
1070
     0
1070
     0
1070
     0
1070
     0
1040
0.0
1040
0.0
1040
0.0
1040
1.0
1040
1.0
1040
10.0
1040
10.0
1070
     0
1002
{
1002
}
1002
}
1001
GENIUS_GENOBJ-N-SDF_13
1002
{
1000
OWNER
1000
GEN
1002
}
1001
GENIUS_GENODEF_13
1002
{
1000
HIER
1070
     0
1002
}
1002
{
1000
MANEDIT
1070
     0
1002
}
1002
{
1000
NOSEL
1070
     0
1002
}
1002
{
1000
BEHIND
1070
     0
1002
}
1002
{
1000
OTHER
1070
     0
1002
}
1002
{
1000
REACTOR
1002
}
1001
GENIUS_GENSCREG_15
1000
PF
1040
1.0
1000
DF
1040
1.0
1000
MIN
1011
0.0
1021
-2.9771314147148058E+138
1031
0.0
1021
0.0
1031
0.0
1000
MAX
1011
523.0353982300885
1021
-2.9771314147148058E+138
1031
0.0
1021
297.0
1031
0.0
1000
FLAGS
1070
     2
  0
ENDSEC
  0
EOF
