  0
SECTION
  2
HEADER
  9
$ACADVER
  1
AC1009
  9
$INSBASE
 10
0.0
 20
0.0
 30
0.0
  9
$EXTMIN
 10
-23.9194629084094
 20
-10.266995780147621
 30
-0.0000000349181948
  9
$EXTMAX
 10
27.59374678829613
 20
40.012143827010853
 30
0.0000000814935747
  9
$LIMMIN
 10
0.0
 20
0.0
  9
$LIMMAX
 10
297.0
 20
210.0
  9
$ORTHOMODE
 70
     0
  9
$REGENMODE
 70
     1
  9
$FILLMODE
 70
     1
  9
$QTEXTMODE
 70
     0
  9
$MIRRTEXT
 70
     1
  9
$DRAGMODE
 70
     2
  9
$LTSCALE
 40
10.0
  9
$OSMODE
 70
   639
  9
$ATTMODE
 70
     1
  9
$TEXTSIZE
 40
3.0
  9
$TRACEWID
 40
1.0
  9
$TEXTSTYLE
  7
YOKO
  9
$CLAYER
  8
240
  9
$CELTYPE
  6
BYLAYER
  9
$CECOLOR
 62
   256
  9
$DIMSCALE
 40
1.0
  9
$DIMASZ
 40
2.2299999999999991
  9
$DIMEXO
 40
0.5
  9
$DIMDLI
 40
2.5
  9
$DIMRND
 40
0.0
  9
$DIMDLE
 40
0.0
  9
$DIMEXE
 40
1.0
  9
$DIMTP
 40
0.0
  9
$DIMTM
 40
0.0
  9
$DIMTXT
 40
3.0
  9
$DIMCEN
 40
0.0
  9
$DIMTSZ
 40
0.0
  9
$DIMTOL
 70
     0
  9
$DIMLIM
 70
     0
  9
$DIMTIH
 70
     0
  9
$DIMTOH
 70
     0
  9
$DIMSE1
 70
     0
  9
$DIMSE2
 70
     0
  9
$DIMTAD
 70
     3
  9
$DIMZIN
 70
     8
  9
$DIMBLK
  1
OPEN
  9
$DIMASO
 70
     1
  9
$DIMSHO
 70
     1
  9
$DIMPOST
  1

  9
$DIMAPOST
  1

  9
$DIMALT
 70
     0
  9
$DIMALTD
 70
     2
  9
$DIMALTF
 40
25.399999999999999
  9
$DIMLFAC
 40
1.0
  9
$DIMTOFL
 70
     1
  9
$DIMTVP
 40
0.0
  9
$DIMTIX
 70
     0
  9
$DIMSOXD
 70
     0
  9
$DIMSAH
 70
     0
  9
$DIMBLK1
  1

  9
$DIMBLK2
  1

  9
$DIMSTYLE
  2
BIGT
  9
$DIMCLRD
 70
   256
  9
$DIMCLRE
 70
   256
  9
$DIMCLRT
 70
    40
  9
$DIMTFAC
 40
1.0
  9
$DIMGAP
 40
1.0
  9
$LUNITS
 70
     2
  9
$LUPREC
 70
     2
  9
$SKETCHINC
 40
1.0
  9
$FILLETRAD
 40
0.0
  9
$AUNITS
 70
     0
  9
$AUPREC
 70
     3
  9
$MENU
  1
.
  9
$ELEVATION
 40
0.0
  9
$PELEVATION
 40
0.0
  9
$THICKNESS
 40
0.0
  9
$LIMCHECK
 70
     0
  9
$BLIPMODE
 70
     0
  9
$CHAMFERA
 40
10.0
  9
$CHAMFERB
 40
10.0
  9
$SKPOLY
 70
     0
  9
$TDCREATE
 40
2452880.4648967362
  9
$TDUPDATE
 40
2453612.4697643518
  9
$TDINDWG
 40
0.0431058102
  9
$TDUSRTIMER
 40
0.0431058102
  9
$USRTIMER
 70
     1
  9
$ANGBASE
 50
0.0
  9
$ANGDIR
 70
     0
  9
$PDMODE
 70
    35
  9
$PDSIZE
 40
2.0
  9
$PLINEWID
 40
0.0
  9
$COORDS
 70
     2
  9
$SPLFRAME
 70
     0
  9
$SPLINETYPE
 70
     6
  9
$SPLINESEGS
 70
     8
  9
$ATTDIA
 70
     1
  9
$ATTREQ
 70
     1
  9
$HANDLING
 70
     1
  9
$HANDSEED
  5
2174
  9
$SURFTAB1
 70
     6
  9
$SURFTAB2
 70
     6
  9
$SURFTYPE
 70
     6
  9
$SURFU
 70
     6
  9
$SURFV
 70
     6
  9
$UCSNAME
  2

  9
$UCSORG
 10
0.0
 20
0.0
 30
0.0
  9
$UCSXDIR
 10
1.0
 20
0.0
 30
0.0
  9
$UCSYDIR
 10
0.0
 20
1.0
 30
0.0
  9
$PUCSNAME
  2

  9
$PUCSORG
 10
0.0
 20
0.0
 30
0.0
  9
$PUCSXDIR
 10
1.0
 20
0.0
 30
0.0
  9
$PUCSYDIR
 10
0.0
 20
1.0
 30
0.0
  9
$USERI1
 70
     1
  9
$USERI2
 70
     0
  9
$USERI3
 70
     0
  9
$USERI4
 70
     0
  9
$USERI5
 70
     0
  9
$USERR1
 40
0.0
  9
$USERR2
 40
0.0
  9
$USERR3
 40
0.0
  9
$USERR4
 40
0.0
  9
$USERR5
 40
0.0
  9
$WORLDVIEW
 70
     1
  9
$SHADEDGE
 70
     3
  9
$SHADEDIF
 70
    70
  9
$TILEMODE
 70
     1
  9
$MAXACTVP
 70
    16
  9
$PLIMCHECK
 70
     0
  9
$PEXTMIN
 10
1.0000000000000000E+020
 20
1.0000000000000000E+020
 30
1.0000000000000000E+020
  9
$PEXTMAX
 10
-1.0000000000000000E+020
 20
-1.0000000000000000E+020
 30
-1.0000000000000000E+020
  9
$PLIMMIN
 10
0.0
 20
0.0
  9
$PLIMMAX
 10
420.0
 20
297.0
  9
$UNITMODE
 70
     0
  9
$VISRETAIN
 70
     0
  9
$PLINEGEN
 70
     0
  9
$PSLTSCALE
 70
     1
  0
ENDSEC
  0
SECTION
  2
TABLES
  0
TABLE
  2
VPORT
 70
    63
  0
VPORT
  2
*ACTIVE
 70
     0
 10
0.0
 20
0.0
 11
1.0
 21
1.0
 12
1.8371419399433651
 22
14.872574023431611
 13
0.0
 23
0.0
 14
7.0
 24
7.0
 15
7.0
 25
7.0
 16
0.0
 26
0.0
 36
1.0
 17
0.0
 27
0.0
 37
0.0
 40
50.579313574962399
 41
1.267928286852589
 42
50.0
 43
0.0
 44
0.0
 50
0.0
 51
0.0
 71
     0
 72
  2000
 73
     1
 74
     0
 75
     0
 76
     0
 77
     0
 78
     0
  0
ENDTAB
  0
TABLE
  2
LTYPE
 70
    16
  0
LTYPE
  2
CONTINUOUS
 70
     0
  3
Solid line
 72
    65
 73
     0
 40
0.0
  0
LTYPE
  2
CENTER2
 70
     0
  3
___ _ ___ _ ___ _ ___ _ ___ _ ___ _ ___ _ ___ _
 72
    65
 73
     4
 40
1.125
 49
0.75
 49
-0.125
 49
0.125
 49
-0.125
  0
LTYPE
  2
HIDDEN2
 70
     0
  3
_ _ _ _ _ _ _ _ _ _ _ _ _ _ _ _ _ _ _ _ _ _ _ _
 72
    65
 73
     2
 40
0.1875
 49
0.125
 49
-0.0625
  0
LTYPE
  2
HIDDEN
 70
     0
  3
Hidden __ __ __ __ __ __ __ __ __ __ __ __ __ _
 72
    65
 73
     2
 40
9.5249999999999986
 49
6.3499999999999988
 49
-3.1749999999999989
  0
LTYPE
  2
PHANTOM2
 70
     0
  3
Phantom (.5x) ___ _ _ ___ _ _ ___ _ _ ___ _ _
 72
    65
 73
     6
 40
31.75
 49
15.875
 49
-3.1749999999999989
 49
3.1749999999999989
 49
-3.1749999999999989
 49
3.1749999999999989
 49
-3.1749999999999989
  0
LTYPE
  2
CENTER
 70
     0
  3
Center ____ _ ____ _ ____ _ ____ _ ____ _ ____
 72
    65
 73
     4
 40
50.799999999999997
 49
31.75
 49
-6.3499999999999988
 49
6.3499999999999988
 49
-6.3499999999999988
  0
LTYPE
  2
AM_ISO02W050
 70
     0
  3
__ __ __ __ __ __ __ __ __ __ __ __ __ __ __
 72
    65
 73
     2
 40
7.5
 49
6.0
 49
-1.5
  0
LTYPE
  2
AM_ISO08W050
 70
     0
  3
____ . ____ . ____ . ____ . ____ . ____ . ____
 72
    65
 73
     4
 40
18.0
 49
12.0
 49
-1.5
 49
3.0
 49
-1.5
  0
LTYPE
  2
AM_ISO09W050
 70
     0
  3
_____ . . _____ . . _____ . . ____ .. ____
 72
    65
 73
     6
 40
22.5
 49
12.0
 49
-1.5
 49
3.0
 49
-1.5
 49
3.0
 49
-1.5
  0
LTYPE
  2
AMCONSTR
 70
     0
  3
_______________________
 72
    65
 73
     2
 40
9999.0
 49
9999.0
 49
0.0
  0
LTYPE
  2
AM_ISO08W050X2
 70
     0
  3
__ . __ . __ . __ . __ . __
 72
    65
 73
     4
 40
9.0
 49
6.0
 49
-0.75
 49
1.5
 49
-0.75
  0
LTYPE
  2
AM_ISO02W050X2
 70
     0
  3
 _ _ _ _ _ _ _ _ _ _ _ _
 72
    65
 73
     2
 40
3.75
 49
3.0
 49
-0.75
  0
LTYPE
  2
AMZIGZAG
 70
     0
  3
/\/-/\/-/\/-/\/-/\/-/\/
 72
    65
 73
     2
 40
11.0001
 49
0.0001
 49
-11.0
  0
LTYPE
  2
ACISOWELD
 70
     0
  3
_ _ _ _ _
 72
    65
 73
     2
 40
2.0
 49
2.0
 49
-1.0
  0
LTYPE
  2
ACISOTGB
 70
     0
  3
__ . . __ . .
 72
    65
 73
     6
 40
9.0
 49
4.0
 49
-1.0
 49
1.0
 49
-1.0
 49
1.0
 49
-1.0
  0
LTYPE
  2
ACISOTGL
 70
     0
  3
_ _ _ _ _
 72
    65
 73
     2
 40
3.0
 49
2.0
 49
-1.0
  0
ENDTAB
  0
TABLE
  2
LAYER
 70
     8
  0
LAYER
  2
0
 70
     0
 62
     7
  6
CONTINUOUS
  0
LAYER
  2
240
 70
     0
 62
     4
  6
CONTINUOUS
  0
LAYER
  2
241
 70
     0
 62
   211
  6
CONTINUOUS
  0
LAYER
  2
243
 70
     0
 62
   211
  6
HIDDEN2
  0
LAYER
  2
245
 70
     0
 62
     2
  6
CENTER2
  0
LAYER
  2
250
 70
     0
 62
     3
  6
CONTINUOUS
  0
LAYER
  2
DEFPOINTS
 70
     0
 62
     7
  6
CONTINUOUS
  0
ENDTAB
  0
TABLE
  2
STYLE
 70
     5
  0
STYLE
  2
STANDARD
 70
     0
 40
0.0
 41
1.0
 50
0.0
 71
     0
 42
3.0
  3
romans.shx
  4
BIGFONT.SHX
  0
STYLE
  2
YOKO
 70
     0
 40
0.0
 41
1.0
 50
0.0
 71
     0
 42
3.0
  3
romans.shx
  4
extfont.shx
  0
STYLE
  2

 70
     1
 40
0.0
 41
1.0
 50
0.0
 71
     0
 42
3.0
  3
ltypeshp.shx
  4

  0
STYLE
  2
ACISOTS
 70
     0
 40
1.0
 41
1.0
 50
0.0
 71
     0
 42
3.0
  3
isocp.shx
  4
extfont.shx
  0
STYLE
  2
ACISOGDT
 70
     0
 40
0.0
 41
1.0
 50
0.0
 71
     0
 42
3.0
  3
amgdt.shx
  4

  0
ENDTAB
  0
TABLE
  2
VIEW
 70
     0
  0
ENDTAB
  0
TABLE
  2
UCS
 70
     0
  0
ENDTAB
  0
TABLE
  2
APPID
 70
    17
  0
APPID
  2
ACAD
 70
     0
  0
APPID
  2
GLOBAL
 70
     0
  0
APPID
  2
DETAIL
 70
     0
  0
APPID
  2
GRPNAME
 70
     0
  0
APPID
  2
GPARA
 70
     0
  0
APPID
  2
ITEMNAME
 70
     0
  0
APPID
  2
MCAD_NO_VIS
 70
     0
  0
APPID
  2
ACAD_TEMP_GRAPHIC
 70
     0
  0
APPID
  2
AD_DRAW
 70
     0
  0
APPID
  2
ACATTRIBSERVICES
 70
     0
  0
APPID
  2
DESIGNERASSEMBLIES
 70
     0
  0
APPID
  2
ACADM_DIM_EDIT
 70
     0
  0
APPID
  2
AMDT_DM_ADJ
 70
     0
  0
APPID
  2
GENIUS_GENSCREG_15
 70
     0
  0
APPID
  2
GENIUS_GENOBJ-N-SDF_13
 70
     0
  0
APPID
  2
GENIUS_GENODEF_13
 70
     0
  0
APPID
  2
GENIUS_GENDTOL_13
 70
     0
  0
ENDTAB
  0
TABLE
  2
DIMSTYLE
 70
     9
  0
DIMSTYLE
  2
STANDARD
 70
     0
  3

  4

  5

  6

  7

 40
1.0
 41
2.0
 42
2.0
 43
3.75
 44
2.0
 45
0.0
 46
0.0
 47
0.0
 48
0.0
140
4.0
141
0.09
142
0.0
143
25.399999999999999
144
1.0
145
0.0
146
1.0
147
1.0
 71
     0
 72
     0
 73
     1
 74
     1
 75
     0
 76
     0
 77
     0
 78
     8
170
     0
171
     2
172
     0
173
     1
174
     0
175
     0
176
   256
177
   256
178
   256
  0
DIMSTYLE
  2
BIGT
 70
     0
  3

  4

  5
OPEN
  6

  7

 40
1.0
 41
2.2299999999999991
 42
0.5
 43
2.5
 44
1.0
 45
0.0
 46
0.0
 47
0.0
 48
0.0
140
3.5
141
0.0
142
0.0
143
25.399999999999999
144
1.0
145
0.0
146
1.0
147
1.0
 71
     0
 72
     0
 73
     0
 74
     0
 75
     0
 76
     0
 77
     3
 78
     9
170
     0
171
     2
172
     1
173
     0
174
     0
175
     0
176
   256
177
   256
178
    40
  0
DIMSTYLE
  2
AM_ISO
 70
     0
  3

  4
"
  5

  6

  7

 40
1.0
 41
2.5
 42
1.0
 43
10.0
 44
1.0
 45
0.0
 46
0.0
 47
0.1
 48
0.1
140
3.5
141
0.0
142
0.0
143
0.0393701
144
1.0
145
0.0
146
0.71
147
1.5
 71
     0
 72
     0
 73
     0
 74
     0
 75
     0
 76
     0
 77
     1
 78
     8
170
     0
171
     2
172
     1
173
     0
174
     0
175
     0
176
   256
177
   256
178
     2
  0
DIMSTYLE
  2
AM_ISO$3
 70
     0
  3

  4
"
  5

  6

  7

 40
1.0
 41
2.5
 42
1.0
 43
10.0
 44
1.0
 45
0.0
 46
0.0
 47
0.1
 48
0.1
140
3.5
141
0.0
142
0.0
143
0.0393701
144
1.0
145
0.0
146
0.71
147
1.5
 71
     0
 72
     0
 73
     0
 74
     1
 75
     0
 76
     0
 77
     1
 78
     8
170
     0
171
     2
172
     0
173
     0
174
     0
175
     0
176
   256
177
   256
178
     2
  0
DIMSTYLE
  2
AM_ISO$4
 70
     0
  3

  4
"
  5

  6

  7

 40
1.0
 41
2.5
 42
1.0
 43
10.0
 44
1.0
 45
0.0
 46
0.0
 47
0.1
 48
0.1
140
3.5
141
0.0
142
0.0
143
0.0393701
144
1.0
145
0.0
146
0.71
147
1.5
 71
     0
 72
     0
 73
     0
 74
     1
 75
     0
 76
     0
 77
     1
 78
     8
170
     0
171
     2
172
     0
173
     0
174
     0
175
     0
176
   256
177
   256
178
     2
  0
DIMSTYLE
  2
AM_ISO$6
 70
     0
  3

  4
"
  5

  6

  7

 40
1.0
 41
2.5
 42
1.0
 43
10.0
 44
1.0
 45
0.0
 46
0.0
 47
0.1
 48
0.1
140
3.5
141
0.0
142
0.0
143
0.0393701
144
1.0
145
0.0
146
0.71
147
1.5
 71
     0
 72
     0
 73
     0
 74
     0
 75
     0
 76
     0
 77
     0
 78
     8
170
     0
171
     2
172
     1
173
     0
174
     0
175
     0
176
   256
177
   256
178
     2
  0
DIMSTYLE
  2
AM_ISO$7
 70
     0
  3

  4
"
  5

  6

  7

 40
1.0
 41
2.5
 42
1.0
 43
10.0
 44
1.0
 45
0.0
 46
0.0
 47
0.1
 48
0.1
140
5.0
141
0.0
142
0.0
143
0.0393701
144
1.0
145
0.0
146
0.71
147
1.5
 71
     0
 72
     0
 73
     0
 74
     0
 75
     0
 76
     0
 77
     1
 78
     8
170
     0
171
     2
172
     1
173
     0
174
     0
175
     0
176
   256
177
   256
178
     2
  0
DIMSTYLE
  2
AM_ISO$SF
 70
     0
  3

  4
"
  5

  6

  7

 40
1.0
 41
2.5
 42
1.0
 43
10.0
 44
1.0
 45
0.0
 46
0.0
 47
0.1
 48
0.1
140
3.5
141
0.0
142
0.0
143
0.0393701
144
1.0
145
0.0
146
0.71
147
1.5
 71
     0
 72
     0
 73
     0
 74
     0
 75
     1
 76
     1
 77
     1
 78
     8
170
     0
171
     2
172
     1
173
     0
174
     0
175
     0
176
   256
177
   256
178
     2
  0
DIMSTYLE
  2
AM_ISO$SH
 70
     0
  3

  4
"
  5

  6
GENAXEH
  7

 40
1.0
 41
2.5
 42
1.0
 43
10.0
 44
1.0
 45
0.0
 46
0.0
 47
0.1
 48
0.1
140
3.5
141
0.0
142
0.0
143
0.0393701
144
2.0
145
0.0
146
0.71
147
1.5
 71
     0
 72
     0
 73
     0
 74
     0
 75
     1
 76
     1
 77
     1
 78
     8
170
     0
171
     2
172
     1
173
     1
174
     0
175
     0
176
   256
177
   256
178
     2
  0
ENDTAB
  0
ENDSEC
  0
SECTION
  2
BLOCKS
  0
BLOCK
  8
0
  2
$MODEL_SPACE
 70
     0
 10
0.0
 20
0.0
 30
0.0
  3
$MODEL_SPACE
  1

  0
ENDBLK
  5
1C
  8
0
  0
BLOCK
 67
     1
  8
0
  2
$PAPER_SPACE
 70
     0
 10
0.0
 20
0.0
 30
0.0
  3
$PAPER_SPACE
  1

  0
ENDBLK
  5
19
 67
     1
  8
0
  0
BLOCK
  8
0
  2
_OPEN
 70
     0
 10
0.0
 20
0.0
 30
0.0
  3
_OPEN
  1

  0
LINE
  5
595
  8
0
  6
BYBLOCK
 62
     0
 10
-1.0
 20
0.1666666666666666
 30
0.0
 11
0.0
 21
0.0
 31
0.0
  0
LINE
  5
596
  8
0
  6
BYBLOCK
 62
     0
 10
-1.0
 20
-0.1666666666666666
 30
0.0
 11
0.0
 21
0.0
 31
0.0
  0
LINE
  5
597
  8
0
  6
BYBLOCK
 62
     0
 10
0.0
 20
0.0
 30
0.0
 11
-1.0
 21
0.0
 31
0.0
  0
ENDBLK
  5
599
  8
0
  0
BLOCK
  8
0
  2
GENAXEH
 70
     0
 10
0.0
 20
0.0
 30
0.0
  3
GENAXEH
  1

  0
LINE
  5
1FFB
  8
0
 10
-1.0
 20
0.0
 30
0.0
 11
1.0
 21
0.0
 31
0.0
  0
ENDBLK
  5
1FFD
  8
0
  0
BLOCK
  8
0
  2
A$C7F284475
 70
     0
 10
0.0
 20
0.0
 30
0.0
  3
A$C7F284475
  1

  0
LINE
  5
2120
  8
243
 10
-19.29999999999994
 20
-2.75
 30
0.0
 11
-5.3000000000000123
 21
-2.75
 31
0.0
1001
GRPNAME
1000
PASTMD5T
  0
LINE
  5
2121
  8
243
 10
-19.29999999999994
 20
2.75
 30
0.0
 11
-5.3000000000000123
 21
2.75
 31
0.0
1001
GRPNAME
1000
PASTMD5T
  0
LINE
  5
2122
  8
240
 10
-2.30000000000001
 20
7.3539260074561241
 30
0.0
 11
-2.30000000000001
 21
9.3000000000000114
 31
0.0
1001
GRPNAME
1000
PASTMD5T
  0
ARC
  5
2123
  8
240
 10
-2.3320614232729309
 20
7.156512570381266
 30
0.0
 40
0.1999999999999964
 50
71.78513326557011
 51
80.775277203626274
1001
GRPNAME
1000
PASTMD23
  0
ARC
  5
2124
  8
240
 10
-3.0
 20
9.3000000000000114
 30
0.0
 40
0.7000000000000171
 50
359.9999999871377
 51
89.999999987132028
1001
GRPNAME
1000
PASTMD5T
  0
LINE
  5
2125
  8
240
 10
0.0
 20
6.3000125506247713
 30
0.0
 11
-0.0181016248090487
 21
6.3675687341117273
 31
0.0
1001
GRPNAME
1000
PASTMD23
  0
ARC
  5
2126
  8
240
 10
-0.5010645379535959
 20
6.2381592115604558
 30
0.0
 40
0.5000000000000157
 50
14.99999982774294
 51
71.785133139047815
1001
GRPNAME
1000
PASTMD23
  0
LINE
  5
2127
  8
240
 10
-0.3447738380652368
 20
6.7131047001466859
 30
0.0
 11
-2.2695451433175999
 21
7.3464907658157568
 31
0.0
1001
GRPNAME
1000
PASTMD23
  0
LINE
  5
2128
  8
240
 10
0.0
 20
0.0
 30
0.0
 11
0.0
 21
6.3000125506247713
 31
0.0
1001
GRPNAME
1000
PASTMD23
  0
LINE
  5
2129
  8
241
 10
-2.30000000000001
 20
0.0
 30
0.0
 11
-2.30000000000001
 21
7.3539260074561383
 31
0.0
1001
GRPNAME
1000
PASTMD5T
  0
LINE
  5
212A
  8
243
 10
-7.8999999999999773
 20
4.0999999999999934
 30
0.0
 11
-7.8999999999999773
 21
4.7499999999999707
 31
0.0
1001
GRPNAME
1000
NBS6
  0
LINE
  5
212B
  8
243
 10
-6.599999999999965
 20
4.0999999999999934
 30
0.0
 11
-6.6000000000000218
 21
4.7499999999999707
 31
0.0
1001
GRPNAME
1000
NBS6
  0
LINE
  5
212C
  8
243
 10
-6.4999999999999432
 20
4.7500000000000284
 30
0.0
 11
-5.2999999999999536
 21
4.0571796769723658
 31
0.0
1001
GRPNAME
1000
NBS6
  0
LINE
  5
212D
  8
243
 10
-7.8999999999999773
 20
4.0999999999999934
 30
0.0
 11
-6.599999999999965
 21
4.0999999999999934
 31
0.0
1001
GRPNAME
1000
NBS6
  0
LINE
  5
212E
  8
243
 10
-6.6000000000000218
 20
4.7499999999999707
 30
0.0
 11
-6.4999999999999432
 21
4.7499999999999707
 31
0.0
1001
GRPNAME
1000
NBS6
  0
LINE
  5
212F
  8
243
 10
-7.8999999999999773
 20
-4.0999999999999934
 30
0.0
 11
-7.8999999999999773
 21
-4.7499999999999707
 31
0.0
1001
GRPNAME
1000
NBS6  02
  0
LINE
  5
2130
  8
243
 10
-6.599999999999965
 20
-4.0999999999999934
 30
0.0
 11
-6.6000000000000218
 21
-4.7499999999999707
 31
0.0
1001
GRPNAME
1000
NBS6  02
  0
LINE
  5
2131
  8
243
 10
-6.4999999999999432
 20
-4.7500000000000284
 30
0.0
 11
-5.2999999999999536
 21
-4.0571796769723658
 31
0.0
1001
GRPNAME
1000
NBS6  02
  0
LINE
  5
2132
  8
243
 10
-6.6000000000000218
 20
-4.7499999999999707
 30
0.0
 11
-6.4999999999999432
 21
-4.7499999999999707
 31
0.0
1001
GRPNAME
1000
NBS6  02
  0
LINE
  5
2133
  8
243
 10
-7.8999999999999773
 20
-4.0999999999999934
 30
0.0
 11
-6.599999999999965
 21
-4.0999999999999934
 31
0.0
1001
GRPNAME
1000
NBS6  02
  0
LINE
  5
2134
  8
243
 10
-5.3000000000000123
 20
-4.0571796769724227
 30
0.0
 11
-5.3000000000000123
 21
4.057179676972396
 31
0.0
1001
GRPNAME
1000
NBS6  02
  0
LINE
  5
2135
  8
240
 10
0.0
 20
-6.3000125506247846
 30
0.0
 11
-0.0181016248090487
 21
-6.3675687341117273
 31
0.0
1001
GRPNAME
1000
PASTMD25
  0
ARC
  5
2136
  8
240
 10
-0.5010645379535959
 20
-6.2381592115604558
 30
0.0
 40
0.5000000000000191
 50
288.2148668609521
 51
345.00000017225722
1001
GRPNAME
1000
PASTMD25
  0
LINE
  5
2137
  8
240
 10
-2.30000000000001
 20
-7.3539260074561241
 30
0.0
 11
-2.30000000000001
 21
-9.3000000000000114
 31
0.0
1001
GRPNAME
1000
PASTMD5V
  0
ARC
  5
2138
  8
240
 10
-2.3320614232729309
 20
-7.156512570381266
 30
0.0
 40
0.1999999999999896
 50
279.22472279637373
 51
288.21486673442979
1001
GRPNAME
1000
PASTMD25
  0
LINE
  5
2139
  8
240
 10
-0.3447738380652368
 20
-6.7131047001466859
 30
0.0
 11
-2.2695451433175999
 21
-7.3464907658157568
 31
0.0
1001
GRPNAME
1000
PASTMD25
  0
ARC
  5
213A
  8
240
 10
-3.0
 20
-9.3000000000000114
 30
0.0
 40
0.7000000000000171
 50
269.99999991002682
 51
359.99999991002107
1001
GRPNAME
1000
PASTMD5V
  0
LINE
  5
213B
  8
240
 10
0.0
 20
0.0
 30
0.0
 11
0.0
 21
-6.3000125506247846
 31
0.0
1001
GRPNAME
1000
PASTMD25
  0
LINE
  5
213C
  8
241
 10
-2.30000000000001
 20
0.0
 30
0.0
 11
-2.30000000000001
 21
-7.3539260074561383
 31
0.0
1001
GRPNAME
1000
PASTMD5V
  0
LINE
  5
213D
  8
240
 10
-22.399877929687491
 20
10.150000000000031
 30
0.0
 11
-20.949948649206291
 21
10.150000000000031
 31
0.0
1001
GRPNAME
1000
PASTMD5T
  0
ARC
  5
213E
  8
240
 10
-22.399877929687491
 20
9.6500000000000341
 30
0.0
 40
0.5
 50
89.999999984563985
 51
179.9999999845688
1001
GRPNAME
1000
PASTMD5T
  0
LINE
  5
213F
  8
240
 10
-20.892841868019708
 20
10.092893218813449
 30
0.0
 11
-20.949948649206291
 21
10.150000000000031
 31
0.0
1001
GRPNAME
1000
PASTMD5T
  0
ARC
  5
2140
  8
240
 10
-20.185735086833219
 20
10.80000000000001
 30
0.0
 40
0.9999999999999779
 50
224.99999980195801
 51
306.86989744780061
1001
GRPNAME
1000
PASTMD5T
  0
LINE
  5
2141
  8
240
 10
-22.899877929687491
 20
9.6500000000000341
 30
0.0
 11
-22.899877929687491
 21
0.0
 31
0.0
1001
GRPNAME
1000
PASTMD5T
  0
LINE
  5
2142
  8
241
 10
-19.585735086833221
 20
0.0
 30
0.0
 11
-19.585735086833221
 21
10.0
 31
0.0
1001
GRPNAME
1000
PASTMD5T
  0
LINE
  5
2143
  8
241
 10
-20.949948649206291
 20
0.0
 30
0.0
 11
-20.949948649206291
 21
10.150000000000031
 31
0.0
1001
GRPNAME
1000
PASTMD5T
  0
LINE
  5
2144
  8
243
 10
-19.29999999999994
 20
3.5518117179712458
 30
0.0
 11
-19.29999999999994
 21
-3.5518117179712458
 31
0.0
1001
GRPNAME
1000
NBS6  02
  0
ARC
  5
2145
  8
240
 10
-20.185735086833219
 20
-10.80000000000001
 30
0.0
 40
0.9999999999999744
 50
53.130102610049832
 51
135.0000002558925
1001
GRPNAME
1000
PASTMD5V
  0
LINE
  5
2146
  8
240
 10
-22.399877929687491
 20
-10.150000000000031
 30
0.0
 11
-20.949948649206291
 21
-10.150000000000031
 31
0.0
1001
GRPNAME
1000
PASTMD5V
  0
ARC
  5
2147
  8
240
 10
-22.399877929687491
 20
-9.6500000000000341
 30
0.0
 40
0.5
 50
180.0000000180039
 51
270.0000000180089
1001
GRPNAME
1000
PASTMD5V
  0
LINE
  5
2148
  8
240
 10
-20.892841868019708
 20
-10.092893218813449
 30
0.0
 11
-20.949948649206291
 21
-10.150000000000031
 31
0.0
1001
GRPNAME
1000
PASTMD5V
  0
LINE
  5
2149
  8
240
 10
-22.899877929687491
 20
-9.6500000000000341
 30
0.0
 11
-22.899877929687491
 21
0.0
 31
0.0
1001
GRPNAME
1000
PASTMD5V
  0
LINE
  5
214A
  8
241
 10
-19.585735086833221
 20
0.0
 30
0.0
 11
-19.585735086833221
 21
-10.0
 31
0.0
1001
GRPNAME
1000
PASTMD5V
  0
LINE
  5
214B
  8
241
 10
-20.949948649206291
 20
0.0
 30
0.0
 11
-20.949948649206291
 21
-10.150000000000031
 31
0.0
1001
GRPNAME
1000
PASTMD5V
  0
LINE
  5
214C
  8
245
 10
-23.899877929687491
 20
0.0
 30
0.0
 11
0.6999999999999889
 21
0.0
 31
0.0
1001
GRPNAME
1000
PASTMD5T
  0
LINE
  5
214D
  8
240
 10
-19.585735086833221
 20
-10.0
 30
0.0
 11
-3.0
 21
-10.0
 31
0.0
1001
GRPNAME
1000
PASTMD5V
  0
LINE
  5
214E
  8
243
 10
-7.8999999999999773
 20
-4.7499999999999707
 30
0.0
 11
-19.29999999999994
 21
-3.5518117179712458
 31
0.0
1001
GRPNAME
1000
NBS6  02
  0
LINE
  5
214F
  8
240
 10
-19.585735086833221
 20
10.0
 30
0.0
 11
-3.0
 21
10.0
 31
0.0
1001
GRPNAME
1000
PASTMD5T
  0
LINE
  5
2150
  8
243
 10
-7.8999999999999773
 20
4.7499999999999707
 30
0.0
 11
-19.29999999999994
 21
3.5518117179712458
 31
0.0
1001
GRPNAME
1000
NBS6
  0
ENDBLK
  5
2153
  8
0
  0
BLOCK
  8
0
  2
*U8
 70
     1
 10
0.0
 20
0.0
 30
0.0
  3
*U8
  1

  0
TEXT
  5
2167
  8
250
 62
    40
 10
19.999999999999989
 20
-4.0714285714285738
 30
0.0
 40
3.0
  1
\U+2205
 50
90.0
  0
TEXT
  5
2168
  8
250
 62
    40
 10
19.999999999999989
 20
-1.3571428571428601
 30
0.0
 40
3.0
  1
20
 50
90.0
  0
ENDBLK
  5
216A
  8
0
  0
BLOCK
  8
0
  2
*U9
 70
     1
 10
0.0
 20
0.0
 30
0.0
  3
*U9
  1

  0
TEXT
  5
2170
  8
240
 62
    40
 10
11.689193157158281
 20
-8.0142857142857178
 30
0.0
 40
3.0
  1
\U+2205
 50
90.0
  0
TEXT
  5
2171
  8
240
 62
    40
 10
11.689193157158281
 20
-5.3000000000000016
 30
0.0
 40
3.0
  1
5ü`5.5
 50
90.0
  0
ENDBLK
  5
2173
  8
0
  0
ENDSEC
  0
SECTION
  2
ENTITIES
  0
TEXT
  5
2015
  8
243
 10
-21.952380952380949
 20
35.0
 30
0.0
 40
5.0
  1
MPS6-05055
  7
YOKO
1001
ITEMNAME
1000
DI010
1001
ACAD
1000
MTEXTBEGIN
1070
    73
1070
     1
1070
    44
1040
1.0
1070
    74
1070
     0
1000
MTEXTEND
  0
LINE
  5
20FA
  8
250
 10
-4.8000000000000114
 20
2.7499999999999991
 30
0.0
 11
13.689193157158281
 21
2.7499999999999938
 31
0.0
  0
LINE
  5
20FB
  8
250
 10
-4.8000000000000114
 20
-2.75
 30
0.0
 11
13.689193157158281
 21
-2.7500000000000049
 31
0.0
  0
LINE
  5
20FC
  8
250
 10
12.689193157158289
 20
4.9799999999999942
 30
0.0
 11
12.689193157158289
 21
7.209999999999992
 31
0.0
  0
LINE
  5
20FD
  8
250
 10
12.689193157158281
 20
-4.9800000000000031
 30
0.0
 11
12.689193157158281
 21
-7.2100000000000026
 31
0.0
  0
LINE
  5
20FE
  8
250
 10
12.689193157158281
 20
2.7499999999999951
 30
0.0
 11
12.689193157158281
 21
-2.750000000000004
 31
0.0
  0
LINE
  5
2102
  8
250
 10
-2.500000001099238
 20
-10.00000000000002
 30
0.0
 11
21.999999999999989
 21
-10.00000000000003
 31
0.0
  0
LINE
  5
2103
  8
250
 10
-2.4999999998427982
 20
10.00000000000002
 30
0.0
 11
22.0
 21
10.00000000000002
 31
0.0
  0
LINE
  5
2104
  8
250
 10
20.999999999999989
 20
-7.7700000000000342
 30
0.0
 11
20.999999999999989
 21
7.7700000000000209
 31
0.0
  0
TEXT
  5
2108
  8
250
 10
19.999999999999989
 20
-4.0714285714285738
 30
0.0
 40
3.0
  1
\U+2205
 50
90.0
1001
ACAD
1000
MTEXTBEGIN
1070
    73
1070
     1
1070
    44
1040
1.0
1070
    74
1070
     0
1000
MTEXTEND
  0
TEXT
  5
2109
  8
250
 10
19.999999999999989
 20
-1.3571428571428601
 30
0.0
 40
3.0
  1
20
 50
90.0
1001
ACAD
1000
MTEXTBEGIN
1070
    73
1070
     1
1070
    44
1040
1.0
1070
    74
1070
     0
1000
MTEXTEND
  0
LINE
  5
210A
  8
250
 10
20.62833333333333
 20
7.77000000000002
 30
0.0
 11
21.0
 21
10.00000000000002
 31
0.0
  0
LINE
  5
210B
  8
250
 10
21.37166666666667
 20
7.77000000000002
 30
0.0
 11
21.0
 21
10.00000000000002
 31
0.0
  0
LINE
  5
210C
  8
250
 10
21.0
 20
10.00000000000002
 30
0.0
 11
21.0
 21
7.77000000000002
 31
0.0
  0
LINE
  5
210D
  8
250
 10
21.371666666666648
 20
-7.7700000000000307
 30
0.0
 11
20.999999999999989
 21
-10.00000000000003
 31
0.0
  0
LINE
  5
210E
  8
250
 10
20.62833333333332
 20
-7.7700000000000307
 30
0.0
 11
20.999999999999989
 21
-10.00000000000003
 31
0.0
  0
LINE
  5
210F
  8
250
 10
20.999999999999989
 20
-10.00000000000003
 30
0.0
 11
20.999999999999989
 21
-7.7700000000000307
 31
0.0
  0
TEXT
  5
2110
  8
250
 10
11.689193157158281
 20
-8.0142857142857178
 30
0.0
 40
3.0
  1
\U+2205
 50
90.0
  0
TEXT
  5
2111
  8
250
 10
11.689193157158281
 20
-5.3000000000000016
 30
0.0
 40
3.0
  1
5ü`5.5
 50
90.0
  0
LINE
  5
2112
  8
250
 10
12.31752649049162
 20
-4.9800000000000031
 30
0.0
 11
12.689193157158281
 21
-2.750000000000004
 31
0.0
  0
LINE
  5
2113
  8
250
 10
13.06085982382495
 20
-4.9800000000000031
 30
0.0
 11
12.689193157158281
 21
-2.750000000000004
 31
0.0
  0
LINE
  5
2114
  8
250
 10
12.689193157158281
 20
-2.750000000000004
 30
0.0
 11
12.689193157158281
 21
-4.9800000000000031
 31
0.0
  0
LINE
  5
2115
  8
250
 10
13.06085982382495
 20
4.9799999999999942
 30
0.0
 11
12.689193157158281
 21
2.7499999999999951
 31
0.0
  0
LINE
  5
2116
  8
250
 10
12.31752649049162
 20
4.9799999999999942
 30
0.0
 11
12.689193157158281
 21
2.7499999999999951
 31
0.0
  0
LINE
  5
2117
  8
250
 10
12.689193157158281
 20
2.7499999999999951
 30
0.0
 11
12.689193157158281
 21
4.9799999999999942
 31
0.0
  0
INSERT
  5
2154
  8
240
  2
A$C7F284475
 10
0.0
 20
0.0
 30
0.0
  0
VIEWPORT
  5
22
 67
     1
  8
0
 10
261.51769911504419
 20
148.5
 30
0.0
 40
523.0353982300885
 41
297.0
 68
     1
 69
     1
1001
ACAD
1000
MVIEW
1002
{
1070
    16
1010
0.0
1020
0.0
1030
0.0
1010
0.0
1020
0.0
1030
1.0
1040
0.0
1040
297.0
1040
261.51769911504419
1040
148.5
1040
50.0
1040
0.0
1040
0.0
1070
     0
1070
   100
1070
     1
1070
     1
1070
     0
1070
     0
1070
     0
1070
     0
1040
0.0
1040
0.0
1040
0.0
1040
1.0
1040
1.0
1040
10.0
1040
10.0
1070
     0
1002
{
1002
}
1002
}
1001
GENIUS_GENOBJ-N-SDF_13
1002
{
1000
OWNER
1000
GEN
1002
}
1001
GENIUS_GENODEF_13
1002
{
1000
HIER
1070
     0
1002
}
1002
{
1000
MANEDIT
1070
     0
1002
}
1002
{
1000
NOSEL
1070
     0
1002
}
1002
{
1000
BEHIND
1070
     0
1002
}
1002
{
1000
OTHER
1070
     0
1002
}
1002
{
1000
REACTOR
1002
}
1001
GENIUS_GENSCREG_15
1000
PF
1040
1.0
1000
DF
1040
1.0
1000
MIN
1011
0.0
1021
0.0
1031
0.0
1021
0.0
1031
0.0
1000
MAX
1011
523.0353982300885
1021
0.0
1031
0.0
1021
297.0
1031
0.0
1000
FLAGS
1070
     2
  0
ENDSEC
  0
EOF
