  0
SECTION
  2
HEADER
  9
$ACADVER
  1
AC1009
  9
$INSBASE
 10
0.0
 20
0.0
 30
0.0
  9
$EXTMIN
 10
-23.904771634021699
 20
-10.25691224440868
 30
-0.0000000000112498
  9
$EXTMAX
 10
27.58552578916726
 20
40.006956605107632
 30
0.0000000000002956
  9
$LIMMIN
 10
0.0
 20
0.0
  9
$LIMMAX
 10
297.0
 20
210.0
  9
$ORTHOMODE
 70
     0
  9
$REGENMODE
 70
     1
  9
$FILLMODE
 70
     1
  9
$QTEXTMODE
 70
     0
  9
$MIRRTEXT
 70
     1
  9
$DRAGMODE
 70
     2
  9
$LTSCALE
 40
10.0
  9
$OSMODE
 70
   639
  9
$ATTMODE
 70
     1
  9
$TEXTSIZE
 40
3.0
  9
$TRACEWID
 40
1.0
  9
$TEXTSTYLE
  7
YOKO
  9
$CLAYER
  8
240
  9
$CELTYPE
  6
BYLAYER
  9
$CECOLOR
 62
   256
  9
$DIMSCALE
 40
1.0
  9
$DIMASZ
 40
2.2299999999999991
  9
$DIMEXO
 40
0.5
  9
$DIMDLI
 40
2.5
  9
$DIMRND
 40
0.0
  9
$DIMDLE
 40
0.0
  9
$DIMEXE
 40
1.0
  9
$DIMTP
 40
0.0
  9
$DIMTM
 40
0.0
  9
$DIMTXT
 40
3.0
  9
$DIMCEN
 40
0.0
  9
$DIMTSZ
 40
0.0
  9
$DIMTOL
 70
     0
  9
$DIMLIM
 70
     0
  9
$DIMTIH
 70
     0
  9
$DIMTOH
 70
     0
  9
$DIMSE1
 70
     0
  9
$DIMSE2
 70
     0
  9
$DIMTAD
 70
     3
  9
$DIMZIN
 70
     8
  9
$DIMBLK
  1
OPEN
  9
$DIMASO
 70
     1
  9
$DIMSHO
 70
     1
  9
$DIMPOST
  1

  9
$DIMAPOST
  1

  9
$DIMALT
 70
     0
  9
$DIMALTD
 70
     2
  9
$DIMALTF
 40
25.399999999999999
  9
$DIMLFAC
 40
1.0
  9
$DIMTOFL
 70
     1
  9
$DIMTVP
 40
0.0
  9
$DIMTIX
 70
     0
  9
$DIMSOXD
 70
     0
  9
$DIMSAH
 70
     0
  9
$DIMBLK1
  1

  9
$DIMBLK2
  1

  9
$DIMSTYLE
  2
BIGT
  9
$DIMCLRD
 70
   256
  9
$DIMCLRE
 70
   256
  9
$DIMCLRT
 70
    40
  9
$DIMTFAC
 40
1.0
  9
$DIMGAP
 40
1.0
  9
$LUNITS
 70
     2
  9
$LUPREC
 70
     2
  9
$SKETCHINC
 40
1.0
  9
$FILLETRAD
 40
0.0
  9
$AUNITS
 70
     0
  9
$AUPREC
 70
     3
  9
$MENU
  1
.
  9
$ELEVATION
 40
0.0
  9
$PELEVATION
 40
0.0
  9
$THICKNESS
 40
0.0
  9
$LIMCHECK
 70
     0
  9
$BLIPMODE
 70
     0
  9
$CHAMFERA
 40
10.0
  9
$CHAMFERB
 40
10.0
  9
$SKPOLY
 70
     0
  9
$TDCREATE
 40
2452880.4648967362
  9
$TDUPDATE
 40
2453612.4660396762
  9
$TDINDWG
 40
0.0398896875
  9
$TDUSRTIMER
 40
0.0398895023
  9
$USRTIMER
 70
     1
  9
$ANGBASE
 50
0.0
  9
$ANGDIR
 70
     0
  9
$PDMODE
 70
    35
  9
$PDSIZE
 40
2.0
  9
$PLINEWID
 40
0.0
  9
$COORDS
 70
     2
  9
$SPLFRAME
 70
     0
  9
$SPLINETYPE
 70
     6
  9
$SPLINESEGS
 70
     8
  9
$ATTDIA
 70
     1
  9
$ATTREQ
 70
     1
  9
$HANDLING
 70
     1
  9
$HANDSEED
  5
2123
  9
$SURFTAB1
 70
     6
  9
$SURFTAB2
 70
     6
  9
$SURFTYPE
 70
     6
  9
$SURFU
 70
     6
  9
$SURFV
 70
     6
  9
$UCSNAME
  2

  9
$UCSORG
 10
0.0
 20
0.0
 30
0.0
  9
$UCSXDIR
 10
1.0
 20
0.0
 30
0.0
  9
$UCSYDIR
 10
0.0
 20
1.0
 30
0.0
  9
$PUCSNAME
  2

  9
$PUCSORG
 10
0.0
 20
0.0
 30
0.0
  9
$PUCSXDIR
 10
1.0
 20
0.0
 30
0.0
  9
$PUCSYDIR
 10
0.0
 20
1.0
 30
0.0
  9
$USERI1
 70
     1
  9
$USERI2
 70
     0
  9
$USERI3
 70
     0
  9
$USERI4
 70
     0
  9
$USERI5
 70
     0
  9
$USERR1
 40
0.0
  9
$USERR2
 40
0.0
  9
$USERR3
 40
0.0
  9
$USERR4
 40
0.0
  9
$USERR5
 40
0.0
  9
$WORLDVIEW
 70
     1
  9
$SHADEDGE
 70
     3
  9
$SHADEDIF
 70
    70
  9
$TILEMODE
 70
     1
  9
$MAXACTVP
 70
    16
  9
$PLIMCHECK
 70
     0
  9
$PEXTMIN
 10
1.0000000000000000E+020
 20
1.0000000000000000E+020
 30
1.0000000000000000E+020
  9
$PEXTMAX
 10
-1.0000000000000000E+020
 20
-1.0000000000000000E+020
 30
-1.0000000000000000E+020
  9
$PLIMMIN
 10
0.0
 20
0.0
  9
$PLIMMAX
 10
420.0
 20
297.0
  9
$UNITMODE
 70
     0
  9
$VISRETAIN
 70
     0
  9
$PLINEGEN
 70
     0
  9
$PSLTSCALE
 70
     1
  0
ENDSEC
  0
SECTION
  2
TABLES
  0
TABLE
  2
VPORT
 70
    50
  0
VPORT
  2
*ACTIVE
 70
     0
 10
0.0
 20
0.0
 11
1.0
 21
1.0
 12
1.840377077572785
 22
14.87502218034947
 13
0.0
 23
0.0
 14
7.0
 24
7.0
 15
7.0
 25
7.0
 16
0.0
 26
0.0
 36
1.0
 17
0.0
 27
0.0
 37
0.0
 40
50.563951648617902
 41
1.267928286852589
 42
50.0
 43
0.0
 44
0.0
 50
0.0
 51
0.0
 71
     0
 72
  2000
 73
     1
 74
     0
 75
     0
 76
     0
 77
     0
 78
     0
  0
ENDTAB
  0
TABLE
  2
LTYPE
 70
    19
  0
LTYPE
  2
CONTINUOUS
 70
     0
  3
Solid line
 72
    65
 73
     0
 40
0.0
  0
LTYPE
  2
CENTER2
 70
     0
  3
___ _ ___ _ ___ _ ___ _ ___ _ ___ _ ___ _ ___ _
 72
    65
 73
     4
 40
1.125
 49
0.75
 49
-0.125
 49
0.125
 49
-0.125
  0
LTYPE
  2
HIDDEN2
 70
     0
  3
_ _ _ _ _ _ _ _ _ _ _ _ _ _ _ _ _ _ _ _ _ _ _ _
 72
    65
 73
     2
 40
0.1875
 49
0.125
 49
-0.0625
  0
LTYPE
  2
HIDDEN
 70
     0
  3
Hidden __ __ __ __ __ __ __ __ __ __ __ __ __ _
 72
    65
 73
     2
 40
9.5249999999999986
 49
6.3499999999999979
 49
-3.174999999999998
  0
LTYPE
  2
PHANTOM2
 70
     0
  3
Phantom (.5x) ___ _ _ ___ _ _ ___ _ _ ___ _ _
 72
    65
 73
     6
 40
31.75
 49
15.875
 49
-3.174999999999998
 49
3.174999999999998
 49
-3.174999999999998
 49
3.174999999999998
 49
-3.174999999999998
  0
LTYPE
  2
CENTER
 70
     0
  3
Center ____ _ ____ _ ____ _ ____ _ ____ _ ____
 72
    65
 73
     4
 40
50.799999999999997
 49
31.75
 49
-6.3499999999999979
 49
6.3499999999999979
 49
-6.3499999999999979
  0
LTYPE
  2
AMCONSTR
 70
     0
  3
_______________________
 72
    65
 73
     2
 40
9999.0
 49
9999.0
 49
0.0
  0
LTYPE
  2
AMZIGZAG2
 70
     0
  3
/\/-/\/-/\/-/\/-/\/-/\/
 72
    65
 73
     2
 40
0.4401
 49
0.0001
 49
-0.4400000000000001
  0
LTYPE
  2
ACANSTGB
 70
     0
  3
__ . . __ . .
 72
    65
 73
     6
 40
0.35433070866
 49
0.15748031496
 49
-0.03937007874
 49
0.03937007874
 49
-0.03937007874
 49
0.03937007874
 49
-0.03937007874
  0
LTYPE
  2
ACANSTGL
 70
     0
  3
_ _ _ _ _
 72
    65
 73
     2
 40
0.11811023622
 49
0.07874015748
 49
-0.03937007874
  0
ENDTAB
  0
TABLE
  2
LAYER
 70
     8
  0
LAYER
  2
0
 70
     0
 62
     7
  6
CONTINUOUS
  0
LAYER
  2
240
 70
     0
 62
     4
  6
CONTINUOUS
  0
LAYER
  2
241
 70
     0
 62
   211
  6
CONTINUOUS
  0
LAYER
  2
243
 70
     0
 62
   211
  6
HIDDEN2
  0
LAYER
  2
245
 70
     0
 62
     2
  6
CENTER2
  0
LAYER
  2
250
 70
     0
 62
     3
  6
CONTINUOUS
  0
LAYER
  2
DEFPOINTS
 70
     0
 62
     7
  6
CONTINUOUS
  0
ENDTAB
  0
TABLE
  2
STYLE
 70
     7
  0
STYLE
  2
STANDARD
 70
     0
 40
0.0
 41
1.0
 50
0.0
 71
     0
 42
3.0
  3
romans.shx
  4
BIGFONT.SHX
  0
STYLE
  2
YOKO
 70
     0
 40
0.0
 41
1.0
 50
0.0
 71
     0
 42
3.0
  3
romans.shx
  4
extfont.shx
  0
STYLE
  2

 70
     1
 40
0.0
 41
1.0
 50
0.0
 71
     0
 42
3.0
  3
ltypeshp.shx
  4

  0
STYLE
  2
ACANSTS
 70
     0
 40
1.0
 41
1.0
 50
0.0
 71
     0
 42
3.0
  3
romans.shx
  4
extfont.shx
  0
STYLE
  2
ACANSGDT
 70
     0
 40
0.0
 41
1.0
 50
0.0
 71
     0
 42
3.0
  3
amgdtans.shx
  4

  0
ENDTAB
  0
TABLE
  2
VIEW
 70
     0
  0
ENDTAB
  0
TABLE
  2
UCS
 70
     0
  0
ENDTAB
  0
TABLE
  2
APPID
 70
    16
  0
APPID
  2
ACAD
 70
     0
  0
APPID
  2
GLOBAL
 70
     0
  0
APPID
  2
DETAIL
 70
     0
  0
APPID
  2
GRPNAME
 70
     0
  0
APPID
  2
GPARA
 70
     0
  0
APPID
  2
ITEMNAME
 70
     0
  0
APPID
  2
MCAD_NO_VIS
 70
     0
  0
APPID
  2
ACAD_TEMP_GRAPHIC
 70
     0
  0
APPID
  2
AD_DRAW
 70
     0
  0
APPID
  2
ACATTRIBSERVICES
 70
     0
  0
APPID
  2
DESIGNERASSEMBLIES
 70
     0
  0
APPID
  2
ACADM_DIM_EDIT
 70
     0
  0
APPID
  2
AMDT_DM_ADJ
 70
     0
  0
APPID
  2
GENIUS_GENSCREG_15
 70
     0
  0
APPID
  2
GENIUS_GENODEF_13
 70
     0
  0
APPID
  2
GENIUS_GENOBJ-N-SDF_13
 70
     0
  0
ENDTAB
  0
TABLE
  2
DIMSTYLE
 70
    15
  0
DIMSTYLE
  2
STANDARD
 70
     0
  3

  4

  5

  6

  7

 40
1.0
 41
2.0
 42
2.0
 43
3.75
 44
2.0
 45
0.0
 46
0.0
 47
0.0
 48
0.0
140
4.0
141
0.09
142
0.0
143
25.399999999999999
144
1.0
145
0.0
146
1.0
147
1.0
 71
     0
 72
     0
 73
     1
 74
     1
 75
     0
 76
     0
 77
     0
 78
     8
170
     0
171
     2
172
     0
173
     1
174
     0
175
     0
176
   256
177
   256
178
   256
  0
DIMSTYLE
  2
BIGT
 70
     0
  3

  4

  5

  6

  7

 40
1.0
 41
2.2299999999999991
 42
0.5
 43
2.5
 44
1.0
 45
0.0
 46
0.0
 47
0.0
 48
0.0
140
3.5
141
0.0
142
0.0
143
25.399999999999999
144
1.0
145
0.0
146
1.0
147
1.0
 71
     0
 72
     0
 73
     0
 74
     0
 75
     0
 76
     0
 77
     3
 78
     9
170
     0
171
     2
172
     1
173
     0
174
     0
175
     0
176
   256
177
   256
178
    40
  0
DIMSTYLE
  2
AM_ANSI
 70
     0
  3

  4
mm
  5

  6

  7

 40
1.0
 41
0.1
 42
0.05
 43
0.5
 44
0.1
 45
0.0
 46
0.0
 47
0.1
 48
0.1
140
0.12
141
0.0
142
0.0
143
25.399999999999999
144
1.0
145
0.0
146
0.71
147
0.06
 71
     0
 72
     0
 73
     1
 74
     1
 75
     0
 76
     0
 77
     0
 78
     7
170
     0
171
     2
172
     0
173
     0
174
     0
175
     0
176
   256
177
   256
178
     2
  0
DIMSTYLE
  2
AM_ANSI$3
 70
     0
  3

  4
mm
  5

  6

  7

 40
1.0
 41
0.1
 42
0.05
 43
0.5
 44
0.1
 45
0.0
 46
0.0
 47
0.1
 48
0.1
140
0.12
141
0.0
142
0.0
143
25.399999999999999
144
1.0
145
0.0
146
0.71
147
0.06
 71
     0
 72
     0
 73
     1
 74
     1
 75
     0
 76
     0
 77
     0
 78
     7
170
     0
171
     2
172
     0
173
     0
174
     0
175
     0
176
   256
177
   256
178
     2
  0
DIMSTYLE
  2
AM_ANSI$4
 70
     0
  3

  4
mm
  5

  6

  7

 40
1.0
 41
0.1
 42
0.05
 43
0.5
 44
0.1
 45
0.0
 46
0.0
 47
0.1
 48
0.1
140
0.12
141
0.0
142
0.0
143
25.399999999999999
144
1.0
145
0.0
146
0.71
147
0.06
 71
     0
 72
     0
 73
     1
 74
     1
 75
     0
 76
     0
 77
     0
 78
     7
170
     0
171
     2
172
     0
173
     0
174
     0
175
     0
176
   256
177
   256
178
     2
  0
DIMSTYLE
  2
AM_ANSI$7
 70
     0
  3

  4
mm
  5

  6

  7

 40
1.0
 41
0.1
 42
0.05
 43
0.5
 44
0.1
 45
0.0
 46
0.0
 47
0.1
 48
0.1
140
0.24
141
0.0
142
0.0
143
25.399999999999999
144
1.0
145
0.0
146
0.71
147
0.06
 71
     0
 72
     0
 73
     1
 74
     1
 75
     0
 76
     0
 77
     0
 78
     7
170
     0
171
     2
172
     0
173
     0
174
     0
175
     0
176
   256
177
   256
178
     2
  0
DIMSTYLE
  2
AM_ANSI$SF
 70
     0
  3

  4
mm
  5

  6

  7

 40
1.0
 41
0.1
 42
0.05
 43
0.5
 44
0.1
 45
0.0
 46
0.0
 47
0.1
 48
0.1
140
0.12
141
0.0
142
0.0
143
25.399999999999999
144
1.0
145
0.0
146
0.71
147
0.06
 71
     0
 72
     0
 73
     1
 74
     1
 75
     1
 76
     1
 77
     0
 78
     7
170
     0
171
     2
172
     0
173
     0
174
     0
175
     0
176
   256
177
   256
178
     2
  0
DIMSTYLE
  2
AM_ANSI$SH
 70
     0
  3

  4
mm
  5

  6
GENAXEH
  7

 40
1.0
 41
0.1
 42
0.05
 43
0.5
 44
0.1
 45
0.0
 46
0.0
 47
0.1
 48
0.1
140
0.12
141
0.0
142
0.0
143
25.399999999999999
144
1.0
145
0.0
146
0.71
147
0.06
 71
     0
 72
     0
 73
     1
 74
     1
 75
     1
 76
     1
 77
     0
 78
     7
170
     0
171
     2
172
     0
173
     1
174
     0
175
     0
176
   256
177
   256
178
     2
  0
ENDTAB
  0
ENDSEC
  0
SECTION
  2
BLOCKS
  0
BLOCK
  8
0
  2
$MODEL_SPACE
 70
     0
 10
0.0
 20
0.0
 30
0.0
  3
$MODEL_SPACE
  1

  0
ENDBLK
  5
1F75
  8
0
  0
BLOCK
 67
     1
  8
0
  2
$PAPER_SPACE
 70
     0
 10
0.0
 20
0.0
 30
0.0
  3
$PAPER_SPACE
  1

  0
ENDBLK
  5
1F71
 67
     1
  8
0
  0
BLOCK
  8
0
  2
_OPEN
 70
     0
 10
0.0
 20
0.0
 30
0.0
  3
_OPEN
  1

  0
LINE
  5
595
  8
0
  6
BYBLOCK
 62
     0
 10
-1.0
 20
0.1666666666666666
 30
0.0
 11
0.0
 21
0.0
 31
0.0
  0
LINE
  5
596
  8
0
  6
BYBLOCK
 62
     0
 10
-1.0
 20
-0.1666666666666666
 30
0.0
 11
0.0
 21
0.0
 31
0.0
  0
LINE
  5
597
  8
0
  6
BYBLOCK
 62
     0
 10
0.0
 20
0.0
 30
0.0
 11
-1.0
 21
0.0
 31
0.0
  0
ENDBLK
  5
599
  8
0
  0
BLOCK
  8
0
  2
GENAXEH
 70
     0
 10
0.0
 20
0.0
 30
0.0
  3
GENAXEH
  1

  0
LINE
  5
1DE8
  8
0
 10
-1.0
 20
0.0
 30
0.0
 11
1.0
 21
0.0
 31
0.0
  0
ENDBLK
  5
1DEA
  8
0
  0
BLOCK
  8
0
  2
A$C78E64837
 70
     0
 10
0.0
 20
0.0
 30
0.0
  3
A$C78E64837
  1

  0
LINE
  5
20D0
  8
243
 10
-19.29999999999994
 20
-2.0
 30
0.0
 11
-5.3000000000000123
 21
-2.0
 31
0.0
1001
GRPNAME
1000
PASTMD5T
  0
LINE
  5
20D1
  8
243
 10
-19.29999999999994
 20
2.0
 30
0.0
 11
-5.3000000000000123
 21
2.0
 31
0.0
1001
GRPNAME
1000
PASTMD5T
  0
LINE
  5
20D2
  8
240
 10
0.0
 20
5.8653253605759934
 30
0.0
 11
-0.0181016248090487
 21
5.932881544062921
 31
0.0
1001
GRPNAME
1000
PASTMD1X
  0
ARC
  5
20D3
  8
240
 10
-0.5010645379535959
 20
5.8034720215115954
 30
0.0
 40
0.5000000000000167
 50
14.99999982774964
 51
61.34062540533386
1001
GRPNAME
1000
PASTMD1X
  0
LINE
  5
20D4
  8
240
 10
0.0
 20
0.0
 30
0.0
 11
0.0
 21
5.8653253605759934
 31
0.0
1001
GRPNAME
1000
PASTMD1X
  0
LINE
  5
20D5
  8
240
 10
-2.30000000000001
 20
7.3498770936380291
 30
0.0
 11
-2.30000000000001
 21
9.3000000000000131
 31
0.0
1001
GRPNAME
1000
PASTMD5T
  0
ARC
  5
20D6
  8
240
 10
-2.351089736206744
 20
7.156512570381266
 30
0.0
 40
0.1999999999999733
 50
61.34062550857977
 51
75.199826771626192
1001
GRPNAME
1000
PASTMD1X
  0
ARC
  5
20D7
  8
240
 10
-3.0
 20
9.3000000000000131
 30
0.0
 40
0.7000000000000171
 50
359.9999999871377
 51
89.999999987132028
1001
GRPNAME
1000
PASTMD5T
  0
LINE
  5
20D8
  8
243
 10
-6.599999999999965
 20
4.0999999999999934
 30
0.0
 11
-6.600000000000021
 21
4.7499999999999698
 31
0.0
1001
GRPNAME
1000
NBS6
  0
LINE
  5
20D9
  8
243
 10
-6.4999999999999432
 20
4.7500000000000284
 30
0.0
 11
-5.2999999999999527
 21
4.0571796769723649
 31
0.0
1001
GRPNAME
1000
NBS6
  0
LINE
  5
20DA
  8
243
 10
-6.600000000000021
 20
4.7499999999999698
 30
0.0
 11
-6.4999999999999432
 21
4.7499999999999698
 31
0.0
1001
GRPNAME
1000
NBS6
  0
LINE
  5
20DB
  8
243
 10
-7.8999999999999773
 20
4.0999999999999934
 30
0.0
 11
-7.8999999999999773
 21
4.7499999999999698
 31
0.0
1001
GRPNAME
1000
NBS6
  0
LINE
  5
20DC
  8
243
 10
-7.8999999999999773
 20
4.0999999999999934
 30
0.0
 11
-6.599999999999965
 21
4.0999999999999934
 31
0.0
1001
GRPNAME
1000
NBS6
  0
LINE
  5
20DD
  8
241
 10
-2.30000000000001
 20
0.0
 30
0.0
 11
-2.30000000000001
 21
7.3498770936380291
 31
0.0
1001
GRPNAME
1000
PASTMD5T
  0
LINE
  5
20DE
  8
240
 10
-0.2612638198472155
 20
6.2422152443602927
 30
0.0
 11
-2.25516944896418
 21
7.3320098595207233
 31
0.0
1001
GRPNAME
1000
PASTMD1X
  0
LINE
  5
20DF
  8
240
 10
0.0
 20
-5.8653253605759934
 30
0.0
 11
-0.0181016248090487
 21
-5.932881544062921
 31
0.0
  0
ARC
  5
20E0
  8
240
 10
-0.5010645379535959
 20
-5.8034720215115954
 30
0.0
 40
0.5000000000000378
 50
298.65937459466608
 51
345.00000017225022
  0
ARC
  5
20E1
  8
240
 10
-2.351089736206744
 20
-7.156512570381266
 30
0.0
 40
0.1999999999999743
 50
284.80017322837381
 51
298.65937449142018
  0
LINE
  5
20E2
  8
243
 10
-6.599999999999965
 20
-4.0999999999999934
 30
0.0
 11
-6.600000000000021
 21
-4.7499999999999698
 31
0.0
1001
GRPNAME
1000
NBS6  02
  0
LINE
  5
20E3
  8
243
 10
-6.4999999999999432
 20
-4.7500000000000284
 30
0.0
 11
-5.2999999999999527
 21
-4.0571796769723649
 31
0.0
1001
GRPNAME
1000
NBS6  02
  0
LINE
  5
20E4
  8
243
 10
-6.600000000000021
 20
-4.7499999999999698
 30
0.0
 11
-6.4999999999999432
 21
-4.7499999999999698
 31
0.0
1001
GRPNAME
1000
NBS6  02
  0
ARC
  5
20E5
  8
240
 10
-3.0
 20
-9.3000000000000131
 30
0.0
 40
0.7000000000000171
 50
269.99999991002682
 51
359.99999991002107
1001
GRPNAME
1000
PASTMD5V
  0
LINE
  5
20E6
  8
240
 10
-2.30000000000001
 20
-7.3498770936380291
 30
0.0
 11
-2.30000000000001
 21
-9.3000000000000131
 31
0.0
1001
GRPNAME
1000
PASTMD5V
  0
LINE
  5
20E7
  8
243
 10
-7.8999999999999773
 20
-4.0999999999999934
 30
0.0
 11
-7.8999999999999773
 21
-4.7499999999999698
 31
0.0
1001
GRPNAME
1000
NBS6  02
  0
LINE
  5
20E8
  8
243
 10
-7.8999999999999773
 20
-4.0999999999999934
 30
0.0
 11
-6.599999999999965
 21
-4.0999999999999934
 31
0.0
1001
GRPNAME
1000
NBS6  02
  0
LINE
  5
20E9
  8
240
 10
-0.2612638198472155
 20
-6.2422152443602927
 30
0.0
 11
-2.25516944896418
 21
-7.3320098595207233
 31
0.0
  0
LINE
  5
20EA
  8
240
 10
0.0
 20
0.0
 30
0.0
 11
0.0
 21
-5.8653253605759934
 31
0.0
  0
LINE
  5
20EB
  8
243
 10
-5.3000000000000123
 20
-4.0571796769724227
 30
0.0
 11
-5.3000000000000123
 21
4.057179676972396
 31
0.0
1001
GRPNAME
1000
NBS6  02
  0
LINE
  5
20EC
  8
241
 10
-2.30000000000001
 20
0.0
 30
0.0
 11
-2.30000000000001
 21
-7.3498770936380433
 31
0.0
1001
GRPNAME
1000
PASTMD5V
  0
LINE
  5
20ED
  8
240
 10
-22.399877929687491
 20
10.150000000000031
 30
0.0
 11
-20.949948649206291
 21
10.150000000000031
 31
0.0
1001
GRPNAME
1000
PASTMD5T
  0
ARC
  5
20EE
  8
240
 10
-22.399877929687491
 20
9.6500000000000341
 30
0.0
 40
0.5
 50
89.999999984563985
 51
179.9999999845688
1001
GRPNAME
1000
PASTMD5T
  0
LINE
  5
20EF
  8
240
 10
-20.892841868019708
 20
10.092893218813449
 30
0.0
 11
-20.949948649206291
 21
10.150000000000031
 31
0.0
1001
GRPNAME
1000
PASTMD5T
  0
ARC
  5
20F0
  8
240
 10
-20.185735086833219
 20
10.80000000000001
 30
0.0
 40
0.9999999999999779
 50
224.99999980195801
 51
306.86989744780061
1001
GRPNAME
1000
PASTMD5T
  0
LINE
  5
20F1
  8
240
 10
-22.899877929687491
 20
9.6500000000000341
 30
0.0
 11
-22.899877929687491
 21
0.0
 31
0.0
1001
GRPNAME
1000
PASTMD5T
  0
LINE
  5
20F2
  8
241
 10
-19.585735086833221
 20
0.0
 30
0.0
 11
-19.585735086833221
 21
10.0
 31
0.0
1001
GRPNAME
1000
PASTMD5T
  0
LINE
  5
20F3
  8
241
 10
-20.949948649206291
 20
0.0
 30
0.0
 11
-20.949948649206291
 21
10.150000000000031
 31
0.0
1001
GRPNAME
1000
PASTMD5T
  0
LINE
  5
20F4
  8
240
 10
-22.399877929687491
 20
-10.150000000000031
 30
0.0
 11
-20.949948649206291
 21
-10.150000000000031
 31
0.0
1001
GRPNAME
1000
PASTMD5V
  0
ARC
  5
20F5
  8
240
 10
-22.399877929687491
 20
-9.6500000000000341
 30
0.0
 40
0.5
 50
180.0000000180039
 51
270.0000000180089
1001
GRPNAME
1000
PASTMD5V
  0
LINE
  5
20F6
  8
240
 10
-20.892841868019708
 20
-10.092893218813449
 30
0.0
 11
-20.949948649206291
 21
-10.150000000000031
 31
0.0
1001
GRPNAME
1000
PASTMD5V
  0
ARC
  5
20F7
  8
240
 10
-20.185735086833219
 20
-10.80000000000001
 30
0.0
 40
0.9999999999999744
 50
53.130102610049832
 51
135.0000002558925
1001
GRPNAME
1000
PASTMD5V
  0
LINE
  5
20F8
  8
243
 10
-19.29999999999994
 20
3.551811717971245
 30
0.0
 11
-19.29999999999994
 21
-3.551811717971245
 31
0.0
1001
GRPNAME
1000
NBS6  02
  0
LINE
  5
20F9
  8
240
 10
-22.899877929687491
 20
-9.6500000000000341
 30
0.0
 11
-22.899877929687491
 21
0.0
 31
0.0
1001
GRPNAME
1000
PASTMD5V
  0
LINE
  5
20FA
  8
241
 10
-19.585735086833221
 20
0.0
 30
0.0
 11
-19.585735086833221
 21
-10.0
 31
0.0
1001
GRPNAME
1000
PASTMD5V
  0
LINE
  5
20FB
  8
241
 10
-20.949948649206291
 20
0.0
 30
0.0
 11
-20.949948649206291
 21
-10.150000000000031
 31
0.0
1001
GRPNAME
1000
PASTMD5V
  0
LINE
  5
20FC
  8
245
 10
-23.899877929687491
 20
0.0
 30
0.0
 11
0.6999999999999889
 21
0.0
 31
0.0
1001
GRPNAME
1000
PASTMD5T
  0
LINE
  5
20FD
  8
240
 10
-19.585735086833221
 20
-10.0
 30
0.0
 11
-3.0
 21
-10.0
 31
0.0
1001
GRPNAME
1000
PASTMD5V
  0
LINE
  5
20FE
  8
243
 10
-7.8999999999999773
 20
-4.7499999999999698
 30
0.0
 11
-19.29999999999994
 21
-3.551811717971245
 31
0.0
1001
GRPNAME
1000
NBS6  02
  0
LINE
  5
20FF
  8
240
 10
-19.585735086833221
 20
10.0
 30
0.0
 11
-3.0
 21
10.0
 31
0.0
1001
GRPNAME
1000
PASTMD5T
  0
LINE
  5
2100
  8
243
 10
-7.8999999999999773
 20
4.7499999999999698
 30
0.0
 11
-19.29999999999994
 21
3.551811717971245
 31
0.0
1001
GRPNAME
1000
NBS6
  0
ENDBLK
  5
2102
  8
0
  0
BLOCK
  8
0
  2
*U10
 70
     1
 10
0.0
 20
0.0
 30
0.0
  3
*U10
  1

  0
TEXT
  5
211F
  8
240
 62
    40
 10
12.981058849961499
 20
-5.9428571428571448
 30
0.0
 40
3.0
  1
\U+2205
 50
90.0
  0
TEXT
  5
2120
  8
240
 62
    40
 10
12.981058849961499
 20
-3.2285714285714309
 30
0.0
 40
3.0
  1
3ü`4
 50
90.0
  0
ENDBLK
  5
2122
  8
0
  0
ENDSEC
  0
SECTION
  2
ENTITIES
  0
LINE
  5
1E0C
  8
250
 10
-2.5
 20
-10.0
 30
0.0
 11
21.999999999999989
 21
-10.0
 31
0.0
  0
LINE
  5
1E0D
  8
250
 10
-2.4999999998427982
 20
10.00000000000002
 30
0.0
 11
22.0
 21
10.00000000000002
 31
0.0
  0
LINE
  5
1E0E
  8
250
 10
20.999999999999989
 20
-7.770000000000004
 30
0.0
 11
20.999999999999989
 21
7.77000000000002
 31
0.0
  0
TEXT
  5
1E12
  8
250
 10
19.999999999999989
 20
-4.0714285714285587
 30
0.0
 40
3.0
  1
\U+2205
 50
90.0
1001
ACAD
1000
MTEXTBEGIN
1070
    73
1070
     1
1070
    44
1040
1.0
1070
    74
1070
     0
1000
MTEXTEND
  0
TEXT
  5
1E13
  8
250
 10
19.999999999999989
 20
-1.3571428571428461
 30
0.0
 40
3.0
  1
20
 50
90.0
1001
ACAD
1000
MTEXTBEGIN
1070
    73
1070
     1
1070
    44
1040
1.0
1070
    74
1070
     0
1000
MTEXTEND
  0
LINE
  5
1E14
  8
250
 10
20.62833333333333
 20
7.7700000000000191
 30
0.0
 11
21.0
 21
10.00000000000002
 31
0.0
  0
LINE
  5
1E15
  8
250
 10
21.37166666666667
 20
7.7700000000000191
 30
0.0
 11
21.0
 21
10.00000000000002
 31
0.0
  0
LINE
  5
1E16
  8
250
 10
21.0
 20
10.00000000000002
 30
0.0
 11
21.0
 21
7.7700000000000191
 31
0.0
  0
LINE
  5
1E1F
  8
250
 10
21.371666666666648
 20
-7.7700000000000014
 30
0.0
 11
20.999999999999989
 21
-10.0
 31
0.0
  0
LINE
  5
1E20
  8
250
 10
20.62833333333332
 20
-7.7700000000000014
 30
0.0
 11
20.999999999999989
 21
-10.0
 31
0.0
  0
LINE
  5
1E21
  8
250
 10
20.999999999999989
 20
-10.0
 30
0.0
 11
20.999999999999989
 21
-7.7700000000000014
 31
0.0
  0
TEXT
  5
1EA1
  8
241
 10
-21.952380952380949
 20
35.0
 30
0.0
 40
5.0
  1
MPS6-04045
  7
YOKO
1001
ITEMNAME
1000
DI010
1001
ACAD
1000
MTEXTBEGIN
1070
    73
1070
     1
1070
    44
1040
1.0
1070
    74
1070
     0
1000
MTEXTEND
  0
LINE
  5
20B7
  8
250
 10
-4.8000000000000114
 20
2.0
 30
0.0
 11
14.981058849961499
 21
1.999999999999994
 31
0.0
  0
LINE
  5
20B8
  8
250
 10
-4.8000000000000123
 20
-2.0
 30
0.0
 11
14.981058849961499
 21
-2.0000000000000049
 31
0.0
  0
LINE
  5
20B9
  8
250
 10
13.981058849961499
 20
4.2299999999999942
 30
0.0
 11
13.981058849961499
 21
6.459999999999992
 31
0.0
  0
LINE
  5
20BA
  8
250
 10
13.981058849961499
 20
-4.230000000000004
 30
0.0
 11
13.981058849961499
 21
-6.4600000000000026
 31
0.0
  0
LINE
  5
20BB
  8
250
 10
13.981058849961499
 20
1.999999999999994
 30
0.0
 11
13.981058849961499
 21
-2.0000000000000049
 31
0.0
  0
TEXT
  5
20BF
  8
250
 10
12.981058849961499
 20
-5.9428571428571448
 30
0.0
 40
3.0
  1
\U+2205
 50
90.0
  0
TEXT
  5
20C0
  8
250
 10
12.981058849961499
 20
-3.2285714285714309
 30
0.0
 40
3.0
  1
3ü`4
 50
90.0
  0
LINE
  5
20C1
  8
250
 10
13.60939218329483
 20
-4.230000000000004
 30
0.0
 11
13.981058849961499
 21
-2.0000000000000049
 31
0.0
  0
LINE
  5
20C2
  8
250
 10
14.35272551662816
 20
-4.230000000000004
 30
0.0
 11
13.981058849961499
 21
-2.0000000000000049
 31
0.0
  0
LINE
  5
20C3
  8
250
 10
13.981058849961499
 20
-2.0000000000000049
 30
0.0
 11
13.981058849961499
 21
-4.230000000000004
 31
0.0
  0
LINE
  5
20C4
  8
250
 10
14.35272551662816
 20
4.2299999999999933
 30
0.0
 11
13.981058849961499
 21
1.999999999999994
 31
0.0
  0
LINE
  5
20C5
  8
250
 10
13.60939218329483
 20
4.2299999999999933
 30
0.0
 11
13.981058849961499
 21
1.999999999999994
 31
0.0
  0
LINE
  5
20C6
  8
250
 10
13.981058849961499
 20
1.999999999999994
 30
0.0
 11
13.981058849961499
 21
4.2299999999999933
 31
0.0
  0
INSERT
  5
2104
  8
240
  2
A$C78E64837
 10
0.0
 20
0.0
 30
0.0
  0
VIEWPORT
  5
22
 67
     1
  8
0
 10
261.51769911504419
 20
148.5
 30
0.0
 40
523.0353982300885
 41
297.0
 68
     1
 69
     1
1001
ACAD
1000
MVIEW
1002
{
1070
    16
1010
0.0
1020
0.0
1030
0.0
1010
0.0
1020
0.0
1030
1.0
1040
0.0
1040
297.0
1040
261.51769911504419
1040
148.5
1040
50.0
1040
0.0
1040
0.0
1070
     0
1070
   100
1070
     1
1070
     1
1070
     0
1070
     0
1070
     0
1070
     0
1040
0.0
1040
0.0
1040
0.0
1040
1.0
1040
1.0
1040
10.0
1040
10.0
1070
     0
1002
{
1002
}
1002
}
1001
GENIUS_GENODEF_13
1002
{
1000
HIER
1070
     0
1002
}
1002
{
1000
MANEDIT
1070
     0
1002
}
1002
{
1000
NOSEL
1070
     0
1002
}
1002
{
1000
BEHIND
1070
     0
1002
}
1002
{
1000
OTHER
1070
     0
1002
}
1002
{
1000
REACTOR
1002
}
1001
GENIUS_GENOBJ-N-SDF_13
1002
{
1000
OWNER
1000
GEN
1002
}
1001
GENIUS_GENSCREG_15
1000
PF
1040
1.0
1000
DF
1040
1.0
1000
MIN
1011
0.0
1021
-4.0152892430168871E+292
1031
0.0
1021
0.0
1031
0.0
1000
MAX
1011
523.0353982300885
1021
-4.0152892430168871E+292
1031
0.0
1021
297.0
1031
0.0
1000
FLAGS
1070
     2
  0
ENDSEC
  0
EOF
