  0
SECTION
  2
HEADER
  9
$ACADVER
  1
AC1009
  9
$INSBASE
 10
0.0
 20
0.0
 30
0.0
  9
$EXTMIN
 10
-93.243582850877146
 20
-45.03811445927294
 30
0.0
  9
$EXTMAX
 10
92.0
 20
71.779293050699891
 30
0.0
  9
$LIMMIN
 10
0.0
 20
0.0
  9
$LIMMAX
 10
297.0
 20
210.0
  9
$ORTHOMODE
 70
     1
  9
$REGENMODE
 70
     1
  9
$FILLMODE
 70
     1
  9
$QTEXTMODE
 70
     0
  9
$MIRRTEXT
 70
     1
  9
$DRAGMODE
 70
     2
  9
$LTSCALE
 40
10.0
  9
$OSMODE
 70
  3071
  9
$ATTMODE
 70
     1
  9
$TEXTSIZE
 40
3.0
  9
$TRACEWID
 40
1.0
  9
$TEXTSTYLE
  7
YOKO
  9
$CLAYER
  8
240
  9
$CELTYPE
  6
BYLAYER
  9
$CECOLOR
 62
   256
  9
$DIMSCALE
 40
1.0
  9
$DIMASZ
 40
2.2299999999999991
  9
$DIMEXO
 40
0.5
  9
$DIMDLI
 40
7.0
  9
$DIMRND
 40
0.0
  9
$DIMDLE
 40
0.0
  9
$DIMEXE
 40
1.0
  9
$DIMTP
 40
0.0
  9
$DIMTM
 40
0.01
  9
$DIMTXT
 40
2.7999999999999989
  9
$DIMCEN
 40
0.0
  9
$DIMTSZ
 40
0.0
  9
$DIMTOL
 70
     0
  9
$DIMLIM
 70
     0
  9
$DIMTIH
 70
     0
  9
$DIMTOH
 70
     0
  9
$DIMSE1
 70
     0
  9
$DIMSE2
 70
     0
  9
$DIMTAD
 70
     3
  9
$DIMZIN
 70
     9
  9
$DIMBLK
  1
OPEN
  9
$DIMASO
 70
     1
  9
$DIMSHO
 70
     1
  9
$DIMPOST
  1

  9
$DIMAPOST
  1

  9
$DIMALT
 70
     0
  9
$DIMALTD
 70
     2
  9
$DIMALTF
 40
25.399999999999999
  9
$DIMLFAC
 40
1.0
  9
$DIMTOFL
 70
     1
  9
$DIMTVP
 40
0.0
  9
$DIMTIX
 70
     1
  9
$DIMSOXD
 70
     0
  9
$DIMSAH
 70
     0
  9
$DIMBLK1
  1

  9
$DIMBLK2
  1

  9
$DIMSTYLE
  2
BIGT
  9
$DIMCLRD
 70
   256
  9
$DIMCLRE
 70
   256
  9
$DIMCLRT
 70
    40
  9
$DIMTFAC
 40
1.0
  9
$DIMGAP
 40
1.0
  9
$LUNITS
 70
     2
  9
$LUPREC
 70
     3
  9
$SKETCHINC
 40
1.0
  9
$FILLETRAD
 40
0.0
  9
$AUNITS
 70
     0
  9
$AUPREC
 70
     3
  9
$MENU
  1
.
  9
$ELEVATION
 40
0.0
  9
$PELEVATION
 40
0.0
  9
$THICKNESS
 40
0.0
  9
$LIMCHECK
 70
     0
  9
$BLIPMODE
 70
     0
  9
$CHAMFERA
 40
0.25
  9
$CHAMFERB
 40
0.25
  9
$SKPOLY
 70
     0
  9
$TDCREATE
 40
2455799.6800869331
  9
$TDUPDATE
 40
2455799.6877174652
  9
$TDINDWG
 40
0.007580081
  9
$TDUSRTIMER
 40
0.007580081
  9
$USRTIMER
 70
     1
  9
$ANGBASE
 50
0.0
  9
$ANGDIR
 70
     0
  9
$PDMODE
 70
     1
  9
$PDSIZE
 40
0.0
  9
$PLINEWID
 40
0.0
  9
$COORDS
 70
     2
  9
$SPLFRAME
 70
     0
  9
$SPLINETYPE
 70
     6
  9
$SPLINESEGS
 70
     4
  9
$ATTDIA
 70
     1
  9
$ATTREQ
 70
     1
  9
$HANDLING
 70
     1
  9
$HANDSEED
  5
1B2A
  9
$SURFTAB1
 70
     6
  9
$SURFTAB2
 70
     6
  9
$SURFTYPE
 70
     6
  9
$SURFU
 70
     6
  9
$SURFV
 70
     6
  9
$UCSNAME
  2

  9
$UCSORG
 10
0.0
 20
0.0
 30
0.0
  9
$UCSXDIR
 10
1.0
 20
0.0
 30
0.0
  9
$UCSYDIR
 10
0.0
 20
1.0
 30
0.0
  9
$PUCSNAME
  2

  9
$PUCSORG
 10
0.0
 20
0.0
 30
0.0
  9
$PUCSXDIR
 10
1.0
 20
0.0
 30
0.0
  9
$PUCSYDIR
 10
0.0
 20
1.0
 30
0.0
  9
$USERI1
 70
     1
  9
$USERI2
 70
     0
  9
$USERI3
 70
     0
  9
$USERI4
 70
     0
  9
$USERI5
 70
     0
  9
$USERR1
 40
0.0
  9
$USERR2
 40
0.0
  9
$USERR3
 40
0.0
  9
$USERR4
 40
0.0
  9
$USERR5
 40
0.0
  9
$WORLDVIEW
 70
     1
  9
$SHADEDGE
 70
     3
  9
$SHADEDIF
 70
    70
  9
$TILEMODE
 70
     1
  9
$MAXACTVP
 70
    16
  9
$PLIMCHECK
 70
     0
  9
$PEXTMIN
 10
1.0000000000000000E+020
 20
1.0000000000000000E+020
 30
1.0000000000000000E+020
  9
$PEXTMAX
 10
-1.0000000000000000E+020
 20
-1.0000000000000000E+020
 30
-1.0000000000000000E+020
  9
$PLIMMIN
 10
0.0
 20
0.0
  9
$PLIMMAX
 10
420.0
 20
297.0
  9
$UNITMODE
 70
     0
  9
$VISRETAIN
 70
     1
  9
$PLINEGEN
 70
     0
  9
$PSLTSCALE
 70
     1
  0
ENDSEC
  0
SECTION
  2
TABLES
  0
TABLE
  2
VPORT
 70
     3
  0
VPORT
  2
*ACTIVE
 70
     0
 10
0.0
 20
0.0
 11
1.0
 21
1.0
 12
4.4596599703831989
 22
21.174174013041181
 13
0.0
 23
0.0
 14
7.0
 24
7.0
 15
7.0
 25
7.0
 16
0.0
 26
0.0
 36
1.0
 17
0.0
 27
0.0
 37
0.0
 40
140.03191548491051
 41
1.5857487922705309
 42
50.0
 43
0.0
 44
0.0
 50
0.0
 51
0.0
 71
     0
 72
  2000
 73
     1
 74
     0
 75
     0
 76
     0
 77
     0
 78
     0
  0
ENDTAB
  0
TABLE
  2
LTYPE
 70
    13
  0
LTYPE
  2
CONTINUOUS
 70
     0
  3
Solid line
 72
    65
 73
     0
 40
0.0
  0
LTYPE
  2
CENTER2
 70
     0
  3
___ _ ___ _ ___ _ ___ _ ___ _ ___ _ ___ _ ___ _
 72
    65
 73
     4
 40
1.125
 49
0.75
 49
-0.125
 49
0.125
 49
-0.125
  0
LTYPE
  2
HIDDEN2
 70
     0
  3
_ _ _ _ _ _ _ _ _ _ _ _ _ _ _ _ _ _ _ _ _ _ _ _
 72
    65
 73
     2
 40
0.1875
 49
0.125
 49
-0.0625
  0
LTYPE
  2
PHANTOM2
 70
     0
  3
___ _ _ ___ _ _ ___ _ _ ___ _ _ ___ _ _ ___ _ _
 72
    65
 73
     6
 40
1.25
 49
0.625
 49
-0.125
 49
0.125
 49
-0.125
 49
0.125
 49
-0.125
  0
LTYPE
  2
CENTER
 70
     0
  3
____ _ ____ _ ____ _ ____ _ ____ _ ____ _ ____ 
 72
    65
 73
     4
 40
2.0
 49
1.25
 49
-0.25
 49
0.25
 49
-0.25
  0
LTYPE
  2
AM_ISO02W050
 70
     0
  3
__ __ __ __ __ __ __ __ __ __ __ __ __ __ __
 72
    65
 73
     2
 40
7.5
 49
6.0
 49
-1.5
  0
LTYPE
  2
AMCONSTR
 70
     0
  3
_______________________
 72
    65
 73
     2
 40
9999.0
 49
9999.0
 49
0.0
  0
LTYPE
  2
ACISOWELD
 70
     0
  3
_ _ _ _ _
 72
    65
 73
     2
 40
2.0
 49
2.0
 49
-1.0
  0
LTYPE
  2
ACISOTGB
 70
     0
  3
__ . . __ . .
 72
    65
 73
     6
 40
9.0
 49
4.0
 49
-1.0
 49
1.0
 49
-1.0
 49
1.0
 49
-1.0
  0
LTYPE
  2
ACISOTGL
 70
     0
  3
_ _ _ _ _
 72
    65
 73
     2
 40
3.0
 49
2.0
 49
-1.0
  0
LTYPE
  2
ACJISTGB
 70
     0
  3
__ . . __ . .
 72
    65
 73
     6
 40
9.0
 49
4.0
 49
-1.0
 49
1.0
 49
-1.0
 49
1.0
 49
-1.0
  0
LTYPE
  2
ACJISTGL
 70
     0
  3
_ _ _ _ _
 72
    65
 73
     2
 40
3.0
 49
2.0
 49
-1.0
  0
LTYPE
  2
HIDDEN
 70
     0
  3
Hidden __ __ __ __ __ __ __ __ __ __ __ __ __ _
 72
    65
 73
     2
 40
9.5249999999999986
 49
6.3499999999999988
 49
-3.1749999999999989
  0
ENDTAB
  0
TABLE
  2
LAYER
 70
    11
  0
LAYER
  2
0
 70
     0
 62
     7
  6
CONTINUOUS
  0
LAYER
  2
DEFPOINTS
 70
     0
 62
     7
  6
CONTINUOUS
  0
LAYER
  2
245
 70
     0
 62
     2
  6
CENTER2
  0
LAYER
  2
240
 70
     0
 62
     4
  6
CONTINUOUS
  0
LAYER
  2
241
 70
     0
 62
   211
  6
CONTINUOUS
  0
LAYER
  2
242
 70
     0
 62
     3
  6
CONTINUOUS
  0
LAYER
  2
243
 70
     0
 62
   211
  6
HIDDEN2
  0
LAYER
  2
244
 70
     0
 62
     3
  6
HIDDEN2
  0
LAYER
  2
247
 70
     0
 62
    60
  6
CONTINUOUS
  0
LAYER
  2
250
 70
     0
 62
     3
  6
CONTINUOUS
  0
LAYER
  2
AM_5
 70
     0
 62
     3
  6
CONTINUOUS
  0
ENDTAB
  0
TABLE
  2
STYLE
 70
     6
  0
STYLE
  2
STANDARD
 70
     0
 40
0.0
 41
1.0
 50
0.0
 71
     0
 42
3.0
  3
romans.shx
  4
extfont.shx
  0
STYLE
  2
ACISOTS
 70
     0
 40
1.0
 41
1.0
 50
0.0
 71
     0
 42
3.0
  3
amgdt.shx
  4
extfont.shx
  0
STYLE
  2
ACISOGDT
 70
     0
 40
0.0
 41
1.0
 50
0.0
 71
     0
 42
3.0
  3
amgdt.shx
  4
extfont.shx
  0
STYLE
  2
ACJISTS
 70
     0
 40
1.0
 41
1.0
 50
0.0
 71
     0
 42
3.0
  3
amgdt.shx
  4
extfont.shx
  0
STYLE
  2
ACJISGDT
 70
     0
 40
0.0
 41
1.0
 50
0.0
 71
     0
 42
3.0
  3
amgdt.shx
  4
extfont.shx
  0
STYLE
  2
YOKO
 70
     0
 40
0.0
 41
1.0
 50
0.0
 71
     0
 42
3.0
  3
romans.shx
  4
extfont.shx
  0
ENDTAB
  0
TABLE
  2
VIEW
 70
     0
  0
ENDTAB
  0
TABLE
  2
UCS
 70
     0
  0
ENDTAB
  0
TABLE
  2
APPID
 70
    34
  0
APPID
  2
ACAD
 70
     0
  0
APPID
  2
GLOBAL
 70
     0
  0
APPID
  2
DETAIL
 70
     0
  0
APPID
  2
GRPNAME
 70
     0
  0
APPID
  2
GPARA
 70
     0
  0
APPID
  2
MCAD_NO_VIS
 70
     0
  0
APPID
  2
ACAD_TEMP_GRAPHIC
 70
     0
  0
APPID
  2
ACATTRIBSERVICES
 70
     0
  0
APPID
  2
GENIUS_GENSCREG_15
 70
     0
  0
APPID
  2
GENIUS_GENODEF_13
 70
     0
  0
APPID
  2
GENIUS_GENOBJ-N-SDF_13
 70
     0
  0
APPID
  2
GENIUS_GENREC_14
 70
     0
  0
APPID
  2
GENIUS_GENOBJ-N-REC_13
 70
     0
  0
APPID
  2
GENIUS_GENDIMSH_14
 70
     0
  0
APPID
  2
GENIUS_GENOBJ-N-DIM_13
 70
     0
  0
APPID
  2
GENIUS_GENDIM_13
 70
     0
  0
APPID
  2
GENIUS_GENDTOL_13
 70
     0
  0
APPID
  2
GENIUS_GENOLIS_13
 70
     0
  0
APPID
  2
GENIUS_GENOENT_13
 70
     0
  0
APPID
  2
GENIUS_GENOBJ-F-FEM_13
 70
     0
  0
APPID
  2
GENIUS_GENOREF_13
 70
     0
  0
APPID
  2
GENIUS_GEFFEM_13
 70
     0
  0
APPID
  2
GENIUS_GEFFEMP_13
 70
     0
  0
APPID
  2
AD_DRAW
 70
     0
  0
APPID
  2
DESIGNERASSEMBLIES
 70
     0
  0
APPID
  2
ACADM_DIM_EDIT
 70
     0
  0
APPID
  2
AMDT_DM_ADJ
 70
     0
  0
APPID
  2
GENIUS_GENOBJ-N-FIL_13
 70
     0
  0
APPID
  2
GENIUS_GENFIL_13
 70
     0
  0
APPID
  2
GENIUS_GENOBJ-N-CHA_13
 70
     0
  0
APPID
  2
GENIUS_GENOBJ-N-CRS_13
 70
     0
  0
APPID
  2
HATCH_TYPE
 70
     0
  0
APPID
  2
HATCH_DISPLAY
 70
     0
  0
APPID
  2
HATCH_DISTANCE
 70
     0
  0
ENDTAB
  0
TABLE
  2
DIMSTYLE
 70
    23
  0
DIMSTYLE
  2
BIGT
 70
     0
  3

  4

  5
OPEN
  6

  7

 40
1.0
 41
2.2299999999999991
 42
0.5
 43
7.0
 44
1.0
 45
0.0
 46
0.0
 47
0.0
 48
0.01
140
2.7999999999999989
141
0.0
142
0.0
143
25.399999999999999
144
1.0
145
0.0
146
1.0
147
1.0
 71
     0
 72
     0
 73
     0
 74
     0
 75
     0
 76
     0
 77
     3
 78
     9
170
     0
171
     2
172
     1
173
     0
174
     1
175
     0
176
   256
177
   256
178
    40
  0
DIMSTYLE
  2
AM_ISO
 70
     0
  3

  4
"
  5

  6

  7

 40
1.0
 41
2.5
 42
1.0
 43
10.0
 44
1.0
 45
0.0
 46
0.0
 47
0.1
 48
0.1
140
3.5
141
0.0
142
0.0
143
0.0393701
144
1.0
145
0.0
146
0.71
147
1.5
 71
     0
 72
     0
 73
     0
 74
     0
 75
     0
 76
     0
 77
     1
 78
     8
170
     0
171
     2
172
     1
173
     0
174
     0
175
     0
176
   256
177
   256
178
     2
  0
DIMSTYLE
  2
AM_ISO$3
 70
     0
  3

  4
"
  5

  6

  7

 40
1.0
 41
2.5
 42
1.0
 43
10.0
 44
1.0
 45
0.0
 46
0.0
 47
0.1
 48
0.1
140
3.5
141
0.0
142
0.0
143
0.0393701
144
1.0
145
0.0
146
0.71
147
1.5
 71
     0
 72
     0
 73
     0
 74
     1
 75
     0
 76
     0
 77
     1
 78
     8
170
     0
171
     2
172
     0
173
     0
174
     0
175
     0
176
   256
177
   256
178
     2
  0
DIMSTYLE
  2
AM_ISO$4
 70
     0
  3

  4
"
  5

  6

  7

 40
1.0
 41
2.5
 42
1.0
 43
10.0
 44
1.0
 45
0.0
 46
0.0
 47
0.1
 48
0.1
140
3.5
141
0.0
142
0.0
143
0.0393701
144
1.0
145
0.0
146
0.71
147
1.5
 71
     0
 72
     0
 73
     0
 74
     1
 75
     0
 76
     0
 77
     1
 78
     8
170
     0
171
     2
172
     0
173
     0
174
     0
175
     0
176
   256
177
   256
178
     2
  0
DIMSTYLE
  2
AM_ISO$6
 70
     0
  3

  4
"
  5

  6

  7

 40
1.0
 41
2.5
 42
1.0
 43
10.0
 44
1.0
 45
0.0
 46
0.0
 47
0.1
 48
0.1
140
3.5
141
0.0
142
0.0
143
0.0393701
144
1.0
145
0.0
146
0.71
147
1.5
 71
     0
 72
     0
 73
     0
 74
     0
 75
     0
 76
     0
 77
     0
 78
     8
170
     0
171
     2
172
     1
173
     0
174
     0
175
     0
176
   256
177
   256
178
     2
  0
DIMSTYLE
  2
AM_ISO$7
 70
     0
  3

  4
"
  5

  6

  7

 40
1.0
 41
2.5
 42
1.0
 43
10.0
 44
1.0
 45
0.0
 46
0.0
 47
0.1
 48
0.1
140
5.0
141
0.0
142
0.0
143
0.0393701
144
1.0
145
0.0
146
0.71
147
1.5
 71
     0
 72
     0
 73
     0
 74
     0
 75
     0
 76
     0
 77
     1
 78
     8
170
     0
171
     2
172
     1
173
     0
174
     0
175
     0
176
   256
177
   256
178
     2
  0
DIMSTYLE
  2
AM_ISO$SF
 70
     0
  3

  4
"
  5

  6

  7

 40
1.0
 41
2.5
 42
1.0
 43
10.0
 44
1.0
 45
0.0
 46
0.0
 47
0.1
 48
0.1
140
3.5
141
0.0
142
0.0
143
0.0393701
144
1.0
145
0.0
146
0.71
147
1.5
 71
     0
 72
     0
 73
     0
 74
     0
 75
     1
 76
     1
 77
     1
 78
     8
170
     0
171
     2
172
     1
173
     0
174
     0
175
     0
176
   256
177
   256
178
     2
  0
DIMSTYLE
  2
AM_ISO$SH
 70
     0
  3

  4
"
  5

  6
GENAXEH
  7

 40
1.0
 41
2.5
 42
1.0
 43
10.0
 44
1.0
 45
0.0
 46
0.0
 47
0.1
 48
0.1
140
3.5
141
0.0
142
0.0
143
0.0393701
144
2.0
145
0.0
146
0.71
147
1.5
 71
     0
 72
     0
 73
     0
 74
     0
 75
     1
 76
     1
 77
     1
 78
     8
170
     0
171
     2
172
     1
173
     1
174
     0
175
     0
176
   256
177
   256
178
     2
  0
DIMSTYLE
  2
BIGT$2
 70
     0
  3

  4

  5
OPEN
  6

  7

 40
1.0
 41
2.2299999999999991
 42
0.5
 43
7.0
 44
1.0
 45
0.0
 46
0.0
 47
0.0
 48
0.01
140
2.7999999999999989
141
0.0
142
0.0
143
25.399999999999999
144
1.0
145
0.0
146
1.0
147
1.0
 71
     0
 72
     0
 73
     0
 74
     0
 75
     0
 76
     0
 77
     3
 78
     9
170
     0
171
     2
172
     1
173
     0
174
     0
175
     0
176
   256
177
   256
178
    40
  0
DIMSTYLE
  2
BIGT$3
 70
     0
  3

  4

  5
OPEN
  6

  7

 40
1.0
 41
2.2299999999999991
 42
0.5
 43
2.5
 44
1.0
 45
0.0
 46
0.0
 47
0.0
 48
0.01
140
2.7999999999999989
141
0.0
142
0.0
143
25.399999999999999
144
1.0
145
0.0
146
1.0
147
1.0
 71
     0
 72
     0
 73
     0
 74
     0
 75
     0
 76
     0
 77
     3
 78
     9
170
     0
171
     2
172
     1
173
     0
174
     0
175
     0
176
   256
177
   256
178
    40
  0
DIMSTYLE
  2
BIGT$7
 70
     0
  3

  4

  5
OPEN
  6

  7

 40
0.0
 41
2.2299999999999991
 42
0.5
 43
7.0
 44
1.0
 45
0.0
 46
0.0
 47
0.0
 48
0.01
140
2.7999999999999989
141
0.0
142
0.0
143
25.399999999999999
144
1.0
145
0.0
146
1.0
147
1.0
 71
     0
 72
     0
 73
     0
 74
     0
 75
     0
 76
     0
 77
     3
 78
     9
170
     0
171
     2
172
     0
173
     0
174
     0
175
     0
176
   256
177
   256
178
    40
  0
DIMSTYLE
  2
BIGT$6
 70
     0
  3

  4

  5
OPEN
  6

  7

 40
1.0
 41
2.2299999999999991
 42
0.5
 43
2.5
 44
1.0
 45
0.0
 46
0.0
 47
0.0
 48
0.01
140
2.7999999999999989
141
0.0
142
0.0
143
25.399999999999999
144
1.0
145
0.0
146
1.0
147
1.0
 71
     0
 72
     0
 73
     0
 74
     0
 75
     0
 76
     0
 77
     3
 78
     9
170
     0
171
     2
172
     1
173
     0
174
     0
175
     0
176
   256
177
   256
178
    40
  0
DIMSTYLE
  2
BIGT$0
 70
     0
  3

  4

  5
OPEN
  6

  7

 40
1.0
 41
2.2299999999999991
 42
0.5
 43
7.0
 44
1.0
 45
0.0
 46
0.0
 47
0.0
 48
0.01
140
2.7999999999999989
141
0.0
142
0.0
143
25.399999999999999
144
1.0
145
0.0
146
1.0
147
1.0
 71
     0
 72
     0
 73
     0
 74
     0
 75
     0
 76
     0
 77
     3
 78
     9
170
     0
171
     2
172
     1
173
     0
174
     0
175
     0
176
   256
177
   256
178
    40
  0
DIMSTYLE
  2
BIGT$4
 70
     0
  3

  4

  5
OPEN
  6

  7

 40
1.0
 41
2.2299999999999991
 42
0.5
 43
2.5
 44
1.0
 45
0.0
 46
0.0
 47
0.0
 48
0.01
140
2.7999999999999989
141
0.0
142
0.0
143
25.399999999999999
144
1.0
145
0.0
146
1.0
147
1.0
 71
     0
 72
     0
 73
     0
 74
     0
 75
     0
 76
     0
 77
     3
 78
     9
170
     0
171
     2
172
     1
173
     0
174
     0
175
     0
176
   256
177
   256
178
    40
  0
DIMSTYLE
  2
BIGT$SH
 70
     0
  3

  4

  5
OPEN
  6

  7

 40
1.0
 41
2.2299999999999991
 42
0.5
 43
7.0
 44
1.0
 45
0.0
 46
0.0
 47
0.0
 48
0.0
140
2.7999999999999989
141
0.0
142
0.0
143
25.399999999999999
144
1.0
145
0.0
146
1.0
147
1.0
 71
     0
 72
     0
 73
     0
 74
     0
 75
     0
 76
     0
 77
     3
 78
     9
170
     0
171
     2
172
     1
173
     0
174
     0
175
     0
176
   256
177
   256
178
    40
  0
DIMSTYLE
  2
BIGT$SF
 70
     0
  3

  4

  5
OPEN
  6

  7

 40
1.0
 41
2.2299999999999991
 42
0.5
 43
7.0
 44
1.0
 45
0.0
 46
0.0
 47
0.0
 48
0.0
140
2.7999999999999989
141
0.0
142
0.0
143
25.399999999999999
144
1.0
145
0.0
146
1.0
147
1.0
 71
     0
 72
     0
 73
     0
 74
     0
 75
     0
 76
     0
 77
     3
 78
     9
170
     0
171
     2
172
     1
173
     0
174
     0
175
     0
176
   256
177
   256
178
    40
  0
DIMSTYLE
  2
TECHNICAL_OSAKA
 70
     0
  3

  4
"
  5
OPEN30
  6

  7

 40
1.0
 41
2.5
 42
1.0
 43
10.0
 44
1.0
 45
0.0
 46
0.0
 47
0.1
 48
0.1
140
2.7999999999999989
141
0.0
142
0.0
143
0.0393701
144
1.0
145
0.0
146
0.71
147
1.5
 71
     0
 72
     0
 73
     0
 74
     0
 75
     0
 76
     0
 77
     3
 78
     8
170
     0
171
     2
172
     1
173
     0
174
     0
175
     0
176
   256
177
   256
178
    40
  0
DIMSTYLE
  2
TECHNICAL_OSAKA$3
 70
     0
  3

  4
"
  5
OPEN30
  6

  7

 40
1.0
 41
2.5
 42
1.0
 43
10.0
 44
1.0
 45
0.0
 46
0.0
 47
0.1
 48
0.1
140
2.7999999999999989
141
0.0
142
0.0
143
0.0393701
144
1.0
145
0.0
146
0.71
147
1.5
 71
     0
 72
     0
 73
     0
 74
     1
 75
     0
 76
     0
 77
     3
 78
     8
170
     0
171
     2
172
     0
173
     0
174
     0
175
     0
176
   256
177
   256
178
    40
  0
DIMSTYLE
  2
TECHNICAL_OSAKA$4
 70
     0
  3

  4
"
  5
OPEN30
  6

  7

 40
1.0
 41
2.5
 42
1.0
 43
10.0
 44
1.0
 45
0.0
 46
0.0
 47
0.1
 48
0.1
140
2.7999999999999989
141
0.0
142
0.0
143
0.0393701
144
1.0
145
0.0
146
0.71
147
1.5
 71
     0
 72
     0
 73
     0
 74
     1
 75
     0
 76
     0
 77
     3
 78
     8
170
     0
171
     2
172
     0
173
     0
174
     0
175
     0
176
   256
177
   256
178
    40
  0
DIMSTYLE
  2
TECHNICAL_OSAKA$6
 70
     0
  3

  4
"
  5
OPEN30
  6

  7

 40
1.0
 41
2.5
 42
1.0
 43
10.0
 44
1.0
 45
0.0
 46
0.0
 47
0.1
 48
0.1
140
2.7999999999999989
141
0.0
142
0.0
143
0.0393701
144
1.0
145
0.0
146
0.71
147
1.5
 71
     0
 72
     0
 73
     0
 74
     0
 75
     0
 76
     0
 77
     0
 78
     8
170
     0
171
     2
172
     1
173
     0
174
     0
175
     0
176
   256
177
   256
178
    40
  0
DIMSTYLE
  2
TECHNICAL_OSAKA$7
 70
     0
  3

  4
"
  5
OPEN30
  6

  7

 40
1.0
 41
2.5
 42
1.0
 43
10.0
 44
1.0
 45
0.0
 46
0.0
 47
0.1
 48
0.1
140
2.7999999999999989
141
0.0
142
0.0
143
0.0393701
144
1.0
145
0.0
146
0.71
147
1.5
 71
     0
 72
     0
 73
     0
 74
     0
 75
     0
 76
     0
 77
     3
 78
     8
170
     0
171
     2
172
     1
173
     0
174
     0
175
     0
176
   256
177
   256
178
    40
  0
DIMSTYLE
  2
TECHNICAL_OSAKA$SF
 70
     0
  3

  4
"
  5
OPEN30
  6
OPEN30
  7
OPEN30
 40
1.0
 41
2.5
 42
1.0
 43
10.0
 44
1.0
 45
0.0
 46
0.0
 47
0.1
 48
0.1
140
3.5
141
0.0
142
0.0
143
0.0393701
144
1.0
145
0.0
146
0.71
147
1.5
 71
     0
 72
     0
 73
     0
 74
     0
 75
     1
 76
     1
 77
     3
 78
     8
170
     0
171
     2
172
     1
173
     0
174
     0
175
     0
176
   256
177
   256
178
    40
  0
DIMSTYLE
  2
TECHNICAL_OSAKA$SH
 70
     0
  3

  4
"
  5
OPEN30
  6
GENAXEH
  7
OPEN30
 40
1.0
 41
2.5
 42
1.0
 43
10.0
 44
1.0
 45
0.0
 46
0.0
 47
0.1
 48
0.1
140
3.5
141
0.0
142
0.0
143
0.0393701
144
2.0
145
0.0
146
0.71
147
1.5
 71
     0
 72
     0
 73
     0
 74
     0
 75
     1
 76
     1
 77
     3
 78
     8
170
     0
171
     2
172
     1
173
     1
174
     0
175
     0
176
   256
177
   256
178
    40
  0
ENDTAB
  0
ENDSEC
  0
SECTION
  2
BLOCKS
  0
BLOCK
  8
0
  2
$MODEL_SPACE
 70
     0
 10
0.0
 20
0.0
 30
0.0
  3
$MODEL_SPACE
  1

  0
ENDBLK
  5
1C
  8
0
  0
BLOCK
 67
     1
  8
0
  2
$PAPER_SPACE
 70
     0
 10
0.0
 20
0.0
 30
0.0
  3
$PAPER_SPACE
  1

  0
ENDBLK
  5
19
 67
     1
  8
0
  0
BLOCK
  8
0
  2
_OPEN
 70
     0
 10
0.0
 20
0.0
 30
0.0
  3
_OPEN
  1

  0
LINE
  5
18B3
  8
0
  6
BYBLOCK
 62
     0
 10
-1.0
 20
0.1666666666666666
 30
0.0
 11
0.0
 21
0.0
 31
0.0
  0
LINE
  5
18B4
  8
0
  6
BYBLOCK
 62
     0
 10
-1.0
 20
-0.1666666666666666
 30
0.0
 11
0.0
 21
0.0
 31
0.0
  0
LINE
  5
18B5
  8
0
  6
BYBLOCK
 62
     0
 10
0.0
 20
0.0
 30
0.0
 11
-1.0
 21
0.0
 31
0.0
  0
ENDBLK
  5
18B6
  8
0
  0
BLOCK
  8
0
  2
GENAXEH
 70
     0
 10
0.0
 20
0.0
 30
0.0
  3
GENAXEH
  1

  0
LINE
  5
18DE
  8
0
 10
-1.0
 20
0.0
 30
0.0
 11
1.0
 21
0.0
 31
0.0
  0
ENDBLK
  5
18DF
  8
0
  0
BLOCK
  8
0
  2
_OPEN30
 70
     0
 10
0.0
 20
0.0
 30
0.0
  3
_OPEN30
  1

  0
LINE
  5
1903
  8
0
  6
BYBLOCK
 62
     0
 10
-1.0
 20
0.26794919
 30
0.0
 11
0.0
 21
0.0
 31
0.0
  0
LINE
  5
1904
  8
0
  6
BYBLOCK
 62
     0
 10
0.0
 20
0.0
 30
0.0
 11
-1.0
 21
-0.26794919
 31
0.0
  0
LINE
  5
1905
  8
0
  6
BYBLOCK
 62
     0
 10
0.0
 20
0.0
 30
0.0
 11
-1.0
 21
0.0
 31
0.0
  0
ENDBLK
  5
1906
  8
0
  0
BLOCK
  8
0
  2
A$C187A1F95
 70
     0
 10
0.0
 20
0.0
 30
0.0
  3
A$C187A1F95
  1

  0
LINE
  5
164A
  8
247
 10
-1.977322221090559
 20
-4.6206927367445578
 30
0.0
 11
-3.13535869020876
 21
-3.462656267626357
 31
0.0
  0
LINE
  5
164B
  8
247
 10
-1.5930681041632491
 20
-4.6681872491318464
 30
0.0
 11
-1.945934160116449
 21
-4.3153211931786473
 31
0.0
  0
LINE
  5
164C
  8
247
 10
-2.8299871466427922
 20
-3.4312682066522471
 30
0.0
 11
-3.182853202595993
 21
-3.0784021506990462
 31
0.0
  0
LINE
  5
164D
  8
247
 10
-1.285909228951936
 20
-4.6385865198030842
 30
0.0
 11
-1.5598263861990631
 21
-4.3646693625558992
 31
0.0
  0
LINE
  5
164E
  8
247
 10
-2.8797229450412938
 20
-3.0447728037137249
 30
0.0
 11
-3.1828540485569188
 21
-2.7416417001980999
 31
0.0
  0
LINE
  5
164F
  8
247
 10
-1.024104307719085
 20
-4.5636318364957971
 30
0.0
 11
-1.264778152703399
 21
-4.32295799151143
 31
0.0
  0
LINE
  5
1650
  8
247
 10
-2.8797229450412938
 20
-2.7080131991735881
 30
0.0
 11
-3.1185360242286571
 21
-2.4692001199862261
 31
0.0
  0
LINE
  5
1651
  8
247
 10
-0.7958947460217019
 20
-4.4550817936531057
 30
0.0
 11
-1.019720746314817
 21
-4.231255793359991
 31
0.0
  0
LINE
  5
1652
  8
247
 10
-0.5958766478120765
 20
-4.318340287322596
 30
0.0
 11
-0.8118227762631136
 21
-4.1023941588715607
 31
0.0
  0
LINE
  5
1653
  8
247
 10
-0.4216677276632482
 20
-4.155789602931347
 30
0.0
 11
-0.6362292780136727
 21
-3.9412280525809811
 31
0.0
  0
LINE
  5
1654
  8
247
 10
-0.2728593971191913
 20
-3.967838328935386
 30
0.0
 11
-0.4921504254615459
 21
-3.7485473005929171
 31
0.0
  0
LINE
  5
1655
  8
247
 10
-0.1508597531703799
 20
-3.7530783683440632
 30
0.0
 11
-0.3823598840220939
 21
-3.5215782374923461
 31
0.0
  0
LINE
  5
1656
  8
247
 10
-0.0594621020085242
 20
-3.5077164149657829
 30
0.0
 11
-0.3151142378612803
 21
-3.2520642791130281
 31
0.0
  0
LINE
  5
1657
  8
247
 10
-0.0067916597444082
 20
-3.2236272526898802
 30
0.0
 11
-0.3031310957142068
 21
-2.9272878167200811
 31
0.0
  0
LINE
  5
1658
  8
247
 10
0.0
 20
-2.8936593078941528
 30
0.0
 11
-0.3031310957142068
 21
-2.5905282121799429
 31
0.0
  0
LINE
  5
1659
  8
247
 10
0.0
 20
-2.5568997033540191
 30
0.0
 11
-0.3031310957142068
 21
-2.2537686076398131
 31
0.0
  0
LINE
  5
165A
  8
247
 10
0.0
 20
-2.2201400988139981
 30
0.0
 11
-0.3031310957142068
 21
-1.917009003099678
 31
0.0
  0
LINE
  5
165B
  8
247
 10
0.0
 20
-1.883380494273865
 30
0.0
 11
-0.3031310957142068
 21
-1.580249398559658
 31
0.0
  0
LINE
  5
165C
  8
247
 10
0.0
 20
-1.546620889733729
 30
0.0
 11
-0.3031310957142068
 21
-1.243489794019524
 31
0.0
  0
LINE
  5
165D
  8
247
 10
0.0
 20
-1.2098612851937101
 30
0.0
 11
-0.3031310957142068
 21
-0.9067301894795035
 31
0.0
  0
LINE
  5
165E
  8
247
 10
0.0
 20
-0.8731016806535761
 30
0.0
 11
-0.3031310957142068
 21
-0.5699705849393695
 31
0.0
  0
LINE
  5
165F
  8
247
 10
0.0
 20
-0.5363420761134421
 30
0.0
 11
-0.3031310957142068
 21
-0.2332109803992353
 31
0.0
  0
LINE
  5
1660
  8
247
 10
0.0
 20
-0.1995824715734216
 30
0.0
 11
-0.3031310957142068
 21
0.1035486241407852
 31
0.0
  0
LINE
  5
1661
  8
247
 10
-2.932855779871657
 20
2.7332733082982941
 30
0.0
 11
-3.1799308926475169
 21
2.980348421074154
 31
0.0
  0
LINE
  5
1662
  8
247
 10
0.0
 20
0.1371771329667126
 30
0.0
 11
-0.3031310957142068
 21
0.4403082286809197
 31
0.0
  0
LINE
  5
1663
  8
247
 10
-2.8782627028439829
 20
3.0154398358106378
 30
0.0
 11
-3.1665816475214679
 21
3.303758780488236
 31
0.0
  0
LINE
  5
1664
  8
247
 10
0.0
 20
0.4739367375067334
 30
0.0
 11
-0.3031310957142068
 21
0.77706783322094
 31
0.0
  0
LINE
  5
1665
  8
247
 10
-2.8548341321414328
 20
3.3287708696482201
 30
0.0
 11
-3.1024062022968319
 21
3.5763429398036801
 31
0.0
  0
LINE
  5
1666
  8
247
 10
0.0
 20
0.8106963420468671
 30
0.0
 11
-0.3031310957142068
 21
1.1138274377610731
 31
0.0
  0
LINE
  5
1667
  8
247
 10
-2.7749546287429299
 20
3.5856509707898558
 30
0.0
 11
-3.0023082063022448
 21
3.8130045483491131
 31
0.0
  0
LINE
  5
1668
  8
247
 10
0.0
 20
1.147455946587
 30
0.0
 11
-0.3031310957142068
 21
1.4505870423012079
 31
0.0
  0
LINE
  5
1669
  8
247
 10
-2.6555268837903441
 20
3.8029828303773452
 30
0.0
 11
-2.8729215537842938
 21
4.0203775003712963
 31
0.0
  0
LINE
  5
166A
  8
247
 10
0.0
 20
1.484215551127021
 30
0.0
 11
-0.3031310957142068
 21
1.7873466468413399
 31
0.0
  0
LINE
  5
166B
  8
247
 10
-2.502948933296635
 20
3.9871644844237131
 30
0.0
 11
-2.7172950248791481
 21
4.2015105760061706
 31
0.0
  0
LINE
  5
166C
  8
247
 10
0.0
 20
1.8209751556671561
 30
0.0
 11
-0.3031310957142068
 21
2.1241062513813631
 31
0.0
  0
LINE
  5
166D
  8
247
 10
-2.3189776436271901
 20
4.1399527992944041
 30
0.0
 11
-2.5363312151759478
 21
4.3573063708431601
 31
0.0
  0
LINE
  5
166E
  8
247
 10
0.0
 20
2.15773476020729
 30
0.0
 11
-0.3031310957142068
 21
2.4608658559214951
 31
0.0
  0
LINE
  5
166F
  8
247
 10
-2.101880422311011
 20
4.259615182518246
 30
0.0
 11
-2.3291397943701782
 21
4.4868745545774109
 31
0.0
  0
LINE
  5
1670
  8
247
 10
0.0
 20
2.494494364747311
 30
0.0
 11
-0.3031310957142068
 21
2.7976254604615161
 31
0.0
  0
LINE
  5
1671
  8
247
 10
-1.845300616400209
 20
4.33979498114752
 30
0.0
 11
-2.0926892600573961
 21
4.5871836248047622
 31
0.0
  0
LINE
  5
1672
  8
247
 10
0.0
 20
2.831253969287443
 30
0.0
 11
-0.3044820142378626
 21
3.1357359835252501
 31
0.0
  0
LINE
  5
1673
  8
247
 10
-1.5324524613939161
 20
4.3637064306814182
 30
0.0
 11
-1.8203788736346951
 21
4.6516328429221359
 31
0.0
  0
LINE
  5
1674
  8
247
 10
-0.0027808648878249
 20
3.1707944387153462
 30
0.0
 11
-0.4008019269780334
 21
3.5688155008056111
 31
0.0
  0
LINE
  5
1675
  8
247
 10
-1.0993729441136111
 20
4.2673865179411861
 30
0.0
 11
-1.4973940062038731
 21
4.6654075800313421
 31
0.0
  0
LINE
  5
1676
  8
247
 10
-0.0849319226709895
 20
3.5897051010385872
 30
0.0
 11
-1.0784833438805741
 21
4.5832565222482327
 31
0.0
  0
LINE
  5
1677
  8
247
 10
-3.151530330666048
 20
-0.078888581768183
 30
0.0
 11
-3.1828540485569188
 21
-0.0475648638773691
 31
0.0
  0
LINE
  5
1678
  8
247
 10
-2.8341326316891
 20
-0.0595266762051097
 30
0.0
 11
-3.1828540485569188
 21
0.2891947406627651
 31
0.0
  0
LINE
  5
1679
  8
247
 10
-2.3619864480280031
 20
-0.1949132553260142
 30
0.0
 11
-3.1828540485569188
 21
0.6259543452028993
 31
0.0
  0
LINE
  5
167A
  8
247
 10
-1.889840264366909
 20
-0.3302998344470325
 30
0.0
 11
-2.8403967590846828
 21
0.6202566602706841
 31
0.0
  0
LINE
  5
167B
  8
247
 10
-1.417694080705814
 20
-0.465686413568051
 30
0.0
 11
-2.368252423011425
 21
0.4848719287375616
 31
0.0
  0
LINE
  5
167C
  8
247
 10
-0.9455478970447755
 20
-0.601072992689069
 30
0.0
 11
-1.896108086938225
 21
0.3494871972044393
 31
0.0
  0
LINE
  5
167D
  8
247
 10
-0.4734017133836801
 20
-0.7364595718099736
 30
0.0
 11
-1.4239637508649701
 21
0.2141024656713171
 31
0.0
  0
LINE
  5
167E
  8
247
 10
-0.4546966474720194
 20
-0.418405033181557
 30
0.0
 11
-0.9518194147917714
 21
0.0787177341381948
 31
0.0
  0
LINE
  5
167F
  8
247
 10
-0.4546966474720194
 20
-0.0816454286414228
 30
0.0
 11
-0.4796750787185148
 21
-0.0566669973949274
 31
0.0
  0
LINE
  5
1680
  8
247
 10
-3.1828540485569188
 20
0.7184543609619141
 30
0.0
 11
-3.1828540485569188
 21
-0.0699062347412109
 31
0.0
  0
LINE
  5
1681
  8
247
 10
-0.4546966474720194
 20
-0.0638294219970703
 30
0.0
 11
-3.1828540485569188
 21
0.7184543609619141
 31
0.0
  0
LINE
  5
1682
  8
247
 10
-0.4546966474720194
 20
-0.7418231964111329
 30
0.0
 11
-0.4546966474720194
 21
-0.0638294219970703
 31
0.0
  0
LINE
  5
1683
  8
247
 10
-2.8494189899631688
 20
-0.0551433563232422
 30
0.0
 11
-0.4546966474720194
 21
-0.7418231964111329
 31
0.0
  0
LINE
  5
1684
  8
247
 10
-2.8494189899631688
 20
-0.1655216217041016
 30
0.0
 11
-2.8494189899631688
 21
-0.0551433563232422
 31
0.0
  0
LINE
  5
1685
  8
247
 10
-3.1828540485569188
 20
-0.0699062347412109
 30
0.0
 11
-2.8494189899631688
 21
-0.1655216217041016
 31
0.0
  0
LINE
  5
1686
  8
247
 10
-3.1828540485569188
 20
0.7184543609619141
 30
0.0
 11
-3.1828540485569188
 21
-0.0699062347412109
 31
0.0
1001
HATCH_DISTANCE
1040
1.0
1001
HATCH_DISPLAY
1070
     0
1001
HATCH_TYPE
1070
     7
  0
LINE
  5
1687
  8
247
 10
-0.4546966474720194
 20
-0.0638294219970703
 30
0.0
 11
-3.1828540485569188
 21
0.7184543609619141
 31
0.0
1001
HATCH_DISTANCE
1040
1.0
1001
HATCH_DISPLAY
1070
     0
1001
HATCH_TYPE
1070
     7
  0
LINE
  5
1688
  8
247
 10
-0.4546966474720194
 20
-0.7418231964111329
 30
0.0
 11
-0.4546966474720194
 21
-0.0638294219970703
 31
0.0
1001
HATCH_DISTANCE
1040
1.0
1001
HATCH_DISPLAY
1070
     0
1001
HATCH_TYPE
1070
     7
  0
LINE
  5
1689
  8
247
 10
-2.8494189899631688
 20
-0.0551433563232422
 30
0.0
 11
-0.4546966474720194
 21
-0.7418231964111329
 31
0.0
1001
HATCH_DISTANCE
1040
1.0
1001
HATCH_DISPLAY
1070
     0
1001
HATCH_TYPE
1070
     7
  0
LINE
  5
168A
  8
247
 10
-2.8494189899631688
 20
-0.1655216217041016
 30
0.0
 11
-2.8494189899631688
 21
-0.0551433563232422
 31
0.0
1001
HATCH_DISTANCE
1040
1.0
1001
HATCH_DISPLAY
1070
     0
1001
HATCH_TYPE
1070
     7
  0
LINE
  5
168B
  8
247
 10
-3.1828540485569188
 20
-0.0699062347412109
 30
0.0
 11
-2.8494189899631688
 21
-0.1655216217041016
 31
0.0
1001
HATCH_DISTANCE
1040
1.0
1001
HATCH_DISPLAY
1070
     0
1001
HATCH_TYPE
1070
     7
  0
LINE
  5
168C
  8
247
 10
-2.8407672565647308
 20
2.7623119354248038
 30
0.0
 11
-2.8407672565647308
 21
2.7623119354248038
 31
0.0
  0
LINE
  5
168D
  8
247
 10
-3.1302684467502782
 20
2.671022415161127
 30
0.0
 11
-2.8407672565647308
 21
2.7623119354248038
 31
0.0
  0
LINE
  5
168E
  8
247
 10
-3.1302684467502782
 20
2.671022415161127
 30
0.0
 11
-3.1302684467502782
 21
2.671022415161127
 31
0.0
  0
LINE
  5
168F
  8
247
 10
-2.8407672565647308
 20
2.7623119354248038
 30
0.0
 11
-3.1302684467502782
 21
2.671022415161127
 31
0.0
  0
LINE
  5
1690
  8
247
 10
-2.8407672565647308
 20
2.7623119354248038
 30
0.0
 11
-2.8407672565647308
 21
2.7623119354248038
 31
0.0
1001
HATCH_DISTANCE
1040
1.0
1001
HATCH_DISPLAY
1070
     0
1001
HATCH_TYPE
1070
     7
  0
LINE
  5
1691
  8
247
 10
-3.1302684467502782
 20
2.671022415161127
 30
0.0
 11
-2.8407672565647308
 21
2.7623119354248038
 31
0.0
1001
HATCH_DISTANCE
1040
1.0
1001
HATCH_DISPLAY
1070
     0
1001
HATCH_TYPE
1070
     7
  0
LINE
  5
1692
  8
247
 10
-3.1302684467502782
 20
2.671022415161127
 30
0.0
 11
-3.1302684467502782
 21
2.671022415161127
 31
0.0
1001
HATCH_DISTANCE
1040
1.0
1001
HATCH_DISPLAY
1070
     0
1001
HATCH_TYPE
1070
     7
  0
LINE
  5
1693
  8
247
 10
-2.8407672565647308
 20
2.7623119354248038
 30
0.0
 11
-3.1302684467502782
 21
2.671022415161127
 31
0.0
1001
HATCH_DISTANCE
1040
1.0
1001
HATCH_DISPLAY
1070
     0
1001
HATCH_TYPE
1070
     7
  0
LINE
  5
1694
  8
247
 10
-2.8407672565647308
 20
2.7623119354248038
 30
0.0
 11
-2.8407672565647308
 21
2.7623119354248038
 31
0.0
  0
LINE
  5
1695
  8
247
 10
-3.1302684467502782
 20
2.671022415161127
 30
0.0
 11
-2.8407672565647308
 21
2.7623119354248038
 31
0.0
  0
LINE
  5
1696
  8
247
 10
-3.1302684467502782
 20
2.671022415161127
 30
0.0
 11
-3.1302684467502782
 21
2.671022415161127
 31
0.0
  0
LINE
  5
1697
  8
247
 10
-2.8407672565647308
 20
2.7623119354248038
 30
0.0
 11
-3.1302684467502782
 21
2.671022415161127
 31
0.0
  0
LINE
  5
1698
  8
247
 10
-2.8407672565647308
 20
2.7623119354248038
 30
0.0
 11
-2.8407672565647308
 21
2.7623119354248038
 31
0.0
1001
HATCH_DISTANCE
1040
1.0
1001
HATCH_DISPLAY
1070
     0
1001
HATCH_TYPE
1070
     7
  0
LINE
  5
1699
  8
247
 10
-3.1302684467502782
 20
2.671022415161127
 30
0.0
 11
-2.8407672565647308
 21
2.7623119354248038
 31
0.0
1001
HATCH_DISTANCE
1040
1.0
1001
HATCH_DISPLAY
1070
     0
1001
HATCH_TYPE
1070
     7
  0
LINE
  5
169A
  8
247
 10
-3.1302684467502782
 20
2.671022415161127
 30
0.0
 11
-3.1302684467502782
 21
2.671022415161127
 31
0.0
1001
HATCH_DISTANCE
1040
1.0
1001
HATCH_DISPLAY
1070
     0
1001
HATCH_TYPE
1070
     7
  0
LINE
  5
169B
  8
247
 10
-2.8407672565647308
 20
2.7623119354248038
 30
0.0
 11
-3.1302684467502782
 21
2.671022415161127
 31
0.0
1001
HATCH_DISTANCE
1040
1.0
1001
HATCH_DISPLAY
1070
     0
1001
HATCH_TYPE
1070
     7
  0
LINE
  5
169C
  8
247
 10
-2.233334179820019
 20
0.6867132900862316
 30
0.0
 11
-3.178021331903266
 21
1.6314004421694741
 31
0.0
  0
LINE
  5
169D
  8
247
 10
-1.7847728039110951
 20
0.5749115187173857
 30
0.0
 11
-3.158118533680748
 21
1.948257248487036
 31
0.0
  0
LINE
  5
169E
  8
247
 10
-1.4002961071881821
 20
0.5271944265346065
 30
0.0
 11
-2.388705980804501
 21
1.5156043001509261
 31
0.0
  0
LINE
  5
169F
  8
247
 10
-2.8394947940194011
 20
1.966393113365823
 30
0.0
 11
-3.0664772985541018
 21
2.1933756179005282
 31
0.0
  0
LINE
  5
16A0
  8
247
 10
-1.117109927643354
 20
0.5807678515299131
 30
0.0
 11
-1.9165598751903301
 21
1.3802177990768301
 31
0.0
  0
LINE
  5
16A1
  8
247
 10
-2.696097987594384
 20
2.159755911480941
 30
0.0
 11
-3.0680578001760632
 21
2.5317157240625638
 31
0.0
  0
LINE
  5
16A2
  8
247
 10
-0.8922196998783532
 20
0.6926372283049888
 30
0.0
 11
-1.4444137695761581
 21
1.244831298002735
 31
0.0
  0
LINE
  5
16A3
  8
247
 10
-2.7804711669083382
 20
2.5808886953349202
 30
0.0
 11
-2.8120318424898301
 21
2.61244937091646
 31
0.0
  0
LINE
  5
16A4
  8
247
 10
-0.7112748006721859
 20
0.8484519336388983
 30
0.0
 11
-1.0323132020055821
 21
1.1694903349722381
 31
0.0
  0
LINE
  5
16A5
  8
247
 10
-1.697525374240511
 20
1.8347025072072241
 30
0.0
 11
-2.0006564777561371
 21
2.1378336107228502
 31
0.0
  0
LINE
  5
16A6
  8
247
 10
-0.5717868958495842
 20
1.045723633356372
 30
0.0
 11
-0.8364735707222051
 21
1.310410308228938
 31
0.0
  0
LINE
  5
16A7
  8
247
 10
-1.4285840781436701
 20
1.902520815650514
 30
0.0
 11
-2.0006564777561371
 21
2.4745932152628711
 31
0.0
  0
LINE
  5
16A8
  8
247
 10
-0.4798095364548658
 20
1.2905058785017891
 30
0.0
 11
-0.8356904142846133
 21
1.646386756331478
 31
0.0
  0
LINE
  5
16A9
  8
247
 10
-0.9390685342908682
 20
1.7497648763377349
 30
0.0
 11
-1.84068457102404
 21
2.6513809130708519
 31
0.0
  0
LINE
  5
16AA
  8
247
 10
-0.4592935072027445
 20
1.606749453789688
 30
0.0
 11
-1.3685389256061731
 21
2.5159948721931178
 31
0.0
  0
LINE
  5
16AB
  8
247
 10
-0.6122124459759563
 20
2.096427997102976
 30
0.0
 11
-0.896393280188363
 21
2.3806088313153841
 31
0.0
  0
LINE
  5
16AC
  8
247
 10
-3.1828540485569188
 20
-0.0699062347412109
 30
0.0
 11
-3.1828540485569188
 21
0.7184543609619141
 31
0.0
  0
ARC
  5
16AD
  8
247
 10
-1.3880656879612141
 20
3.122285842895506
 30
0.0
 40
2.5780792236328121
 50
245.20517736984081
 51
262.79482596205179
  0
LINE
  5
16AE
  8
247
 10
-0.4546966474720194
 20
-0.0638294219970703
 30
0.0
 11
-3.1828540485569188
 21
0.7184543609619141
 31
0.0
  0
LINE
  5
16AF
  8
247
 10
-2.8494189899631688
 20
-0.1655216217041016
 30
0.0
 11
-3.1828540485569188
 21
-0.0699062347412109
 31
0.0
  0
LINE
  5
16B0
  8
247
 10
-2.8494189899631688
 20
-0.1655216217041016
 30
0.0
 11
-2.8494189899631688
 21
-0.0551433563232422
 31
0.0
  0
LINE
  5
16B1
  8
247
 10
-1.1941569965549641
 20
1.1730709075927701
 30
0.0
 11
-2.618866316623325
 21
1.581602096557617
 31
0.0
  0
LINE
  5
16B2
  8
247
 10
-2.7951854389377782
 20
2.6177616119384761
 30
0.0
 11
-3.084686629123325
 21
2.5264720916748038
 31
0.0
  0
ARC
  5
16B3
  8
247
 10
-1.591427199191684
 20
3.0767612457275368
 30
0.0
 40
1.288299322128293
 50
200.87218340207721
 51
222.54194893738699
  0
ARC
  5
16B4
  8
247
 10
-2.5311244648166831
 20
1.8875598907470701
 30
0.0
 40
0.3182875066995621
 50
91.710121382062837
 51
253.99839835444871
  0
ARC
  5
16B5
  8
247
 10
-1.591427199191684
 20
3.0767612457275368
 30
0.0
 40
1.591427564620969
 50
200.22964506331709
 51
208.5716889237174
  0
LINE
  5
16B6
  8
247
 10
-2.8407672565647308
 20
2.7623119354248038
 30
0.0
 11
-3.1302684467502782
 21
2.671022415161127
 31
0.0
  0
LINE
  5
16B7
  8
247
 10
-2.0006564777561371
 20
1.8142833709716779
 30
0.0
 11
-2.0006564777561371
 21
2.6972522735595681
 31
0.0
  0
LINE
  5
16B8
  8
247
 10
-0.4546966474720194
 20
2.2539539337158181
 30
0.0
 11
-2.0006564777561371
 21
2.6972522735595681
 31
0.0
  0
LINE
  5
16B9
  8
247
 10
-0.6325035017200662
 20
2.0761356353759761
 30
0.0
 11
-0.4546966474720194
 21
2.2539539337158181
 31
0.0
  0
LINE
  5
16BA
  8
247
 10
-1.697525374240511
 20
1.7273654937744141
 30
0.0
 11
-2.0006564777561371
 21
1.8142833709716779
 31
0.0
  0
LINE
  5
16BB
  8
247
 10
-1.697525374240511
 20
1.7273654937744141
 30
0.0
 11
-1.697525374240511
 21
1.9796390533447239
 31
0.0
  0
LINE
  5
16BC
  8
247
 10
-1.018696181125277
 20
1.7849864959716779
 30
0.0
 11
-1.697525374240511
 21
1.9796390533447239
 31
0.0
  0
ARC
  5
16BD
  8
247
 10
-1.1064265888401219
 20
1.4790287017822239
 30
0.0
 40
0.3182872831821442
 50
254.00027305718419
 51
74.000273057184273
  0
ARC
  5
16BE
  8
247
 10
-1.4398616474338699
 20
1.5115756988525391
 30
0.0
 40
0.9851760864257813
 50
253.9997507017284
 51
34.963873291627223
  0
LINE
  5
16BF
  8
247
 10
-1.5591265997503561
 20
-1.6712923126838151
 30
0.0
 11
-2.6438748073500729
 21
-0.5865441050841583
 31
0.0
  0
LINE
  5
16C0
  8
247
 10
-2.3618882196755631
 20
-1.2052902972988011
 30
0.0
 11
-2.8691488572415551
 21
-0.6980296597328107
 31
0.0
  0
ARC
  5
16C1
  8
247
 10
-2.4553416889377782
 20
-1.650266647338867
 30
0.0
 40
0.4546839594841006
 50
351.66260168792593
 51
156.3381550951899
  0
LINE
  5
16C2
  8
247
 10
-1.672076319909364
 20
-2.5686214061450978
 30
0.0
 11
-2.733161055462118
 21
-1.5075366705923441
 31
0.0
  0
LINE
  5
16C3
  8
247
 10
-2.1442215461264
 20
-2.4332357844681378
 30
0.0
 11
-3.1828540485568051
 21
-1.39460328203779
 31
0.0
  0
LINE
  5
16C4
  8
247
 10
-2.8717998643828082
 20
-1.467783521770796
 30
0.0
 11
-2.0054630203574102
 21
-1.7161960532857841
 31
0.0
  0
LINE
  5
16C5
  8
247
 10
-0.4546966474720194
 20
-2.917699813842658
 30
0.0
 11
-2.879722945040383
 21
-2.2223339080813931
 31
0.0
  0
LINE
  5
16C6
  8
247
 10
-2.6597950232401191
 20
-1.2441430982743209
 30
0.0
 11
-3.0377771067831532
 21
-0.8661610147312329
 31
0.0
  0
LINE
  5
16C7
  8
247
 10
-3.1828540485569188
 20
-2.2930927276609041
 30
0.0
 11
-3.1828540485568051
 21
-1.3152058504763311
 31
0.0
  0
LINE
  5
16C8
  8
247
 10
-2.8797229450412369
 20
-2.3712535946335711
 30
0.0
 11
-3.182854048556861
 21
-2.0681224911179461
 31
0.0
  0
LINE
  5
16C9
  8
247
 10
-2.616366772343496
 20
-2.2978501627911778
 30
0.0
 11
-3.1828540485568051
 21
-1.731362886577811
 31
0.0
  0
LINE
  5
16CA
  8
247
 10
-3.1828540485569188
 20
-2.2930927276609041
 30
0.0
 11
-2.8797229450412938
 21
-2.3800106048587391
 31
0.0
  0
LINE
  5
16CB
  8
247
 10
-2.8797229450412938
 20
-2.3800106048587391
 30
0.0
 11
-2.879722945040383
 21
-2.2223339080813931
 31
0.0
  0
LINE
  5
16CC
  8
247
 10
-3.1828540485569188
 20
-3.0767612457275368
 30
0.0
 11
-3.1828540485569188
 21
-2.4507579803466788
 31
0.0
  0
LINE
  5
16CD
  8
247
 10
-2.8797229450412938
 20
-3.0767612457275368
 30
0.0
 11
-2.8797229450412938
 21
-2.5376758575439431
 31
0.0
  0
LINE
  5
16CE
  8
247
 10
-3.1828540485569188
 20
-2.4507579803466788
 30
0.0
 11
-2.8797229450412938
 21
-2.5376758575439431
 31
0.0
  0
LINE
  5
16CF
  8
247
 10
-2.837221341631901
 20
-1.4034763844225591
 30
0.0
 11
-3.1498488212662319
 21
-1.090848904788231
 31
0.0
  0
LINE
  5
16D0
  8
247
 10
-0.4546966474719625
 20
-1.7654434513419801
 30
0.0
 11
-1.311675364830988
 21
-0.9084647339828958
 31
0.0
  0
LINE
  5
16D1
  8
247
 10
-1.339919845028759
 20
-1.553739462865336
 30
0.0
 11
-2.3338995209601872
 21
-0.5597597869339097
 31
0.0
  0
LINE
  5
16D2
  8
247
 10
-0.4546966474720194
 20
-2.1022030558820002
 30
0.0
 11
-1.566953587329692
 21
-0.9899461160243843
 31
0.0
  0
ARC
  5
16D3
  8
247
 10
-1.242828718967073
 20
-1.9979496002197239
 30
0.0
 40
0.4546969681978227
 50
351.66285421114878
 51
156.33819215911009
  0
LINE
  5
16D4
  8
247
 10
-0.4546966474720194
 20
-2.775722264962269
 30
0.0
 11
-1.316729054155644
 21
-1.9136898582785291
 31
0.0
  0
LINE
  5
16D5
  8
247
 10
-0.4546966474720194
 20
-2.917699813842658
 30
0.0
 11
-0.4546966474720194
 21
-1.659765243530273
 31
0.0
  0
LINE
  5
16D6
  8
247
 10
-0.4546966474720194
 20
-2.4389626604221339
 30
0.0
 11
-0.8445908038436298
 21
-2.0490685040505241
 31
0.0
  0
LINE
  5
16D7
  8
247
 10
-0.7277858674751772
 20
-2.8393926494991311
 30
0.0
 11
-2.010365338897655
 21
-1.556813178076595
 31
0.0
  0
LINE
  5
16D8
  8
247
 10
-1.19993109369227
 20
-2.7040070278221711
 30
0.0
 11
-2.261020297952085
 21
-1.642917823562243
 31
0.0
  0
LINE
  5
16D9
  8
247
 10
-1.659299511865524
 20
-1.8154628567264111
 30
0.0
 11
-0.7929369714238419
 21
-2.0638794749414711
 31
0.0
  0
LINE
  5
16DA
  8
247
 10
-0.5115142049841666
 20
-1.3718662892896389
 30
0.0
 11
-0.9246143655565219
 21
-0.9587661287173432
 31
0.0
  0
ARC
  5
16DB
  8
247
 10
-1.212513319797152
 20
-1.659765243530273
 30
0.0
 40
0.7578163146972659
 50
0.0
 51
130.32984065416969
  0
LINE
  5
16DC
  8
247
 10
0.0
 20
-3.0767612457275368
 30
0.0
 11
0.0
 21
3.0767612457275368
 31
0.0
  0
LINE
  5
16DD
  8
247
 10
-0.3031310957142068
 20
-3.0767612457275368
 30
0.0
 11
-0.3031310957142068
 21
3.0767612457275368
 31
0.0
  0
LINE
  5
16DE
  8
247
 10
-0.4546966474720194
 20
-0.7418231964111329
 30
0.0
 11
-2.8494189899631688
 21
-0.0551433563232422
 31
0.0
  0
LINE
  5
16DF
  8
247
 10
-0.4546966474720194
 20
-0.7418231964111329
 30
0.0
 11
-0.4546966474720194
 21
-0.0638294219970703
 31
0.0
  0
ARC
  5
16E0
  8
247
 10
-1.591427199191684
 20
-3.0767612457275368
 30
0.0
 40
1.288295745849606
 50
180.0
 51
0.0
  0
ARC
  5
16E1
  8
247
 10
-1.591427199191684
 20
-3.0767612457275368
 30
0.0
 40
1.591426849365233
 50
180.0
 51
0.0
  0
ARC
  5
16E2
  8
247
 10
-2.4250377338596532
 20
-1.3120822906494141
 30
0.0
 40
0.7578227519989014
 50
17.669577547397669
 51
180.2361598426715
  0
ARC
  5
16E3
  8
247
 10
-2.1976894062229331
 20
1.7288761138915989
 30
0.0
 40
0.9851660728454588
 50
143.4440121970604
 51
254.00018438768561
  0
ARC
  5
16E4
  8
247
 10
-1.591427199191684
 20
3.0767612457275368
 30
0.0
 40
1.288295745849606
 50
0.0
 51
194.12743649640839
  0
ARC
  5
16E5
  8
247
 10
-1.591427199191684
 20
3.0767612457275368
 30
0.0
 40
1.591426849365233
 50
0.0
 51
194.77079396609119
  0
ENDBLK
  5
16E6
  8
0
  0
BLOCK
  8
0
  2
A$C5D353142
 70
     0
 10
0.0
 20
0.0
 30
0.0
  3
A$C5D353142
  1

  0
LINE
  5
178D
  8
245
  6
CENTER2
 10
-93.243582850877146
 20
-0.0000000000004547
 30
0.0
 11
67.933006104536616
 21
-0.0000000000004547
 31
0.0
  0
LINE
  5
178E
  8
AM_5
 10
27.499999999996358
 20
10.499999999998179
 30
0.0
 11
24.974409909777261
 21
10.499999999998179
 31
0.0
  0
LINE
  5
178F
  8
AM_5
 10
27.499999999996358
 20
-10.500000000001821
 30
0.0
 11
24.974409909777251
 21
-10.500000000001821
 31
0.0
  0
LINE
  5
1790
  8
241
 10
41.999999999959982
 20
25.999999999997272
 30
0.0
 11
41.99999999996362
 21
-25.99999999999773
 31
0.0
  0
LINE
  5
1791
  8
245
  6
CENTER2
 10
-37.0
 20
2.999999999984083
 30
0.0
 11
-37.0
 21
-3.0000000000177351
 31
0.0
  0
LINE
  5
1792
  8
245
  6
CENTER2
 10
-66.000000000003624
 20
19.999999999979529
 30
0.0
 11
-66.000000000003624
 21
-20.000000000013191
 31
0.0
1001
GENIUS_GENOREF_13
1005
1825
  0
ARC
  5
1793
  8
240
 10
-9.0352653961454052
 20
26.699999999978449
 30
0.0
 40
0.2
 50
270.0
 51
289.9999999999892
1001
GENIUS_GENODEF_13
1002
{
1000
HIER
1070
     0
1002
}
1002
{
1000
MANEDIT
1070
     0
1002
}
1002
{
1000
NOSEL
1070
     0
1002
}
1002
{
1000
BEHIND
1070
     0
1002
}
1002
{
1000
OTHER
1070
     0
1002
}
1002
{
1000
REACTOR
1002
}
1001
GENIUS_GENOBJ-N-FIL_13
1002
{
1000
OWNER
1000
GEN
1002
}
  0
LINE
  5
1794
  8
240
 10
-18.000000000003642
 20
25.999999999983171
 30
0.0
 11
-18.000000000003642
 21
20.99999999998499
 31
0.0
  0
ARC
  5
1795
  8
240
 10
-17.500000000003642
 20
25.999999999983171
 30
0.0
 40
0.5
 50
90.0
 51
180.0
  0
LINE
  5
1796
  8
240
 10
-9.0352653961454052
 20
26.499999999977721
 30
0.0
 11
-17.500000000003642
 21
26.499999999983181
 31
0.0
  0
LINE
  5
1797
  8
241
 10
-9.0000000000036362
 20
20.19999999998026
 30
0.0
 11
-17.500000000003642
 21
20.19999999998026
 31
0.0
  0
LINE
  5
1798
  8
240
 10
-8.9668613674803055
 20
26.512061475821159
 30
0.0
 11
-7.7919544528922406
 21
26.93969262076417
 31
0.0
  0
ARC
  5
1799
  8
240
 10
-7.4499343095667419
 20
25.999999999977721
 30
0.0
 40
1.0
 50
90.0
 51
109.9999999999892
1001
GENIUS_GENODEF_13
1002
{
1000
HIER
1070
     0
1002
}
1002
{
1000
MANEDIT
1070
     0
1002
}
1002
{
1000
NOSEL
1070
     0
1002
}
1002
{
1000
BEHIND
1070
     0
1002
}
1002
{
1000
OTHER
1070
     0
1002
}
1002
{
1000
REACTOR
1002
}
1001
GENIUS_GENOBJ-N-FIL_13
1002
{
1000
OWNER
1000
GEN
1002
}
  0
LINE
  5
179A
  8
240
 10
-0.6356744903932851
 20
26.999999999994088
 30
0.0
 11
-7.4499343095667419
 21
26.999999999977721
 31
0.0
  0
LINE
  5
179B
  8
240
 10
-0.5085079428790778
 20
26.965925826268631
 30
0.0
 11
-0.6356744903932851
 21
26.999999999977721
 31
0.0
  0
LINE
  5
179C
  8
240
 10
-0.6356744903932851
 20
26.999999999977721
 30
0.0
 11
-1.8000000000065479
 21
26.99999999997954
 31
0.0
  0
ARC
  5
179D
  8
240
 10
-0.7673269879815053
 20
25.999999999977721
 30
0.0
 40
1.0
 50
14.999999999994451
 51
75.000000000005556
1001
GENIUS_GENOBJ-N-FIL_13
1002
{
1000
OWNER
1000
GEN
1002
}
1001
GENIUS_GENODEF_13
1002
{
1000
HIER
1070
     0
1002
}
1002
{
1000
MANEDIT
1070
     0
1002
}
1002
{
1000
NOSEL
1070
     0
1002
}
1002
{
1000
BEHIND
1070
     0
1002
}
1002
{
1000
OTHER
1070
     0
1002
}
1002
{
1000
REACTOR
1002
}
  0
LINE
  5
179E
  8
240
 10
-18.000000000003642
 20
19.699999999985721
 30
0.0
 11
-19.700000000004358
 21
19.699999999985721
 31
0.0
  0
LINE
  5
179F
  8
240
 10
-19.700000000004358
 20
19.699999999985721
 30
0.0
 11
-20.000000000003642
 21
19.99999999998499
 31
0.0
  0
ARC
  5
17A0
  8
240
 10
-18.000000000003642
 20
20.199999999985721
 30
0.0
 40
0.5
 50
270.0
 51
0.0
  0
LINE
  5
17A1
  8
240
 10
-17.500000000003642
 20
20.499999999981348
 30
0.0
 11
-17.500000000003642
 21
20.199999999985721
 31
0.0
  0
LINE
  5
17A2
  8
240
 10
-17.500000000003642
 20
20.499999999981348
 30
0.0
 11
-18.000000000003642
 21
20.99999999998499
 31
0.0
  0
LINE
  5
17A3
  8
240
 10
-51.50000000001819
 20
19.999999999983171
 30
0.0
 11
-45.19999999999709
 21
19.999999999981348
 31
0.0
  0
LINE
  5
17A4
  8
240
 10
-55.000000000021828
 20
16.499999999983171
 30
0.0
 11
-51.50000000001819
 21
19.999999999983171
 31
0.0
  0
LINE
  5
17A5
  8
240
 10
-55.000000000021828
 20
16.499999999983171
 30
0.0
 11
-66.000000000003624
 21
16.499999999983171
 31
0.0
  0
LINE
  5
17A6
  8
240
 10
-76.999999999989086
 20
16.499999999981348
 30
0.0
 11
-66.000000000003624
 21
16.49999999995589
 31
0.0
  0
LINE
  5
17A7
  8
240
 10
-76.999999999989086
 20
16.499999999981348
 30
0.0
 11
-80.499999999989086
 21
19.999999999981348
 31
0.0
  0
LINE
  5
17A8
  8
240
 10
-42.300000000010193
 20
19.999999999983171
 30
0.0
 11
-31.69999999999709
 21
19.99999999998499
 31
0.0
  0
LINE
  5
17A9
  8
240
 10
-28.800000000010179
 20
19.99999999998499
 30
0.0
 11
-20.000000000003642
 21
19.99999999998499
 31
0.0
  0
CIRCLE
  5
17AA
  8
241
 10
-37.0
 20
-0.0000000000168257
 30
0.0
 40
3.0000000000009091
  0
LINE
  5
17AB
  8
241
 10
-20.000000000003642
 20
19.99999999998499
 30
0.0
 11
-20.000000000003642
 21
-20.000000000018652
 31
0.0
  0
ARC
  5
17AC
  8
240
 10
-9.0352653961454052
 20
-26.7000000000121
 30
0.0
 40
0.2
 50
70.000000000010758
 51
90.0
1001
GENIUS_GENODEF_13
1002
{
1000
HIER
1070
     0
1002
}
1002
{
1000
MANEDIT
1070
     0
1002
}
1002
{
1000
NOSEL
1070
     0
1002
}
1002
{
1000
BEHIND
1070
     0
1002
}
1002
{
1000
OTHER
1070
     0
1002
}
1002
{
1000
REACTOR
1002
}
1001
GENIUS_GENOBJ-N-FIL_13
1002
{
1000
OWNER
1000
GEN
1002
}
  0
LINE
  5
17AD
  8
240
 10
-18.000000000003642
 20
-26.000000000016829
 30
0.0
 11
-18.000000000003642
 21
-21.000000000018641
 31
0.0
  0
ARC
  5
17AE
  8
240
 10
-17.500000000003642
 20
-26.000000000016829
 30
0.0
 40
0.5
 50
180.0
 51
270.0
  0
LINE
  5
17AF
  8
240
 10
-9.0352653961454052
 20
-26.500000000011369
 30
0.0
 11
-17.500000000003642
 21
-26.500000000016829
 31
0.0
  0
LINE
  5
17B0
  8
241
 10
-9.0000000000036362
 20
26.49999999997954
 30
0.0
 11
-9.0000000000036362
 21
-26.500000000013191
 31
0.0
  0
LINE
  5
17B1
  8
241
 10
-9.0000000000036362
 20
-20.200000000013919
 30
0.0
 11
-17.500000000003642
 21
-20.200000000013919
 31
0.0
  0
LINE
  5
17B2
  8
240
 10
-8.9668613674803055
 20
-26.512061475854811
 30
0.0
 11
-7.7919544528922406
 21
-26.93969262079781
 31
0.0
  0
ARC
  5
17B3
  8
240
 10
-7.4499343095667419
 20
-26.000000000011369
 30
0.0
 40
1.0
 50
250.0000000000108
 51
270.0
1001
GENIUS_GENODEF_13
1002
{
1000
HIER
1070
     0
1002
}
1002
{
1000
MANEDIT
1070
     0
1002
}
1002
{
1000
NOSEL
1070
     0
1002
}
1002
{
1000
BEHIND
1070
     0
1002
}
1002
{
1000
OTHER
1070
     0
1002
}
1002
{
1000
REACTOR
1002
}
1001
GENIUS_GENOBJ-N-FIL_13
1002
{
1000
OWNER
1000
GEN
1002
}
  0
LINE
  5
17B4
  8
240
 10
-0.6356744903932851
 20
-26.999999999994539
 30
0.0
 11
-7.4499343095667419
 21
-27.000000000011369
 31
0.0
  0
LINE
  5
17B5
  8
240
 10
-18.000000000003642
 20
-19.700000000019369
 30
0.0
 11
-19.700000000004358
 21
-19.700000000019369
 31
0.0
  0
LINE
  5
17B6
  8
240
 10
-19.700000000004358
 20
-19.700000000019369
 30
0.0
 11
-20.000000000003642
 21
-20.000000000018652
 31
0.0
  0
ARC
  5
17B7
  8
240
 10
-18.000000000003642
 20
-20.200000000019369
 30
0.0
 40
0.5
 50
0.0
 51
90.0
  0
LINE
  5
17B8
  8
240
 10
-17.500000000003642
 20
-20.50000000001501
 30
0.0
 11
-17.500000000003642
 21
-20.200000000019369
 31
0.0
  0
LINE
  5
17B9
  8
240
 10
-17.500000000003642
 20
-20.50000000001501
 30
0.0
 11
-18.000000000003642
 21
-21.000000000018641
 31
0.0
  0
LINE
  5
17BA
  8
240
 10
-51.50000000001819
 20
-20.000000000016829
 30
0.0
 11
-45.19999999999709
 21
-20.00000000001501
 31
0.0
  0
LINE
  5
17BB
  8
243
 10
-72.000000000001819
 20
-16.500000000003642
 30
0.0
 11
-72.000000000005457
 21
16.49999999996999
 31
0.0
  0
LINE
  5
17BC
  8
243
 10
-60.000000000021828
 20
-16.500000000016819
 30
0.0
 11
-60.000000000014552
 21
16.499999999983171
 31
0.0
  0
LINE
  5
17BD
  8
240
 10
-55.000000000021828
 20
-16.500000000016819
 30
0.0
 11
-51.50000000001819
 21
-20.000000000016829
 31
0.0
  0
LINE
  5
17BE
  8
240
 10
-55.000000000021828
 20
-16.500000000016819
 30
0.0
 11
-66.000000000003624
 21
-16.500000000016819
 31
0.0
  0
LINE
  5
17BF
  8
240
 10
-76.999999999989086
 20
-16.500000000015
 30
0.0
 11
-66.000000000003624
 21
-16.499999999989541
 31
0.0
  0
LINE
  5
17C0
  8
240
 10
-76.999999999989086
 20
-16.500000000015
 30
0.0
 11
-80.499999999989086
 21
-20.00000000001501
 31
0.0
  0
LINE
  5
17C1
  8
240
 10
-42.300000000010193
 20
-20.000000000016829
 30
0.0
 11
-31.69999999999709
 21
-20.000000000018652
 31
0.0
  0
LINE
  5
17C2
  8
240
 10
-28.800000000010179
 20
-20.000000000018652
 30
0.0
 11
-20.000000000003642
 21
-20.000000000018652
 31
0.0
  0
LINE
  5
17C3
  8
241
 10
-7.6262612902773981
 20
-27.000000000010921
 30
0.0
 11
-7.6262612902773981
 21
26.999999999977259
 31
0.0
  0
LINE
  5
17C4
  8
241
 10
-18.000000000005461
 20
-19.700000000018921
 30
0.0
 11
-18.000000000001819
 21
19.699999999985259
 31
0.0
  0
LINE
  5
17C5
  8
241
 10
0.2947441116739355
 20
25.899999999996002
 30
0.0
 11
0.2947441116739355
 21
-25.899999999996449
 31
0.0
  0
LINE
  5
17C6
  8
244
 10
3.999999999996362
 20
-0.0000000000004547
 30
0.0
 11
3.999999999996362
 21
10.49999999999954
 31
0.0
  0
LINE
  5
17C7
  8
244
 10
3.999999999996362
 20
10.49999999999954
 30
0.0
 11
27.999999999996369
 21
10.49999999999954
 31
0.0
  0
LINE
  5
17C8
  8
244
 10
31.499999999996358
 20
13.99999999999954
 30
0.0
 11
64.999999999998394
 21
13.99999999999954
 31
0.0
  0
LINE
  5
17C9
  8
244
 10
27.999999999996369
 20
10.49999999999954
 30
0.0
 11
31.499999999996358
 21
13.99999999999954
 31
0.0
  0
LINE
  5
17CA
  8
244
 10
27.999999999996369
 20
-10.500000000000449
 30
0.0
 11
31.499999999996358
 21
-14.000000000000449
 31
0.0
  0
LINE
  5
17CB
  8
244
 10
31.499999999996358
 20
-14.000000000000449
 30
0.0
 11
64.999999999998408
 21
-14.000000000000449
 31
0.0
  0
LINE
  5
17CC
  8
244
 10
3.999999999996362
 20
-10.500000000000449
 30
0.0
 11
27.999999999996369
 21
-10.500000000000449
 31
0.0
  0
LINE
  5
17CD
  8
244
 10
3.999999999996362
 20
-0.0000000000004547
 30
0.0
 11
3.999999999996362
 21
-10.500000000000449
 31
0.0
  0
LINE
  5
17CE
  8
244
 10
27.999999999996369
 20
10.49999999999954
 30
0.0
 11
27.999999999996369
 21
-0.0000000000004547
 31
0.0
  0
LINE
  5
17CF
  8
244
 10
27.999999999996369
 20
-10.500000000000449
 30
0.0
 11
27.999999999996369
 21
-0.0000000000004547
 31
0.0
  0
LINE
  5
17D0
  8
240
 10
4.1000000000058199
 20
26.00000000000318
 30
0.0
 11
37.399999999954161
 21
25.999999999998639
 31
0.0
  0
LINE
  5
17D1
  8
240
 10
0.1985988383094082
 20
26.258819045098338
 30
0.0
 11
0.2550243440127815
 21
26.048236190975331
 31
0.0
  0
LINE
  5
17D2
  8
240
 10
4.0
 20
25.89999999999554
 30
0.0
 11
0.4482095092698728
 21
25.899999999996002
 31
0.0
  0
LINE
  5
17D3
  8
240
 10
4.0
 20
25.89999999999554
 30
0.0
 11
4.1000000000003629
 21
25.999999999995911
 31
0.0
  0
LINE
  5
17D4
  8
240
 10
-0.5085079428790778
 20
26.965925826285002
 30
0.0
 11
-0.6356744903932851
 21
26.999999999994088
 31
0.0
  0
ARC
  5
17D5
  8
240
 10
64.0
 20
24.999999999995911
 30
0.0
 40
1.0
 50
0.0
 51
90.0
1001
GENIUS_GENOBJ-N-FIL_13
1002
{
1000
OWNER
1000
GEN
1002
}
1001
GENIUS_GENODEF_13
1002
{
1000
HIER
1070
     0
1002
}
1002
{
1000
MANEDIT
1070
     0
1002
}
1002
{
1000
NOSEL
1070
     0
1002
}
1002
{
1000
BEHIND
1070
     0
1002
}
1002
{
1000
OTHER
1070
     0
1002
}
1002
{
1000
REACTOR
1002
}
  0
CIRCLE
  5
17D6
  8
241
 10
16.0
 20
-0.0000000000004547
 30
0.0
 40
4.2500000000018181
  0
CIRCLE
  5
17D7
  8
242
 10
16.0
 20
-0.0000000000004547
 30
0.0
 40
4.9999999999990896
  0
LINE
  5
17D8
  8
245
  6
CENTER2
 10
16.0
 20
4.9999999999986349
 30
0.0
 11
16.0
 21
-4.9999999999995453
 31
0.0
  0
LINE
  5
17D9
  8
240
 10
41.999999999959982
 20
25.999999999997272
 30
0.0
 11
64.0
 21
25.999999999995911
 31
0.0
  0
ARC
  5
17DA
  8
240
 10
0.4482095092698728
 20
26.09999999999582
 30
0.0
 40
0.2
 50
195.00000000001961
 51
270.0
1001
GENIUS_GENODEF_13
1002
{
1000
HIER
1070
     0
1002
}
1002
{
1000
MANEDIT
1070
     0
1002
}
1002
{
1000
NOSEL
1070
     0
1002
}
1002
{
1000
BEHIND
1070
     0
1002
}
1002
{
1000
OTHER
1070
     0
1002
}
1002
{
1000
REACTOR
1002
}
1001
GENIUS_GENOBJ-N-FIL_13
1002
{
1000
OWNER
1000
GEN
1002
}
  0
LINE
  5
17DB
  8
241
 10
40.399999999954161
 20
-25.999999999998181
 30
0.0
 11
40.399999999954161
 21
25.99999999999773
 31
0.0
  0
LINE
  5
17DC
  8
241
 10
38.999999999959982
 20
-25.99999999999773
 30
0.0
 11
38.99999999996362
 21
25.999999999997272
 31
0.0
  0
LINE
  5
17DD
  8
241
 10
37.399999999954161
 20
-25.999999999998639
 30
0.0
 11
37.399999999954161
 21
25.999999999998181
 31
0.0
  0
LINE
  5
17DE
  8
240
 10
-0.5085079428790778
 20
-26.965925826269089
 30
0.0
 11
-0.6356744903932851
 21
-26.999999999978169
 31
0.0
  0
LINE
  5
17DF
  8
240
 10
-0.6356744903932851
 20
-26.999999999978169
 30
0.0
 11
-1.8000000000065479
 21
-26.999999999979991
 31
0.0
  0
ARC
  5
17E0
  8
240
 10
-0.7673269879815053
 20
-25.999999999978169
 30
0.0
 40
1.0
 50
284.99999999999437
 51
345.00000000000563
1001
GENIUS_GENOBJ-N-FIL_13
1002
{
1000
OWNER
1000
GEN
1002
}
1001
GENIUS_GENODEF_13
1002
{
1000
HIER
1070
     0
1002
}
1002
{
1000
MANEDIT
1070
     0
1002
}
1002
{
1000
NOSEL
1070
     0
1002
}
1002
{
1000
BEHIND
1070
     0
1002
}
1002
{
1000
OTHER
1070
     0
1002
}
1002
{
1000
REACTOR
1002
}
  0
LINE
  5
17E1
  8
241
 10
0.0
 20
-26.641256028032331
 30
0.0
 11
0.0
 21
26.641256028031421
 31
0.0
  0
LINE
  5
17E2
  8
241
 10
3.999999999996362
 20
-25.899999999996002
 30
0.0
 11
3.999999999996362
 21
25.89999999999554
 31
0.0
  0
LINE
  5
17E3
  8
240
 10
4.1000000000058199
 20
-26.000000000003642
 30
0.0
 11
37.399999999954161
 21
-25.999999999999091
 31
0.0
  0
LINE
  5
17E4
  8
240
 10
64.999999999992724
 20
24.999999999995911
 30
0.0
 11
65.0
 21
-24.999999999996358
 31
0.0
  0
LINE
  5
17E5
  8
240
 10
0.1985988383094082
 20
-26.25881904509879
 30
0.0
 11
0.2550243440127815
 21
-26.048236190975789
 31
0.0
  0
LINE
  5
17E6
  8
240
 10
4.0
 20
-25.899999999996002
 30
0.0
 11
0.4482095092698728
 21
-25.899999999996449
 31
0.0
  0
LINE
  5
17E7
  8
240
 10
4.0
 20
-25.899999999996002
 30
0.0
 11
4.1000000000003629
 21
-25.999999999996358
 31
0.0
  0
LINE
  5
17E8
  8
240
 10
-0.5085079428790778
 20
-26.96592582628546
 30
0.0
 11
-0.6356744903932851
 21
-26.999999999994539
 31
0.0
  0
ARC
  5
17E9
  8
240
 10
64.0
 20
-24.999999999996358
 30
0.0
 40
1.0
 50
270.0
 51
0.0
1001
GENIUS_GENOBJ-N-FIL_13
1002
{
1000
OWNER
1000
GEN
1002
}
1001
GENIUS_GENODEF_13
1002
{
1000
HIER
1070
     0
1002
}
1002
{
1000
MANEDIT
1070
     0
1002
}
1002
{
1000
NOSEL
1070
     0
1002
}
1002
{
1000
BEHIND
1070
     0
1002
}
1002
{
1000
OTHER
1070
     0
1002
}
1002
{
1000
REACTOR
1002
}
  0
LINE
  5
17EA
  8
240
 10
41.999999999959982
 20
-25.99999999999773
 30
0.0
 11
64.0
 21
-25.999999999996358
 31
0.0
  0
ARC
  5
17EB
  8
240
 10
0.4482095092698728
 20
-26.099999999996271
 30
0.0
 40
0.2
 50
90.0
 51
164.9999999999803
1001
GENIUS_GENODEF_13
1002
{
1000
HIER
1070
     0
1002
}
1002
{
1000
MANEDIT
1070
     0
1002
}
1002
{
1000
NOSEL
1070
     0
1002
}
1002
{
1000
BEHIND
1070
     0
1002
}
1002
{
1000
OTHER
1070
     0
1002
}
1002
{
1000
REACTOR
1002
}
1001
GENIUS_GENOBJ-N-FIL_13
1002
{
1000
OWNER
1000
GEN
1002
}
  0
LINE
  5
17EC
  8
245
  6
CENTER2
 10
50.0
 20
21.555704683856678
 30
0.0
 11
50.0
 21
14.48463687199137
 31
0.0
  0
POLYLINE
  5
17ED
  8
241
 10
45.75
 20
18.122129920893709
 30
0.0
 66
     1
 70
     8
  0
VERTEX
  8
241
  5
1922
 10
45.7500
 20
18.1221
 30
0.000000
  70
    32
  0
VERTEX
  8
241
  5
1923
 10
45.7551
 20
17.9747
 30
0.000000
  70
    32
  0
VERTEX
  8
241
  5
1924
 10
45.7705
 20
17.8276
 30
0.000000
  70
    32
  0
VERTEX
  8
241
  5
1925
 10
45.7960
 20
17.6812
 30
0.000000
  70
    32
  0
VERTEX
  8
241
  5
1926
 10
45.8317
 20
17.5358
 30
0.000000
  70
    32
  0
VERTEX
  8
241
  5
1927
 10
45.8774
 20
17.3919
 30
0.000000
  70
    32
  0
VERTEX
  8
241
  5
1928
 10
45.9330
 20
17.2498
 30
0.000000
  70
    32
  0
VERTEX
  8
241
  5
1929
 10
45.9984
 20
17.1097
 30
0.000000
  70
    32
  0
VERTEX
  8
241
  5
192A
 10
46.0735
 20
16.9721
 30
0.000000
  70
    32
  0
VERTEX
  8
241
  5
192B
 10
46.1580
 20
16.8372
 30
0.000000
  70
    32
  0
VERTEX
  8
241
  5
192C
 10
46.2518
 20
16.7055
 30
0.000000
  70
    32
  0
VERTEX
  8
241
  5
192D
 10
46.3547
 20
16.5771
 30
0.000000
  70
    32
  0
VERTEX
  8
241
  5
192E
 10
46.4663
 20
16.4525
 30
0.000000
  70
    32
  0
VERTEX
  8
241
  5
192F
 10
46.5864
 20
16.3319
 30
0.000000
  70
    32
  0
VERTEX
  8
241
  5
1930
 10
46.7147
 20
16.2156
 30
0.000000
  70
    32
  0
VERTEX
  8
241
  5
1931
 10
46.8510
 20
16.1040
 30
0.000000
  70
    32
  0
VERTEX
  8
241
  5
1932
 10
46.9948
 20
15.9971
 30
0.000000
  70
    32
  0
VERTEX
  8
241
  5
1933
 10
47.1459
 20
15.8954
 30
0.000000
  70
    32
  0
VERTEX
  8
241
  5
1934
 10
47.3038
 20
15.7991
 30
0.000000
  70
    32
  0
VERTEX
  8
241
  5
1935
 10
47.4683
 20
15.7083
 30
0.000000
  70
    32
  0
VERTEX
  8
241
  5
1936
 10
47.6388
 20
15.6234
 30
0.000000
  70
    32
  0
VERTEX
  8
241
  5
1937
 10
47.8151
 20
15.5445
 30
0.000000
  70
    32
  0
VERTEX
  8
241
  5
1938
 10
47.9966
 20
15.4718
 30
0.000000
  70
    32
  0
VERTEX
  8
241
  5
1939
 10
48.1829
 20
15.4055
 30
0.000000
  70
    32
  0
VERTEX
  8
241
  5
193A
 10
48.3736
 20
15.3457
 30
0.000000
  70
    32
  0
VERTEX
  8
241
  5
193B
 10
48.5682
 20
15.2926
 30
0.000000
  70
    32
  0
VERTEX
  8
241
  5
193C
 10
48.7663
 20
15.2463
 30
0.000000
  70
    32
  0
VERTEX
  8
241
  5
193D
 10
48.9673
 20
15.2070
 30
0.000000
  70
    32
  0
VERTEX
  8
241
  5
193E
 10
49.1709
 20
15.1747
 30
0.000000
  70
    32
  0
VERTEX
  8
241
  5
193F
 10
49.3764
 20
15.1495
 30
0.000000
  70
    32
  0
VERTEX
  8
241
  5
1940
 10
49.5834
 20
15.1314
 30
0.000000
  70
    32
  0
VERTEX
  8
241
  5
1941
 10
49.7915
 20
15.1205
 30
0.000000
  70
    32
  0
VERTEX
  8
241
  5
1942
 10
50.0000
 20
15.1169
 30
0.000000
  70
    32
  0
VERTEX
  8
241
  5
1943
 10
50.2085
 20
15.1205
 30
0.000000
  70
    32
  0
VERTEX
  8
241
  5
1944
 10
50.4166
 20
15.1314
 30
0.000000
  70
    32
  0
VERTEX
  8
241
  5
1945
 10
50.6236
 20
15.1495
 30
0.000000
  70
    32
  0
VERTEX
  8
241
  5
1946
 10
50.8291
 20
15.1747
 30
0.000000
  70
    32
  0
VERTEX
  8
241
  5
1947
 10
51.0327
 20
15.2070
 30
0.000000
  70
    32
  0
VERTEX
  8
241
  5
1948
 10
51.2337
 20
15.2463
 30
0.000000
  70
    32
  0
VERTEX
  8
241
  5
1949
 10
51.4318
 20
15.2926
 30
0.000000
  70
    32
  0
VERTEX
  8
241
  5
194A
 10
51.6264
 20
15.3457
 30
0.000000
  70
    32
  0
VERTEX
  8
241
  5
194B
 10
51.8171
 20
15.4055
 30
0.000000
  70
    32
  0
VERTEX
  8
241
  5
194C
 10
52.0034
 20
15.4718
 30
0.000000
  70
    32
  0
VERTEX
  8
241
  5
194D
 10
52.1849
 20
15.5445
 30
0.000000
  70
    32
  0
VERTEX
  8
241
  5
194E
 10
52.3612
 20
15.6234
 30
0.000000
  70
    32
  0
VERTEX
  8
241
  5
194F
 10
52.5317
 20
15.7083
 30
0.000000
  70
    32
  0
VERTEX
  8
241
  5
1950
 10
52.6962
 20
15.7991
 30
0.000000
  70
    32
  0
VERTEX
  8
241
  5
1951
 10
52.8541
 20
15.8954
 30
0.000000
  70
    32
  0
VERTEX
  8
241
  5
1952
 10
53.0052
 20
15.9971
 30
0.000000
  70
    32
  0
VERTEX
  8
241
  5
1953
 10
53.1490
 20
16.1040
 30
0.000000
  70
    32
  0
VERTEX
  8
241
  5
1954
 10
53.2853
 20
16.2156
 30
0.000000
  70
    32
  0
VERTEX
  8
241
  5
1955
 10
53.4136
 20
16.3319
 30
0.000000
  70
    32
  0
VERTEX
  8
241
  5
1956
 10
53.5337
 20
16.4525
 30
0.000000
  70
    32
  0
VERTEX
  8
241
  5
1957
 10
53.6453
 20
16.5771
 30
0.000000
  70
    32
  0
VERTEX
  8
241
  5
1958
 10
53.7482
 20
16.7055
 30
0.000000
  70
    32
  0
VERTEX
  8
241
  5
1959
 10
53.8420
 20
16.8372
 30
0.000000
  70
    32
  0
VERTEX
  8
241
  5
195A
 10
53.9265
 20
16.9721
 30
0.000000
  70
    32
  0
VERTEX
  8
241
  5
195B
 10
54.0016
 20
17.1097
 30
0.000000
  70
    32
  0
VERTEX
  8
241
  5
195C
 10
54.0670
 20
17.2498
 30
0.000000
  70
    32
  0
VERTEX
  8
241
  5
195D
 10
54.1226
 20
17.3919
 30
0.000000
  70
    32
  0
VERTEX
  8
241
  5
195E
 10
54.1683
 20
17.5358
 30
0.000000
  70
    32
  0
VERTEX
  8
241
  5
195F
 10
54.2040
 20
17.6812
 30
0.000000
  70
    32
  0
VERTEX
  8
241
  5
1960
 10
54.2295
 20
17.8276
 30
0.000000
  70
    32
  0
VERTEX
  8
241
  5
1961
 10
54.2449
 20
17.9747
 30
0.000000
  70
    32
  0
VERTEX
  8
241
  5
1962
 10
54.2500
 20
18.1221
 30
0.000000
  70
    32
  0
VERTEX
  8
241
  5
1963
 10
54.2449
 20
18.2696
 30
0.000000
  70
    32
  0
VERTEX
  8
241
  5
1964
 10
54.2295
 20
18.4167
 30
0.000000
  70
    32
  0
VERTEX
  8
241
  5
1965
 10
54.2040
 20
18.5631
 30
0.000000
  70
    32
  0
VERTEX
  8
241
  5
1966
 10
54.1683
 20
18.7084
 30
0.000000
  70
    32
  0
VERTEX
  8
241
  5
1967
 10
54.1226
 20
18.8523
 30
0.000000
  70
    32
  0
VERTEX
  8
241
  5
1968
 10
54.0670
 20
18.9945
 30
0.000000
  70
    32
  0
VERTEX
  8
241
  5
1969
 10
54.0016
 20
19.1346
 30
0.000000
  70
    32
  0
VERTEX
  8
241
  5
196A
 10
53.9265
 20
19.2722
 30
0.000000
  70
    32
  0
VERTEX
  8
241
  5
196B
 10
53.8420
 20
19.4070
 30
0.000000
  70
    32
  0
VERTEX
  8
241
  5
196C
 10
53.7482
 20
19.5388
 30
0.000000
  70
    32
  0
VERTEX
  8
241
  5
196D
 10
53.6453
 20
19.6671
 30
0.000000
  70
    32
  0
VERTEX
  8
241
  5
196E
 10
53.5337
 20
19.7917
 30
0.000000
  70
    32
  0
VERTEX
  8
241
  5
196F
 10
53.4136
 20
19.9123
 30
0.000000
  70
    32
  0
VERTEX
  8
241
  5
1970
 10
53.2853
 20
20.0286
 30
0.000000
  70
    32
  0
VERTEX
  8
241
  5
1971
 10
53.1490
 20
20.1403
 30
0.000000
  70
    32
  0
VERTEX
  8
241
  5
1972
 10
53.0052
 20
20.2471
 30
0.000000
  70
    32
  0
VERTEX
  8
241
  5
1973
 10
52.8541
 20
20.3488
 30
0.000000
  70
    32
  0
VERTEX
  8
241
  5
1974
 10
52.6962
 20
20.4452
 30
0.000000
  70
    32
  0
VERTEX
  8
241
  5
1975
 10
52.5317
 20
20.5359
 30
0.000000
  70
    32
  0
VERTEX
  8
241
  5
1976
 10
52.3612
 20
20.6209
 30
0.000000
  70
    32
  0
VERTEX
  8
241
  5
1977
 10
52.1849
 20
20.6998
 30
0.000000
  70
    32
  0
VERTEX
  8
241
  5
1978
 10
52.0034
 20
20.7725
 30
0.000000
  70
    32
  0
VERTEX
  8
241
  5
1979
 10
51.8171
 20
20.8388
 30
0.000000
  70
    32
  0
VERTEX
  8
241
  5
197A
 10
51.6264
 20
20.8986
 30
0.000000
  70
    32
  0
VERTEX
  8
241
  5
197B
 10
51.4318
 20
20.9517
 30
0.000000
  70
    32
  0
VERTEX
  8
241
  5
197C
 10
51.2337
 20
20.9979
 30
0.000000
  70
    32
  0
VERTEX
  8
241
  5
197D
 10
51.0327
 20
21.0373
 30
0.000000
  70
    32
  0
VERTEX
  8
241
  5
197E
 10
50.8291
 20
21.0696
 30
0.000000
  70
    32
  0
VERTEX
  8
241
  5
197F
 10
50.6236
 20
21.0948
 30
0.000000
  70
    32
  0
VERTEX
  8
241
  5
1980
 10
50.4166
 20
21.1129
 30
0.000000
  70
    32
  0
VERTEX
  8
241
  5
1981
 10
50.2085
 20
21.1237
 30
0.000000
  70
    32
  0
VERTEX
  8
241
  5
1982
 10
50.0000
 20
21.1273
 30
0.000000
  70
    32
  0
VERTEX
  8
241
  5
1983
 10
49.7915
 20
21.1237
 30
0.000000
  70
    32
  0
VERTEX
  8
241
  5
1984
 10
49.5834
 20
21.1129
 30
0.000000
  70
    32
  0
VERTEX
  8
241
  5
1985
 10
49.3764
 20
21.0948
 30
0.000000
  70
    32
  0
VERTEX
  8
241
  5
1986
 10
49.1709
 20
21.0696
 30
0.000000
  70
    32
  0
VERTEX
  8
241
  5
1987
 10
48.9673
 20
21.0373
 30
0.000000
  70
    32
  0
VERTEX
  8
241
  5
1988
 10
48.7663
 20
20.9979
 30
0.000000
  70
    32
  0
VERTEX
  8
241
  5
1989
 10
48.5682
 20
20.9517
 30
0.000000
  70
    32
  0
VERTEX
  8
241
  5
198A
 10
48.3736
 20
20.8986
 30
0.000000
  70
    32
  0
VERTEX
  8
241
  5
198B
 10
48.1829
 20
20.8388
 30
0.000000
  70
    32
  0
VERTEX
  8
241
  5
198C
 10
47.9966
 20
20.7725
 30
0.000000
  70
    32
  0
VERTEX
  8
241
  5
198D
 10
47.8151
 20
20.6998
 30
0.000000
  70
    32
  0
VERTEX
  8
241
  5
198E
 10
47.6388
 20
20.6209
 30
0.000000
  70
    32
  0
VERTEX
  8
241
  5
198F
 10
47.4683
 20
20.5359
 30
0.000000
  70
    32
  0
VERTEX
  8
241
  5
1990
 10
47.3038
 20
20.4452
 30
0.000000
  70
    32
  0
VERTEX
  8
241
  5
1991
 10
47.1459
 20
20.3488
 30
0.000000
  70
    32
  0
VERTEX
  8
241
  5
1992
 10
46.9948
 20
20.2471
 30
0.000000
  70
    32
  0
VERTEX
  8
241
  5
1993
 10
46.8510
 20
20.1403
 30
0.000000
  70
    32
  0
VERTEX
  8
241
  5
1994
 10
46.7147
 20
20.0286
 30
0.000000
  70
    32
  0
VERTEX
  8
241
  5
1995
 10
46.5864
 20
19.9123
 30
0.000000
  70
    32
  0
VERTEX
  8
241
  5
1996
 10
46.4663
 20
19.7917
 30
0.000000
  70
    32
  0
VERTEX
  8
241
  5
1997
 10
46.3547
 20
19.6671
 30
0.000000
  70
    32
  0
VERTEX
  8
241
  5
1998
 10
46.2518
 20
19.5388
 30
0.000000
  70
    32
  0
VERTEX
  8
241
  5
1999
 10
46.1580
 20
19.4070
 30
0.000000
  70
    32
  0
VERTEX
  8
241
  5
199A
 10
46.0735
 20
19.2722
 30
0.000000
  70
    32
  0
VERTEX
  8
241
  5
199B
 10
45.9984
 20
19.1346
 30
0.000000
  70
    32
  0
VERTEX
  8
241
  5
199C
 10
45.9330
 20
18.9945
 30
0.000000
  70
    32
  0
VERTEX
  8
241
  5
199D
 10
45.8774
 20
18.8523
 30
0.000000
  70
    32
  0
VERTEX
  8
241
  5
199E
 10
45.8317
 20
18.7084
 30
0.000000
  70
    32
  0
VERTEX
  8
241
  5
199F
 10
45.7960
 20
18.5631
 30
0.000000
  70
    32
  0
VERTEX
  8
241
  5
19A0
 10
45.7705
 20
18.4167
 30
0.000000
  70
    32
  0
VERTEX
  8
241
  5
19A1
 10
45.7551
 20
18.2696
 30
0.000000
  70
    32
  0
VERTEX
  8
241
  5
19A2
 10
45.7500
 20
18.1221
 30
0.000000
  70
    32
  0
SEQEND
  8
241
  5
19A3
  0
POLYLINE
  5
17EE
  8
242
 10
45.0
 20
18.02017077792425
 30
0.0
 66
     1
 70
     8
  0
VERTEX
  8
242
  5
19A4
 10
45.0000
 20
18.0202
 30
0.000000
  70
    32
  0
VERTEX
  8
242
  5
19A5
 10
45.0060
 20
17.8467
 30
0.000000
  70
    32
  0
VERTEX
  8
242
  5
19A6
 10
45.0241
 20
17.6736
 30
0.000000
  70
    32
  0
VERTEX
  8
242
  5
19A7
 10
45.0541
 20
17.5014
 30
0.000000
  70
    32
  0
VERTEX
  8
242
  5
19A8
 10
45.0961
 20
17.3304
 30
0.000000
  70
    32
  0
VERTEX
  8
242
  5
19A9
 10
45.1498
 20
17.1611
 30
0.000000
  70
    32
  0
VERTEX
  8
242
  5
19AA
 10
45.2153
 20
16.9939
 30
0.000000
  70
    32
  0
VERTEX
  8
242
  5
19AB
 10
45.2923
 20
16.8291
 30
0.000000
  70
    32
  0
VERTEX
  8
242
  5
19AC
 10
45.3806
 20
16.6672
 30
0.000000
  70
    32
  0
VERTEX
  8
242
  5
19AD
 10
45.4801
 20
16.5085
 30
0.000000
  70
    32
  0
VERTEX
  8
242
  5
19AE
 10
45.5904
 20
16.3535
 30
0.000000
  70
    32
  0
VERTEX
  8
242
  5
19AF
 10
45.7114
 20
16.2025
 30
0.000000
  70
    32
  0
VERTEX
  8
242
  5
19B0
 10
45.8427
 20
16.0559
 30
0.000000
  70
    32
  0
VERTEX
  8
242
  5
19B1
 10
45.9840
 20
15.9141
 30
0.000000
  70
    32
  0
VERTEX
  8
242
  5
19B2
 10
46.1349
 20
15.7773
 30
0.000000
  70
    32
  0
VERTEX
  8
242
  5
19B3
 10
46.2952
 20
15.6459
 30
0.000000
  70
    32
  0
VERTEX
  8
242
  5
19B4
 10
46.4645
 20
15.5202
 30
0.000000
  70
    32
  0
VERTEX
  8
242
  5
19B5
 10
46.6422
 20
15.4005
 30
0.000000
  70
    32
  0
VERTEX
  8
242
  5
19B6
 10
46.8280
 20
15.2872
 30
0.000000
  70
    32
  0
VERTEX
  8
242
  5
19B7
 10
47.0215
 20
15.1804
 30
0.000000
  70
    32
  0
VERTEX
  8
242
  5
19B8
 10
47.2221
 20
15.0805
 30
0.000000
  70
    32
  0
VERTEX
  8
242
  5
19B9
 10
47.4295
 20
14.9876
 30
0.000000
  70
    32
  0
VERTEX
  8
242
  5
19BA
 10
47.6430
 20
14.9021
 30
0.000000
  70
    32
  0
VERTEX
  8
242
  5
19BB
 10
47.8622
 20
14.8241
 30
0.000000
  70
    32
  0
VERTEX
  8
242
  5
19BC
 10
48.0866
 20
14.7538
 30
0.000000
  70
    32
  0
VERTEX
  8
242
  5
19BD
 10
48.3156
 20
14.6913
 30
0.000000
  70
    32
  0
VERTEX
  8
242
  5
19BE
 10
48.5486
 20
14.6369
 30
0.000000
  70
    32
  0
VERTEX
  8
242
  5
19BF
 10
48.7851
 20
14.5906
 30
0.000000
  70
    32
  0
VERTEX
  8
242
  5
19C0
 10
49.0245
 20
14.5526
 30
0.000000
  70
    32
  0
VERTEX
  8
242
  5
19C1
 10
49.2663
 20
14.5229
 30
0.000000
  70
    32
  0
VERTEX
  8
242
  5
19C2
 10
49.5099
 20
14.5017
 30
0.000000
  70
    32
  0
VERTEX
  8
242
  5
19C3
 10
49.7547
 20
14.4889
 30
0.000000
  70
    32
  0
VERTEX
  8
242
  5
19C4
 10
50.0000
 20
14.4846
 30
0.000000
  70
    32
  0
VERTEX
  8
242
  5
19C5
 10
50.2453
 20
14.4889
 30
0.000000
  70
    32
  0
VERTEX
  8
242
  5
19C6
 10
50.4901
 20
14.5017
 30
0.000000
  70
    32
  0
VERTEX
  8
242
  5
19C7
 10
50.7337
 20
14.5229
 30
0.000000
  70
    32
  0
VERTEX
  8
242
  5
19C8
 10
50.9755
 20
14.5526
 30
0.000000
  70
    32
  0
VERTEX
  8
242
  5
19C9
 10
51.2149
 20
14.5906
 30
0.000000
  70
    32
  0
VERTEX
  8
242
  5
19CA
 10
51.4514
 20
14.6369
 30
0.000000
  70
    32
  0
VERTEX
  8
242
  5
19CB
 10
51.6844
 20
14.6913
 30
0.000000
  70
    32
  0
VERTEX
  8
242
  5
19CC
 10
51.9134
 20
14.7538
 30
0.000000
  70
    32
  0
VERTEX
  8
242
  5
19CD
 10
52.1378
 20
14.8241
 30
0.000000
  70
    32
  0
VERTEX
  8
242
  5
19CE
 10
52.3570
 20
14.9021
 30
0.000000
  70
    32
  0
VERTEX
  8
242
  5
19CF
 10
52.5705
 20
14.9876
 30
0.000000
  70
    32
  0
VERTEX
  8
242
  5
19D0
 10
52.7779
 20
15.0805
 30
0.000000
  70
    32
  0
VERTEX
  8
242
  5
19D1
 10
52.9785
 20
15.1804
 30
0.000000
  70
    32
  0
VERTEX
  8
242
  5
19D2
 10
53.1720
 20
15.2872
 30
0.000000
  70
    32
  0
VERTEX
  8
242
  5
19D3
 10
53.3578
 20
15.4005
 30
0.000000
  70
    32
  0
VERTEX
  8
242
  5
19D4
 10
53.5355
 20
15.5202
 30
0.000000
  70
    32
  0
VERTEX
  8
242
  5
19D5
 10
53.7048
 20
15.6459
 30
0.000000
  70
    32
  0
VERTEX
  8
242
  5
19D6
 10
53.8651
 20
15.7773
 30
0.000000
  70
    32
  0
VERTEX
  8
242
  5
19D7
 10
54.0160
 20
15.9141
 30
0.000000
  70
    32
  0
VERTEX
  8
242
  5
19D8
 10
54.1573
 20
16.0559
 30
0.000000
  70
    32
  0
VERTEX
  8
242
  5
19D9
 10
54.2886
 20
16.2025
 30
0.000000
  70
    32
  0
VERTEX
  8
242
  5
19DA
 10
54.4096
 20
16.3535
 30
0.000000
  70
    32
  0
VERTEX
  8
242
  5
19DB
 10
54.5199
 20
16.5085
 30
0.000000
  70
    32
  0
VERTEX
  8
242
  5
19DC
 10
54.6194
 20
16.6672
 30
0.000000
  70
    32
  0
VERTEX
  8
242
  5
19DD
 10
54.7077
 20
16.8291
 30
0.000000
  70
    32
  0
VERTEX
  8
242
  5
19DE
 10
54.7847
 20
16.9939
 30
0.000000
  70
    32
  0
VERTEX
  8
242
  5
19DF
 10
54.8502
 20
17.1611
 30
0.000000
  70
    32
  0
VERTEX
  8
242
  5
19E0
 10
54.9039
 20
17.3304
 30
0.000000
  70
    32
  0
VERTEX
  8
242
  5
19E1
 10
54.9459
 20
17.5014
 30
0.000000
  70
    32
  0
VERTEX
  8
242
  5
19E2
 10
54.9759
 20
17.6736
 30
0.000000
  70
    32
  0
VERTEX
  8
242
  5
19E3
 10
54.9940
 20
17.8467
 30
0.000000
  70
    32
  0
VERTEX
  8
242
  5
19E4
 10
55.0000
 20
18.0202
 30
0.000000
  70
    32
  0
VERTEX
  8
242
  5
19E5
 10
54.9940
 20
18.1937
 30
0.000000
  70
    32
  0
VERTEX
  8
242
  5
19E6
 10
54.9759
 20
18.3667
 30
0.000000
  70
    32
  0
VERTEX
  8
242
  5
19E7
 10
54.9459
 20
18.5389
 30
0.000000
  70
    32
  0
VERTEX
  8
242
  5
19E8
 10
54.9039
 20
18.7099
 30
0.000000
  70
    32
  0
VERTEX
  8
242
  5
19E9
 10
54.8502
 20
18.8792
 30
0.000000
  70
    32
  0
VERTEX
  8
242
  5
19EA
 10
54.7847
 20
19.0465
 30
0.000000
  70
    32
  0
VERTEX
  8
242
  5
19EB
 10
54.7077
 20
19.2113
 30
0.000000
  70
    32
  0
VERTEX
  8
242
  5
19EC
 10
54.6194
 20
19.3732
 30
0.000000
  70
    32
  0
VERTEX
  8
242
  5
19ED
 10
54.5199
 20
19.5318
 30
0.000000
  70
    32
  0
VERTEX
  8
242
  5
19EE
 10
54.4096
 20
19.6868
 30
0.000000
  70
    32
  0
VERTEX
  8
242
  5
19EF
 10
54.2886
 20
19.8378
 30
0.000000
  70
    32
  0
VERTEX
  8
242
  5
19F0
 10
54.1573
 20
19.9844
 30
0.000000
  70
    32
  0
VERTEX
  8
242
  5
19F1
 10
54.0160
 20
20.1263
 30
0.000000
  70
    32
  0
VERTEX
  8
242
  5
19F2
 10
53.8651
 20
20.2631
 30
0.000000
  70
    32
  0
VERTEX
  8
242
  5
19F3
 10
53.7048
 20
20.3945
 30
0.000000
  70
    32
  0
VERTEX
  8
242
  5
19F4
 10
53.5355
 20
20.5202
 30
0.000000
  70
    32
  0
VERTEX
  8
242
  5
19F5
 10
53.3578
 20
20.6398
 30
0.000000
  70
    32
  0
VERTEX
  8
242
  5
19F6
 10
53.1720
 20
20.7532
 30
0.000000
  70
    32
  0
VERTEX
  8
242
  5
19F7
 10
52.9785
 20
20.8599
 30
0.000000
  70
    32
  0
VERTEX
  8
242
  5
19F8
 10
52.7779
 20
20.9599
 30
0.000000
  70
    32
  0
VERTEX
  8
242
  5
19F9
 10
52.5705
 20
21.0527
 30
0.000000
  70
    32
  0
VERTEX
  8
242
  5
19FA
 10
52.3570
 20
21.1382
 30
0.000000
  70
    32
  0
VERTEX
  8
242
  5
19FB
 10
52.1378
 20
21.2163
 30
0.000000
  70
    32
  0
VERTEX
  8
242
  5
19FC
 10
51.9134
 20
21.2866
 30
0.000000
  70
    32
  0
VERTEX
  8
242
  5
19FD
 10
51.6844
 20
21.3490
 30
0.000000
  70
    32
  0
VERTEX
  8
242
  5
19FE
 10
51.4514
 20
21.4035
 30
0.000000
  70
    32
  0
VERTEX
  8
242
  5
19FF
 10
51.2149
 20
21.4497
 30
0.000000
  70
    32
  0
VERTEX
  8
242
  5
1A00
 10
50.9755
 20
21.4878
 30
0.000000
  70
    32
  0
VERTEX
  8
242
  5
1A01
 10
50.7337
 20
21.5174
 30
0.000000
  70
    32
  0
VERTEX
  8
242
  5
1A02
 10
50.4901
 20
21.5387
 30
0.000000
  70
    32
  0
VERTEX
  8
242
  5
1A03
 10
50.2453
 20
21.5514
 30
0.000000
  70
    32
  0
VERTEX
  8
242
  5
1A04
 10
50.0000
 20
21.5557
 30
0.000000
  70
    32
  0
VERTEX
  8
242
  5
1A05
 10
49.7547
 20
21.5514
 30
0.000000
  70
    32
  0
VERTEX
  8
242
  5
1A06
 10
49.5099
 20
21.5387
 30
0.000000
  70
    32
  0
VERTEX
  8
242
  5
1A07
 10
49.2663
 20
21.5174
 30
0.000000
  70
    32
  0
VERTEX
  8
242
  5
1A08
 10
49.0245
 20
21.4878
 30
0.000000
  70
    32
  0
VERTEX
  8
242
  5
1A09
 10
48.7851
 20
21.4497
 30
0.000000
  70
    32
  0
VERTEX
  8
242
  5
1A0A
 10
48.5486
 20
21.4035
 30
0.000000
  70
    32
  0
VERTEX
  8
242
  5
1A0B
 10
48.3156
 20
21.3490
 30
0.000000
  70
    32
  0
VERTEX
  8
242
  5
1A0C
 10
48.0866
 20
21.2866
 30
0.000000
  70
    32
  0
VERTEX
  8
242
  5
1A0D
 10
47.8622
 20
21.2163
 30
0.000000
  70
    32
  0
VERTEX
  8
242
  5
1A0E
 10
47.6430
 20
21.1382
 30
0.000000
  70
    32
  0
VERTEX
  8
242
  5
1A0F
 10
47.4295
 20
21.0527
 30
0.000000
  70
    32
  0
VERTEX
  8
242
  5
1A10
 10
47.2221
 20
20.9599
 30
0.000000
  70
    32
  0
VERTEX
  8
242
  5
1A11
 10
47.0215
 20
20.8599
 30
0.000000
  70
    32
  0
VERTEX
  8
242
  5
1A12
 10
46.8280
 20
20.7532
 30
0.000000
  70
    32
  0
VERTEX
  8
242
  5
1A13
 10
46.6422
 20
20.6398
 30
0.000000
  70
    32
  0
VERTEX
  8
242
  5
1A14
 10
46.4645
 20
20.5202
 30
0.000000
  70
    32
  0
VERTEX
  8
242
  5
1A15
 10
46.2952
 20
20.3945
 30
0.000000
  70
    32
  0
VERTEX
  8
242
  5
1A16
 10
46.1349
 20
20.2631
 30
0.000000
  70
    32
  0
VERTEX
  8
242
  5
1A17
 10
45.9840
 20
20.1263
 30
0.000000
  70
    32
  0
VERTEX
  8
242
  5
1A18
 10
45.8427
 20
19.9844
 30
0.000000
  70
    32
  0
VERTEX
  8
242
  5
1A19
 10
45.7114
 20
19.8378
 30
0.000000
  70
    32
  0
VERTEX
  8
242
  5
1A1A
 10
45.5904
 20
19.6868
 30
0.000000
  70
    32
  0
VERTEX
  8
242
  5
1A1B
 10
45.4801
 20
19.5318
 30
0.000000
  70
    32
  0
VERTEX
  8
242
  5
1A1C
 10
45.3806
 20
19.3732
 30
0.000000
  70
    32
  0
VERTEX
  8
242
  5
1A1D
 10
45.2923
 20
19.2113
 30
0.000000
  70
    32
  0
VERTEX
  8
242
  5
1A1E
 10
45.2153
 20
19.0465
 30
0.000000
  70
    32
  0
VERTEX
  8
242
  5
1A1F
 10
45.1498
 20
18.8792
 30
0.000000
  70
    32
  0
VERTEX
  8
242
  5
1A20
 10
45.0961
 20
18.7099
 30
0.000000
  70
    32
  0
VERTEX
  8
242
  5
1A21
 10
45.0541
 20
18.5389
 30
0.000000
  70
    32
  0
VERTEX
  8
242
  5
1A22
 10
45.0241
 20
18.3667
 30
0.000000
  70
    32
  0
VERTEX
  8
242
  5
1A23
 10
45.0060
 20
18.1937
 30
0.000000
  70
    32
  0
VERTEX
  8
242
  5
1A24
 10
45.0000
 20
18.0202
 30
0.000000
  70
    32
  0
SEQEND
  8
242
  5
1A25
  0
LINE
  5
17EF
  8
245
  6
CENTER2
 10
45.0
 20
18.384776310847879
 30
0.0
 11
55.0
 21
18.384776310847879
 31
0.0
  0
LINE
  5
17F0
  8
245
  6
CENTER2
 10
50.0
 20
-21.555704683857591
 30
0.0
 11
50.0
 21
-14.484636871992279
 31
0.0
  0
POLYLINE
  5
17F1
  8
241
 10
45.75
 20
-18.122129920894618
 30
0.0
 66
     1
 70
     8
  0
VERTEX
  8
241
  5
1A26
 10
45.7500
 20
-18.1221
 30
0.000000
  70
    32
  0
VERTEX
  8
241
  5
1A27
 10
45.7551
 20
-17.9747
 30
0.000000
  70
    32
  0
VERTEX
  8
241
  5
1A28
 10
45.7705
 20
-17.8276
 30
0.000000
  70
    32
  0
VERTEX
  8
241
  5
1A29
 10
45.7960
 20
-17.6812
 30
0.000000
  70
    32
  0
VERTEX
  8
241
  5
1A2A
 10
45.8317
 20
-17.5358
 30
0.000000
  70
    32
  0
VERTEX
  8
241
  5
1A2B
 10
45.8774
 20
-17.3919
 30
0.000000
  70
    32
  0
VERTEX
  8
241
  5
1A2C
 10
45.9330
 20
-17.2498
 30
0.000000
  70
    32
  0
VERTEX
  8
241
  5
1A2D
 10
45.9984
 20
-17.1097
 30
0.000000
  70
    32
  0
VERTEX
  8
241
  5
1A2E
 10
46.0735
 20
-16.9721
 30
0.000000
  70
    32
  0
VERTEX
  8
241
  5
1A2F
 10
46.1580
 20
-16.8372
 30
0.000000
  70
    32
  0
VERTEX
  8
241
  5
1A30
 10
46.2518
 20
-16.7055
 30
0.000000
  70
    32
  0
VERTEX
  8
241
  5
1A31
 10
46.3547
 20
-16.5771
 30
0.000000
  70
    32
  0
VERTEX
  8
241
  5
1A32
 10
46.4663
 20
-16.4525
 30
0.000000
  70
    32
  0
VERTEX
  8
241
  5
1A33
 10
46.5864
 20
-16.3319
 30
0.000000
  70
    32
  0
VERTEX
  8
241
  5
1A34
 10
46.7147
 20
-16.2156
 30
0.000000
  70
    32
  0
VERTEX
  8
241
  5
1A35
 10
46.8510
 20
-16.1040
 30
0.000000
  70
    32
  0
VERTEX
  8
241
  5
1A36
 10
46.9948
 20
-15.9971
 30
0.000000
  70
    32
  0
VERTEX
  8
241
  5
1A37
 10
47.1459
 20
-15.8954
 30
0.000000
  70
    32
  0
VERTEX
  8
241
  5
1A38
 10
47.3038
 20
-15.7991
 30
0.000000
  70
    32
  0
VERTEX
  8
241
  5
1A39
 10
47.4683
 20
-15.7083
 30
0.000000
  70
    32
  0
VERTEX
  8
241
  5
1A3A
 10
47.6388
 20
-15.6234
 30
0.000000
  70
    32
  0
VERTEX
  8
241
  5
1A3B
 10
47.8151
 20
-15.5445
 30
0.000000
  70
    32
  0
VERTEX
  8
241
  5
1A3C
 10
47.9966
 20
-15.4718
 30
0.000000
  70
    32
  0
VERTEX
  8
241
  5
1A3D
 10
48.1829
 20
-15.4055
 30
0.000000
  70
    32
  0
VERTEX
  8
241
  5
1A3E
 10
48.3736
 20
-15.3457
 30
0.000000
  70
    32
  0
VERTEX
  8
241
  5
1A3F
 10
48.5682
 20
-15.2926
 30
0.000000
  70
    32
  0
VERTEX
  8
241
  5
1A40
 10
48.7663
 20
-15.2463
 30
0.000000
  70
    32
  0
VERTEX
  8
241
  5
1A41
 10
48.9673
 20
-15.2070
 30
0.000000
  70
    32
  0
VERTEX
  8
241
  5
1A42
 10
49.1709
 20
-15.1747
 30
0.000000
  70
    32
  0
VERTEX
  8
241
  5
1A43
 10
49.3764
 20
-15.1495
 30
0.000000
  70
    32
  0
VERTEX
  8
241
  5
1A44
 10
49.5834
 20
-15.1314
 30
0.000000
  70
    32
  0
VERTEX
  8
241
  5
1A45
 10
49.7915
 20
-15.1205
 30
0.000000
  70
    32
  0
VERTEX
  8
241
  5
1A46
 10
50.0000
 20
-15.1169
 30
0.000000
  70
    32
  0
VERTEX
  8
241
  5
1A47
 10
50.2085
 20
-15.1205
 30
0.000000
  70
    32
  0
VERTEX
  8
241
  5
1A48
 10
50.4166
 20
-15.1314
 30
0.000000
  70
    32
  0
VERTEX
  8
241
  5
1A49
 10
50.6236
 20
-15.1495
 30
0.000000
  70
    32
  0
VERTEX
  8
241
  5
1A4A
 10
50.8291
 20
-15.1747
 30
0.000000
  70
    32
  0
VERTEX
  8
241
  5
1A4B
 10
51.0327
 20
-15.2070
 30
0.000000
  70
    32
  0
VERTEX
  8
241
  5
1A4C
 10
51.2337
 20
-15.2463
 30
0.000000
  70
    32
  0
VERTEX
  8
241
  5
1A4D
 10
51.4318
 20
-15.2926
 30
0.000000
  70
    32
  0
VERTEX
  8
241
  5
1A4E
 10
51.6264
 20
-15.3457
 30
0.000000
  70
    32
  0
VERTEX
  8
241
  5
1A4F
 10
51.8171
 20
-15.4055
 30
0.000000
  70
    32
  0
VERTEX
  8
241
  5
1A50
 10
52.0034
 20
-15.4718
 30
0.000000
  70
    32
  0
VERTEX
  8
241
  5
1A51
 10
52.1849
 20
-15.5445
 30
0.000000
  70
    32
  0
VERTEX
  8
241
  5
1A52
 10
52.3612
 20
-15.6234
 30
0.000000
  70
    32
  0
VERTEX
  8
241
  5
1A53
 10
52.5317
 20
-15.7083
 30
0.000000
  70
    32
  0
VERTEX
  8
241
  5
1A54
 10
52.6962
 20
-15.7991
 30
0.000000
  70
    32
  0
VERTEX
  8
241
  5
1A55
 10
52.8541
 20
-15.8954
 30
0.000000
  70
    32
  0
VERTEX
  8
241
  5
1A56
 10
53.0052
 20
-15.9971
 30
0.000000
  70
    32
  0
VERTEX
  8
241
  5
1A57
 10
53.1490
 20
-16.1040
 30
0.000000
  70
    32
  0
VERTEX
  8
241
  5
1A58
 10
53.2853
 20
-16.2156
 30
0.000000
  70
    32
  0
VERTEX
  8
241
  5
1A59
 10
53.4136
 20
-16.3319
 30
0.000000
  70
    32
  0
VERTEX
  8
241
  5
1A5A
 10
53.5337
 20
-16.4525
 30
0.000000
  70
    32
  0
VERTEX
  8
241
  5
1A5B
 10
53.6453
 20
-16.5771
 30
0.000000
  70
    32
  0
VERTEX
  8
241
  5
1A5C
 10
53.7482
 20
-16.7055
 30
0.000000
  70
    32
  0
VERTEX
  8
241
  5
1A5D
 10
53.8420
 20
-16.8372
 30
0.000000
  70
    32
  0
VERTEX
  8
241
  5
1A5E
 10
53.9265
 20
-16.9721
 30
0.000000
  70
    32
  0
VERTEX
  8
241
  5
1A5F
 10
54.0016
 20
-17.1097
 30
0.000000
  70
    32
  0
VERTEX
  8
241
  5
1A60
 10
54.0670
 20
-17.2498
 30
0.000000
  70
    32
  0
VERTEX
  8
241
  5
1A61
 10
54.1226
 20
-17.3919
 30
0.000000
  70
    32
  0
VERTEX
  8
241
  5
1A62
 10
54.1683
 20
-17.5358
 30
0.000000
  70
    32
  0
VERTEX
  8
241
  5
1A63
 10
54.2040
 20
-17.6812
 30
0.000000
  70
    32
  0
VERTEX
  8
241
  5
1A64
 10
54.2295
 20
-17.8276
 30
0.000000
  70
    32
  0
VERTEX
  8
241
  5
1A65
 10
54.2449
 20
-17.9747
 30
0.000000
  70
    32
  0
VERTEX
  8
241
  5
1A66
 10
54.2500
 20
-18.1221
 30
0.000000
  70
    32
  0
VERTEX
  8
241
  5
1A67
 10
54.2449
 20
-18.2696
 30
0.000000
  70
    32
  0
VERTEX
  8
241
  5
1A68
 10
54.2295
 20
-18.4167
 30
0.000000
  70
    32
  0
VERTEX
  8
241
  5
1A69
 10
54.2040
 20
-18.5631
 30
0.000000
  70
    32
  0
VERTEX
  8
241
  5
1A6A
 10
54.1683
 20
-18.7084
 30
0.000000
  70
    32
  0
VERTEX
  8
241
  5
1A6B
 10
54.1226
 20
-18.8523
 30
0.000000
  70
    32
  0
VERTEX
  8
241
  5
1A6C
 10
54.0670
 20
-18.9945
 30
0.000000
  70
    32
  0
VERTEX
  8
241
  5
1A6D
 10
54.0016
 20
-19.1346
 30
0.000000
  70
    32
  0
VERTEX
  8
241
  5
1A6E
 10
53.9265
 20
-19.2722
 30
0.000000
  70
    32
  0
VERTEX
  8
241
  5
1A6F
 10
53.8420
 20
-19.4070
 30
0.000000
  70
    32
  0
VERTEX
  8
241
  5
1A70
 10
53.7482
 20
-19.5388
 30
0.000000
  70
    32
  0
VERTEX
  8
241
  5
1A71
 10
53.6453
 20
-19.6671
 30
0.000000
  70
    32
  0
VERTEX
  8
241
  5
1A72
 10
53.5337
 20
-19.7917
 30
0.000000
  70
    32
  0
VERTEX
  8
241
  5
1A73
 10
53.4136
 20
-19.9123
 30
0.000000
  70
    32
  0
VERTEX
  8
241
  5
1A74
 10
53.2853
 20
-20.0286
 30
0.000000
  70
    32
  0
VERTEX
  8
241
  5
1A75
 10
53.1490
 20
-20.1403
 30
0.000000
  70
    32
  0
VERTEX
  8
241
  5
1A76
 10
53.0052
 20
-20.2471
 30
0.000000
  70
    32
  0
VERTEX
  8
241
  5
1A77
 10
52.8541
 20
-20.3488
 30
0.000000
  70
    32
  0
VERTEX
  8
241
  5
1A78
 10
52.6962
 20
-20.4452
 30
0.000000
  70
    32
  0
VERTEX
  8
241
  5
1A79
 10
52.5317
 20
-20.5359
 30
0.000000
  70
    32
  0
VERTEX
  8
241
  5
1A7A
 10
52.3612
 20
-20.6209
 30
0.000000
  70
    32
  0
VERTEX
  8
241
  5
1A7B
 10
52.1849
 20
-20.6998
 30
0.000000
  70
    32
  0
VERTEX
  8
241
  5
1A7C
 10
52.0034
 20
-20.7725
 30
0.000000
  70
    32
  0
VERTEX
  8
241
  5
1A7D
 10
51.8171
 20
-20.8388
 30
0.000000
  70
    32
  0
VERTEX
  8
241
  5
1A7E
 10
51.6264
 20
-20.8986
 30
0.000000
  70
    32
  0
VERTEX
  8
241
  5
1A7F
 10
51.4318
 20
-20.9517
 30
0.000000
  70
    32
  0
VERTEX
  8
241
  5
1A80
 10
51.2337
 20
-20.9979
 30
0.000000
  70
    32
  0
VERTEX
  8
241
  5
1A81
 10
51.0327
 20
-21.0373
 30
0.000000
  70
    32
  0
VERTEX
  8
241
  5
1A82
 10
50.8291
 20
-21.0696
 30
0.000000
  70
    32
  0
VERTEX
  8
241
  5
1A83
 10
50.6236
 20
-21.0948
 30
0.000000
  70
    32
  0
VERTEX
  8
241
  5
1A84
 10
50.4166
 20
-21.1129
 30
0.000000
  70
    32
  0
VERTEX
  8
241
  5
1A85
 10
50.2085
 20
-21.1237
 30
0.000000
  70
    32
  0
VERTEX
  8
241
  5
1A86
 10
50.0000
 20
-21.1273
 30
0.000000
  70
    32
  0
VERTEX
  8
241
  5
1A87
 10
49.7915
 20
-21.1237
 30
0.000000
  70
    32
  0
VERTEX
  8
241
  5
1A88
 10
49.5834
 20
-21.1129
 30
0.000000
  70
    32
  0
VERTEX
  8
241
  5
1A89
 10
49.3764
 20
-21.0948
 30
0.000000
  70
    32
  0
VERTEX
  8
241
  5
1A8A
 10
49.1709
 20
-21.0696
 30
0.000000
  70
    32
  0
VERTEX
  8
241
  5
1A8B
 10
48.9673
 20
-21.0373
 30
0.000000
  70
    32
  0
VERTEX
  8
241
  5
1A8C
 10
48.7663
 20
-20.9979
 30
0.000000
  70
    32
  0
VERTEX
  8
241
  5
1A8D
 10
48.5682
 20
-20.9517
 30
0.000000
  70
    32
  0
VERTEX
  8
241
  5
1A8E
 10
48.3736
 20
-20.8986
 30
0.000000
  70
    32
  0
VERTEX
  8
241
  5
1A8F
 10
48.1829
 20
-20.8388
 30
0.000000
  70
    32
  0
VERTEX
  8
241
  5
1A90
 10
47.9966
 20
-20.7725
 30
0.000000
  70
    32
  0
VERTEX
  8
241
  5
1A91
 10
47.8151
 20
-20.6998
 30
0.000000
  70
    32
  0
VERTEX
  8
241
  5
1A92
 10
47.6388
 20
-20.6209
 30
0.000000
  70
    32
  0
VERTEX
  8
241
  5
1A93
 10
47.4683
 20
-20.5359
 30
0.000000
  70
    32
  0
VERTEX
  8
241
  5
1A94
 10
47.3038
 20
-20.4452
 30
0.000000
  70
    32
  0
VERTEX
  8
241
  5
1A95
 10
47.1459
 20
-20.3488
 30
0.000000
  70
    32
  0
VERTEX
  8
241
  5
1A96
 10
46.9948
 20
-20.2471
 30
0.000000
  70
    32
  0
VERTEX
  8
241
  5
1A97
 10
46.8510
 20
-20.1403
 30
0.000000
  70
    32
  0
VERTEX
  8
241
  5
1A98
 10
46.7147
 20
-20.0286
 30
0.000000
  70
    32
  0
VERTEX
  8
241
  5
1A99
 10
46.5864
 20
-19.9123
 30
0.000000
  70
    32
  0
VERTEX
  8
241
  5
1A9A
 10
46.4663
 20
-19.7917
 30
0.000000
  70
    32
  0
VERTEX
  8
241
  5
1A9B
 10
46.3547
 20
-19.6671
 30
0.000000
  70
    32
  0
VERTEX
  8
241
  5
1A9C
 10
46.2518
 20
-19.5388
 30
0.000000
  70
    32
  0
VERTEX
  8
241
  5
1A9D
 10
46.1580
 20
-19.4070
 30
0.000000
  70
    32
  0
VERTEX
  8
241
  5
1A9E
 10
46.0735
 20
-19.2722
 30
0.000000
  70
    32
  0
VERTEX
  8
241
  5
1A9F
 10
45.9984
 20
-19.1346
 30
0.000000
  70
    32
  0
VERTEX
  8
241
  5
1AA0
 10
45.9330
 20
-18.9945
 30
0.000000
  70
    32
  0
VERTEX
  8
241
  5
1AA1
 10
45.8774
 20
-18.8523
 30
0.000000
  70
    32
  0
VERTEX
  8
241
  5
1AA2
 10
45.8317
 20
-18.7084
 30
0.000000
  70
    32
  0
VERTEX
  8
241
  5
1AA3
 10
45.7960
 20
-18.5631
 30
0.000000
  70
    32
  0
VERTEX
  8
241
  5
1AA4
 10
45.7705
 20
-18.4167
 30
0.000000
  70
    32
  0
VERTEX
  8
241
  5
1AA5
 10
45.7551
 20
-18.2696
 30
0.000000
  70
    32
  0
VERTEX
  8
241
  5
1AA6
 10
45.7500
 20
-18.1221
 30
0.000000
  70
    32
  0
SEQEND
  8
241
  5
1AA7
  0
POLYLINE
  5
17F2
  8
242
 10
45.0
 20
-18.020170777925159
 30
0.0
 66
     1
 70
     8
  0
VERTEX
  8
242
  5
1AA8
 10
45.0000
 20
-18.0202
 30
0.000000
  70
    32
  0
VERTEX
  8
242
  5
1AA9
 10
45.0060
 20
-17.8467
 30
0.000000
  70
    32
  0
VERTEX
  8
242
  5
1AAA
 10
45.0241
 20
-17.6736
 30
0.000000
  70
    32
  0
VERTEX
  8
242
  5
1AAB
 10
45.0541
 20
-17.5014
 30
0.000000
  70
    32
  0
VERTEX
  8
242
  5
1AAC
 10
45.0961
 20
-17.3304
 30
0.000000
  70
    32
  0
VERTEX
  8
242
  5
1AAD
 10
45.1498
 20
-17.1611
 30
0.000000
  70
    32
  0
VERTEX
  8
242
  5
1AAE
 10
45.2153
 20
-16.9939
 30
0.000000
  70
    32
  0
VERTEX
  8
242
  5
1AAF
 10
45.2923
 20
-16.8291
 30
0.000000
  70
    32
  0
VERTEX
  8
242
  5
1AB0
 10
45.3806
 20
-16.6672
 30
0.000000
  70
    32
  0
VERTEX
  8
242
  5
1AB1
 10
45.4801
 20
-16.5085
 30
0.000000
  70
    32
  0
VERTEX
  8
242
  5
1AB2
 10
45.5904
 20
-16.3535
 30
0.000000
  70
    32
  0
VERTEX
  8
242
  5
1AB3
 10
45.7114
 20
-16.2025
 30
0.000000
  70
    32
  0
VERTEX
  8
242
  5
1AB4
 10
45.8427
 20
-16.0559
 30
0.000000
  70
    32
  0
VERTEX
  8
242
  5
1AB5
 10
45.9840
 20
-15.9141
 30
0.000000
  70
    32
  0
VERTEX
  8
242
  5
1AB6
 10
46.1349
 20
-15.7773
 30
0.000000
  70
    32
  0
VERTEX
  8
242
  5
1AB7
 10
46.2952
 20
-15.6459
 30
0.000000
  70
    32
  0
VERTEX
  8
242
  5
1AB8
 10
46.4645
 20
-15.5202
 30
0.000000
  70
    32
  0
VERTEX
  8
242
  5
1AB9
 10
46.6422
 20
-15.4005
 30
0.000000
  70
    32
  0
VERTEX
  8
242
  5
1ABA
 10
46.8280
 20
-15.2872
 30
0.000000
  70
    32
  0
VERTEX
  8
242
  5
1ABB
 10
47.0215
 20
-15.1804
 30
0.000000
  70
    32
  0
VERTEX
  8
242
  5
1ABC
 10
47.2221
 20
-15.0805
 30
0.000000
  70
    32
  0
VERTEX
  8
242
  5
1ABD
 10
47.4295
 20
-14.9876
 30
0.000000
  70
    32
  0
VERTEX
  8
242
  5
1ABE
 10
47.6430
 20
-14.9021
 30
0.000000
  70
    32
  0
VERTEX
  8
242
  5
1ABF
 10
47.8622
 20
-14.8241
 30
0.000000
  70
    32
  0
VERTEX
  8
242
  5
1AC0
 10
48.0866
 20
-14.7538
 30
0.000000
  70
    32
  0
VERTEX
  8
242
  5
1AC1
 10
48.3156
 20
-14.6913
 30
0.000000
  70
    32
  0
VERTEX
  8
242
  5
1AC2
 10
48.5486
 20
-14.6369
 30
0.000000
  70
    32
  0
VERTEX
  8
242
  5
1AC3
 10
48.7851
 20
-14.5906
 30
0.000000
  70
    32
  0
VERTEX
  8
242
  5
1AC4
 10
49.0245
 20
-14.5526
 30
0.000000
  70
    32
  0
VERTEX
  8
242
  5
1AC5
 10
49.2663
 20
-14.5229
 30
0.000000
  70
    32
  0
VERTEX
  8
242
  5
1AC6
 10
49.5099
 20
-14.5017
 30
0.000000
  70
    32
  0
VERTEX
  8
242
  5
1AC7
 10
49.7547
 20
-14.4889
 30
0.000000
  70
    32
  0
VERTEX
  8
242
  5
1AC8
 10
50.0000
 20
-14.4846
 30
0.000000
  70
    32
  0
VERTEX
  8
242
  5
1AC9
 10
50.2453
 20
-14.4889
 30
0.000000
  70
    32
  0
VERTEX
  8
242
  5
1ACA
 10
50.4901
 20
-14.5017
 30
0.000000
  70
    32
  0
VERTEX
  8
242
  5
1ACB
 10
50.7337
 20
-14.5229
 30
0.000000
  70
    32
  0
VERTEX
  8
242
  5
1ACC
 10
50.9755
 20
-14.5526
 30
0.000000
  70
    32
  0
VERTEX
  8
242
  5
1ACD
 10
51.2149
 20
-14.5906
 30
0.000000
  70
    32
  0
VERTEX
  8
242
  5
1ACE
 10
51.4514
 20
-14.6369
 30
0.000000
  70
    32
  0
VERTEX
  8
242
  5
1ACF
 10
51.6844
 20
-14.6913
 30
0.000000
  70
    32
  0
VERTEX
  8
242
  5
1AD0
 10
51.9134
 20
-14.7538
 30
0.000000
  70
    32
  0
VERTEX
  8
242
  5
1AD1
 10
52.1378
 20
-14.8241
 30
0.000000
  70
    32
  0
VERTEX
  8
242
  5
1AD2
 10
52.3570
 20
-14.9021
 30
0.000000
  70
    32
  0
VERTEX
  8
242
  5
1AD3
 10
52.5705
 20
-14.9876
 30
0.000000
  70
    32
  0
VERTEX
  8
242
  5
1AD4
 10
52.7779
 20
-15.0805
 30
0.000000
  70
    32
  0
VERTEX
  8
242
  5
1AD5
 10
52.9785
 20
-15.1804
 30
0.000000
  70
    32
  0
VERTEX
  8
242
  5
1AD6
 10
53.1720
 20
-15.2872
 30
0.000000
  70
    32
  0
VERTEX
  8
242
  5
1AD7
 10
53.3578
 20
-15.4005
 30
0.000000
  70
    32
  0
VERTEX
  8
242
  5
1AD8
 10
53.5355
 20
-15.5202
 30
0.000000
  70
    32
  0
VERTEX
  8
242
  5
1AD9
 10
53.7048
 20
-15.6459
 30
0.000000
  70
    32
  0
VERTEX
  8
242
  5
1ADA
 10
53.8651
 20
-15.7773
 30
0.000000
  70
    32
  0
VERTEX
  8
242
  5
1ADB
 10
54.0160
 20
-15.9141
 30
0.000000
  70
    32
  0
VERTEX
  8
242
  5
1ADC
 10
54.1573
 20
-16.0559
 30
0.000000
  70
    32
  0
VERTEX
  8
242
  5
1ADD
 10
54.2886
 20
-16.2025
 30
0.000000
  70
    32
  0
VERTEX
  8
242
  5
1ADE
 10
54.4096
 20
-16.3535
 30
0.000000
  70
    32
  0
VERTEX
  8
242
  5
1ADF
 10
54.5199
 20
-16.5085
 30
0.000000
  70
    32
  0
VERTEX
  8
242
  5
1AE0
 10
54.6194
 20
-16.6672
 30
0.000000
  70
    32
  0
VERTEX
  8
242
  5
1AE1
 10
54.7077
 20
-16.8291
 30
0.000000
  70
    32
  0
VERTEX
  8
242
  5
1AE2
 10
54.7847
 20
-16.9939
 30
0.000000
  70
    32
  0
VERTEX
  8
242
  5
1AE3
 10
54.8502
 20
-17.1611
 30
0.000000
  70
    32
  0
VERTEX
  8
242
  5
1AE4
 10
54.9039
 20
-17.3304
 30
0.000000
  70
    32
  0
VERTEX
  8
242
  5
1AE5
 10
54.9459
 20
-17.5014
 30
0.000000
  70
    32
  0
VERTEX
  8
242
  5
1AE6
 10
54.9759
 20
-17.6736
 30
0.000000
  70
    32
  0
VERTEX
  8
242
  5
1AE7
 10
54.9940
 20
-17.8467
 30
0.000000
  70
    32
  0
VERTEX
  8
242
  5
1AE8
 10
55.0000
 20
-18.0202
 30
0.000000
  70
    32
  0
VERTEX
  8
242
  5
1AE9
 10
54.9940
 20
-18.1937
 30
0.000000
  70
    32
  0
VERTEX
  8
242
  5
1AEA
 10
54.9759
 20
-18.3667
 30
0.000000
  70
    32
  0
VERTEX
  8
242
  5
1AEB
 10
54.9459
 20
-18.5389
 30
0.000000
  70
    32
  0
VERTEX
  8
242
  5
1AEC
 10
54.9039
 20
-18.7099
 30
0.000000
  70
    32
  0
VERTEX
  8
242
  5
1AED
 10
54.8502
 20
-18.8792
 30
0.000000
  70
    32
  0
VERTEX
  8
242
  5
1AEE
 10
54.7847
 20
-19.0465
 30
0.000000
  70
    32
  0
VERTEX
  8
242
  5
1AEF
 10
54.7077
 20
-19.2113
 30
0.000000
  70
    32
  0
VERTEX
  8
242
  5
1AF0
 10
54.6194
 20
-19.3732
 30
0.000000
  70
    32
  0
VERTEX
  8
242
  5
1AF1
 10
54.5199
 20
-19.5318
 30
0.000000
  70
    32
  0
VERTEX
  8
242
  5
1AF2
 10
54.4096
 20
-19.6868
 30
0.000000
  70
    32
  0
VERTEX
  8
242
  5
1AF3
 10
54.2886
 20
-19.8378
 30
0.000000
  70
    32
  0
VERTEX
  8
242
  5
1AF4
 10
54.1573
 20
-19.9844
 30
0.000000
  70
    32
  0
VERTEX
  8
242
  5
1AF5
 10
54.0160
 20
-20.1263
 30
0.000000
  70
    32
  0
VERTEX
  8
242
  5
1AF6
 10
53.8651
 20
-20.2631
 30
0.000000
  70
    32
  0
VERTEX
  8
242
  5
1AF7
 10
53.7048
 20
-20.3945
 30
0.000000
  70
    32
  0
VERTEX
  8
242
  5
1AF8
 10
53.5355
 20
-20.5202
 30
0.000000
  70
    32
  0
VERTEX
  8
242
  5
1AF9
 10
53.3578
 20
-20.6398
 30
0.000000
  70
    32
  0
VERTEX
  8
242
  5
1AFA
 10
53.1720
 20
-20.7532
 30
0.000000
  70
    32
  0
VERTEX
  8
242
  5
1AFB
 10
52.9785
 20
-20.8599
 30
0.000000
  70
    32
  0
VERTEX
  8
242
  5
1AFC
 10
52.7779
 20
-20.9599
 30
0.000000
  70
    32
  0
VERTEX
  8
242
  5
1AFD
 10
52.5705
 20
-21.0527
 30
0.000000
  70
    32
  0
VERTEX
  8
242
  5
1AFE
 10
52.3570
 20
-21.1382
 30
0.000000
  70
    32
  0
VERTEX
  8
242
  5
1AFF
 10
52.1378
 20
-21.2163
 30
0.000000
  70
    32
  0
VERTEX
  8
242
  5
1B00
 10
51.9134
 20
-21.2866
 30
0.000000
  70
    32
  0
VERTEX
  8
242
  5
1B01
 10
51.6844
 20
-21.3490
 30
0.000000
  70
    32
  0
VERTEX
  8
242
  5
1B02
 10
51.4514
 20
-21.4035
 30
0.000000
  70
    32
  0
VERTEX
  8
242
  5
1B03
 10
51.2149
 20
-21.4497
 30
0.000000
  70
    32
  0
VERTEX
  8
242
  5
1B04
 10
50.9755
 20
-21.4878
 30
0.000000
  70
    32
  0
VERTEX
  8
242
  5
1B05
 10
50.7337
 20
-21.5174
 30
0.000000
  70
    32
  0
VERTEX
  8
242
  5
1B06
 10
50.4901
 20
-21.5387
 30
0.000000
  70
    32
  0
VERTEX
  8
242
  5
1B07
 10
50.2453
 20
-21.5514
 30
0.000000
  70
    32
  0
VERTEX
  8
242
  5
1B08
 10
50.0000
 20
-21.5557
 30
0.000000
  70
    32
  0
VERTEX
  8
242
  5
1B09
 10
49.7547
 20
-21.5514
 30
0.000000
  70
    32
  0
VERTEX
  8
242
  5
1B0A
 10
49.5099
 20
-21.5387
 30
0.000000
  70
    32
  0
VERTEX
  8
242
  5
1B0B
 10
49.2663
 20
-21.5174
 30
0.000000
  70
    32
  0
VERTEX
  8
242
  5
1B0C
 10
49.0245
 20
-21.4878
 30
0.000000
  70
    32
  0
VERTEX
  8
242
  5
1B0D
 10
48.7851
 20
-21.4497
 30
0.000000
  70
    32
  0
VERTEX
  8
242
  5
1B0E
 10
48.5486
 20
-21.4035
 30
0.000000
  70
    32
  0
VERTEX
  8
242
  5
1B0F
 10
48.3156
 20
-21.3490
 30
0.000000
  70
    32
  0
VERTEX
  8
242
  5
1B10
 10
48.0866
 20
-21.2866
 30
0.000000
  70
    32
  0
VERTEX
  8
242
  5
1B11
 10
47.8622
 20
-21.2163
 30
0.000000
  70
    32
  0
VERTEX
  8
242
  5
1B12
 10
47.6430
 20
-21.1382
 30
0.000000
  70
    32
  0
VERTEX
  8
242
  5
1B13
 10
47.4295
 20
-21.0527
 30
0.000000
  70
    32
  0
VERTEX
  8
242
  5
1B14
 10
47.2221
 20
-20.9599
 30
0.000000
  70
    32
  0
VERTEX
  8
242
  5
1B15
 10
47.0215
 20
-20.8599
 30
0.000000
  70
    32
  0
VERTEX
  8
242
  5
1B16
 10
46.8280
 20
-20.7532
 30
0.000000
  70
    32
  0
VERTEX
  8
242
  5
1B17
 10
46.6422
 20
-20.6398
 30
0.000000
  70
    32
  0
VERTEX
  8
242
  5
1B18
 10
46.4645
 20
-20.5202
 30
0.000000
  70
    32
  0
VERTEX
  8
242
  5
1B19
 10
46.2952
 20
-20.3945
 30
0.000000
  70
    32
  0
VERTEX
  8
242
  5
1B1A
 10
46.1349
 20
-20.2631
 30
0.000000
  70
    32
  0
VERTEX
  8
242
  5
1B1B
 10
45.9840
 20
-20.1263
 30
0.000000
  70
    32
  0
VERTEX
  8
242
  5
1B1C
 10
45.8427
 20
-19.9844
 30
0.000000
  70
    32
  0
VERTEX
  8
242
  5
1B1D
 10
45.7114
 20
-19.8378
 30
0.000000
  70
    32
  0
VERTEX
  8
242
  5
1B1E
 10
45.5904
 20
-19.6868
 30
0.000000
  70
    32
  0
VERTEX
  8
242
  5
1B1F
 10
45.4801
 20
-19.5318
 30
0.000000
  70
    32
  0
VERTEX
  8
242
  5
1B20
 10
45.3806
 20
-19.3732
 30
0.000000
  70
    32
  0
VERTEX
  8
242
  5
1B21
 10
45.2923
 20
-19.2113
 30
0.000000
  70
    32
  0
VERTEX
  8
242
  5
1B22
 10
45.2153
 20
-19.0465
 30
0.000000
  70
    32
  0
VERTEX
  8
242
  5
1B23
 10
45.1498
 20
-18.8792
 30
0.000000
  70
    32
  0
VERTEX
  8
242
  5
1B24
 10
45.0961
 20
-18.7099
 30
0.000000
  70
    32
  0
VERTEX
  8
242
  5
1B25
 10
45.0541
 20
-18.5389
 30
0.000000
  70
    32
  0
VERTEX
  8
242
  5
1B26
 10
45.0241
 20
-18.3667
 30
0.000000
  70
    32
  0
VERTEX
  8
242
  5
1B27
 10
45.0060
 20
-18.1937
 30
0.000000
  70
    32
  0
VERTEX
  8
242
  5
1B28
 10
45.0000
 20
-18.0202
 30
0.000000
  70
    32
  0
SEQEND
  8
242
  5
1B29
  0
LINE
  5
17F3
  8
245
  6
CENTER2
 10
45.0
 20
-18.384776310848789
 30
0.0
 11
55.0
 21
-18.384776310848789
 31
0.0
  0
LINE
  5
17F4
  8
240
 10
-90.000000000002728
 20
19.13653903091836
 30
0.0
 11
-90.000000000004533
 21
-19.13653903093245
 31
0.0
  0
ARC
  5
17F5
  8
240
 10
-88.80000000000382
 20
18.8149999999996
 30
0.0
 40
1.1999999999999991
 50
99.068721546943138
 51
149.99999999998971
1001
GENIUS_GENOBJ-N-FIL_13
1002
{
1000
OWNER
1000
GEN
1002
}
1001
GENIUS_GENODEF_13
1002
{
1000
HIER
1070
     0
1002
}
1002
{
1000
MANEDIT
1070
     0
1002
}
1002
{
1000
NOSEL
1070
     0
1002
}
1002
{
1000
BEHIND
1070
     0
1002
}
1002
{
1000
OTHER
1070
     0
1002
}
1002
{
1000
REACTOR
1002
}
  0
LINE
  5
17F6
  8
240
 10
-89.839230484544714
 20
19.414999999999509
 30
0.0
 11
-90.000000000002728
 21
19.13653903091836
 31
0.0
  0
ARC
  5
17F7
  8
240
 10
-88.80000000000382
 20
18.8149999999996
 30
0.0
 40
1.1999999999999991
 50
79.999999999996106
 51
80.931278453056876
1001
GENIUS_GENOBJ-N-FIL_13
1002
{
1000
OWNER
1000
GEN
1002
}
1001
GENIUS_GENODEF_13
1002
{
1000
HIER
1070
     0
1002
}
1002
{
1000
MANEDIT
1070
     0
1002
}
1002
{
1000
NOSEL
1070
     0
1002
}
1002
{
1000
BEHIND
1070
     0
1002
}
1002
{
1000
OTHER
1070
     0
1002
}
1002
{
1000
REACTOR
1002
}
  0
LINE
  5
17F8
  8
240
 10
-88.591622186803761
 20
19.996769303614201
 30
0.0
 11
-86.612627514931773
 21
19.647819148284722
 31
0.0
  0
LINE
  5
17F9
  8
240
 10
-86.612627514931773
 20
19.647819148284722
 30
0.0
 11
-84.106730545857317
 21
19.99999999999682
 31
0.0
  0
LINE
  5
17FA
  8
240
 10
-88.989142803216055
 20
19.999999999996358
 30
0.0
 11
-88.610857196791585
 21
19.999999999996358
 31
0.0
  0
LINE
  5
17FB
  8
240
 10
-84.106730545870064
 20
19.999999999995001
 30
0.0
 11
-80.499999999997272
 21
19.999999999995001
 31
0.0
  0
ARC
  5
17FC
  8
240
 10
-88.80000000000382
 20
-18.815000000013701
 30
0.0
 40
1.1999999999999991
 50
210.00000000001029
 51
260.9312784530569
1001
GENIUS_GENOBJ-N-FIL_13
1002
{
1000
OWNER
1000
GEN
1002
}
1001
GENIUS_GENODEF_13
1002
{
1000
HIER
1070
     0
1002
}
1002
{
1000
MANEDIT
1070
     0
1002
}
1002
{
1000
NOSEL
1070
     0
1002
}
1002
{
1000
BEHIND
1070
     0
1002
}
1002
{
1000
OTHER
1070
     0
1002
}
1002
{
1000
REACTOR
1002
}
  0
LINE
  5
17FD
  8
240
 10
-89.839230484544714
 20
-19.415000000013599
 30
0.0
 11
-90.000000000002728
 21
-19.13653903093245
 31
0.0
  0
ARC
  5
17FE
  8
240
 10
-88.80000000000382
 20
-18.815000000013701
 30
0.0
 40
1.1999999999999991
 50
279.06872154694321
 51
280.00000000000392
1001
GENIUS_GENOBJ-N-FIL_13
1002
{
1000
OWNER
1000
GEN
1002
}
1001
GENIUS_GENODEF_13
1002
{
1000
HIER
1070
     0
1002
}
1002
{
1000
MANEDIT
1070
     0
1002
}
1002
{
1000
NOSEL
1070
     0
1002
}
1002
{
1000
BEHIND
1070
     0
1002
}
1002
{
1000
OTHER
1070
     0
1002
}
1002
{
1000
REACTOR
1002
}
  0
LINE
  5
17FF
  8
240
 10
-88.591622186803761
 20
-19.996769303628302
 30
0.0
 11
-86.612627514931773
 21
-19.647819148298819
 31
0.0
  0
LINE
  5
1800
  8
240
 10
-86.612627514931773
 20
-19.647819148298819
 30
0.0
 11
-84.106730545857317
 21
-20.000000000010921
 31
0.0
  0
LINE
  5
1801
  8
240
 10
-88.989142803216055
 20
-20.000000000010459
 30
0.0
 11
-88.610857196791585
 21
-20.000000000010459
 31
0.0
  0
LINE
  5
1802
  8
240
 10
-84.106730545870064
 20
-20.000000000009091
 30
0.0
 11
-80.499999999997272
 21
-20.000000000009091
 31
0.0
  0
LINE
  5
1803
  8
241
 10
-86.612627514931773
 20
-19.647819148298819
 30
0.0
 11
-86.612627514931773
 21
19.647819148284722
 31
0.0
  0
LINE
  5
1804
  8
241
 10
-84.106730545857317
 20
-20.000000000010921
 30
0.0
 11
-84.106730545855484
 21
19.99999999999682
 31
0.0
  0
LINE
  5
1805
  8
240
 10
40.399999999984168
 20
25.999999999999091
 30
0.0
 11
40.99999999998726
 21
25.65358983848364
 31
0.0
  0
LINE
  5
1806
  8
240
 10
41.999999999990003
 20
25.999999999999091
 30
0.0
 11
41.399999999987813
 21
25.65358983848364
 31
0.0
  0
ARC
  5
1807
  8
240
 10
41.199999999987078
 20
25.999999999997272
 30
0.0
 40
0.4
 50
240.0000000000027
 51
299.99999999999733
1001
GENIUS_GENODEF_13
1002
{
1000
HIER
1070
     0
1002
}
1002
{
1000
MANEDIT
1070
     0
1002
}
1002
{
1000
NOSEL
1070
     0
1002
}
1002
{
1000
BEHIND
1070
     0
1002
}
1002
{
1000
OTHER
1070
     0
1002
}
1002
{
1000
REACTOR
1002
}
1001
GENIUS_GENOBJ-N-FIL_13
1002
{
1000
OWNER
1000
GEN
1002
}
  0
ARC
  5
1808
  8
240
 10
38.199999999987092
 20
25.999999999997272
 30
0.0
 40
0.4
 50
240.0000000000027
 51
299.99999999999733
1001
GENIUS_GENODEF_13
1002
{
1000
HIER
1070
     0
1002
}
1002
{
1000
MANEDIT
1070
     0
1002
}
1002
{
1000
NOSEL
1070
     0
1002
}
1002
{
1000
BEHIND
1070
     0
1002
}
1002
{
1000
OTHER
1070
     0
1002
}
1002
{
1000
REACTOR
1002
}
1001
GENIUS_GENOBJ-N-FIL_13
1002
{
1000
OWNER
1000
GEN
1002
}
  0
LINE
  5
1809
  8
240
 10
38.999999999990003
 20
25.999999999999091
 30
0.0
 11
38.399999999987813
 21
25.65358983848364
 31
0.0
  0
LINE
  5
180A
  8
240
 10
37.399999999984168
 20
25.999999999999091
 30
0.0
 11
37.999999999987267
 21
25.65358983848364
 31
0.0
  0
LINE
  5
180B
  8
240
 10
38.999999999990003
 20
25.999999999999091
 30
0.0
 11
40.399999999984168
 21
25.999999999999091
 31
0.0
  0
LINE
  5
180C
  8
240
 10
40.399999999984168
 20
-26.000000000000458
 30
0.0
 11
40.99999999998726
 21
-25.653589838485011
 31
0.0
  0
LINE
  5
180D
  8
240
 10
41.999999999990003
 20
-26.000000000000458
 30
0.0
 11
41.399999999987813
 21
-25.653589838485011
 31
0.0
  0
ARC
  5
180E
  8
240
 10
41.199999999987078
 20
-25.999999999998639
 30
0.0
 40
0.4
 50
60.000000000002721
 51
119.9999999999973
1001
GENIUS_GENODEF_13
1002
{
1000
HIER
1070
     0
1002
}
1002
{
1000
MANEDIT
1070
     0
1002
}
1002
{
1000
NOSEL
1070
     0
1002
}
1002
{
1000
BEHIND
1070
     0
1002
}
1002
{
1000
OTHER
1070
     0
1002
}
1002
{
1000
REACTOR
1002
}
1001
GENIUS_GENOBJ-N-FIL_13
1002
{
1000
OWNER
1000
GEN
1002
}
  0
ARC
  5
180F
  8
240
 10
38.199999999987092
 20
-25.999999999998639
 30
0.0
 40
0.4
 50
60.000000000002721
 51
119.9999999999973
1001
GENIUS_GENODEF_13
1002
{
1000
HIER
1070
     0
1002
}
1002
{
1000
MANEDIT
1070
     0
1002
}
1002
{
1000
NOSEL
1070
     0
1002
}
1002
{
1000
BEHIND
1070
     0
1002
}
1002
{
1000
OTHER
1070
     0
1002
}
1002
{
1000
REACTOR
1002
}
1001
GENIUS_GENOBJ-N-FIL_13
1002
{
1000
OWNER
1000
GEN
1002
}
  0
LINE
  5
1810
  8
240
 10
38.999999999990003
 20
-26.000000000000458
 30
0.0
 11
38.399999999987813
 21
-25.653589838485011
 31
0.0
  0
LINE
  5
1811
  8
240
 10
37.399999999984168
 20
-26.000000000000458
 30
0.0
 11
37.999999999987267
 21
-25.653589838485011
 31
0.0
  0
LINE
  5
1812
  8
240
 10
38.999999999990003
 20
-26.000000000000458
 30
0.0
 11
40.399999999984168
 21
-26.000000000000458
 31
0.0
  0
ARC
  5
1813
  8
240
 10
-45.19999999999709
 20
19.80000000000064
 30
0.0
 40
0.2
 50
0.0
 51
90.0
1001
GENIUS_GENODEF_13
1002
{
1000
HIER
1070
     0
1002
}
1002
{
1000
MANEDIT
1070
     0
1002
}
1002
{
1000
NOSEL
1070
     0
1002
}
1002
{
1000
BEHIND
1070
     0
1002
}
1002
{
1000
OTHER
1070
     0
1002
}
1002
{
1000
REACTOR
1002
}
1001
GENIUS_GENOBJ-N-FIL_13
1002
{
1000
OWNER
1000
GEN
1002
}
  0
ARC
  5
1814
  8
240
 10
-42.300000000010193
 20
19.80000000000064
 30
0.0
 40
0.2
 50
90.0
 51
180.0
1001
GENIUS_GENOBJ-N-FIL_13
1002
{
1000
OWNER
1000
GEN
1002
}
1001
GENIUS_GENODEF_13
1002
{
1000
HIER
1070
     0
1002
}
1002
{
1000
MANEDIT
1070
     0
1002
}
1002
{
1000
NOSEL
1070
     0
1002
}
1002
{
1000
BEHIND
1070
     0
1002
}
1002
{
1000
OTHER
1070
     0
1002
}
1002
{
1000
REACTOR
1002
}
  0
ARC
  5
1815
  8
240
 10
-31.69999999999709
 20
19.800000000000178
 30
0.0
 40
0.2
 50
0.0
 51
90.0
1001
GENIUS_GENODEF_13
1002
{
1000
HIER
1070
     0
1002
}
1002
{
1000
MANEDIT
1070
     0
1002
}
1002
{
1000
NOSEL
1070
     0
1002
}
1002
{
1000
BEHIND
1070
     0
1002
}
1002
{
1000
OTHER
1070
     0
1002
}
1002
{
1000
REACTOR
1002
}
1001
GENIUS_GENOBJ-N-FIL_13
1002
{
1000
OWNER
1000
GEN
1002
}
  0
ARC
  5
1816
  8
240
 10
-28.800000000010179
 20
19.800000000000178
 30
0.0
 40
0.2
 50
90.0
 51
180.0
1001
GENIUS_GENOBJ-N-FIL_13
1002
{
1000
OWNER
1000
GEN
1002
}
1001
GENIUS_GENODEF_13
1002
{
1000
HIER
1070
     0
1002
}
1002
{
1000
MANEDIT
1070
     0
1002
}
1002
{
1000
NOSEL
1070
     0
1002
}
1002
{
1000
BEHIND
1070
     0
1002
}
1002
{
1000
OTHER
1070
     0
1002
}
1002
{
1000
REACTOR
1002
}
  0
LINE
  5
1817
  8
241
 10
-29.00000000000728
 20
-19.800000000011551
 30
0.0
 11
-29.00000000000728
 21
19.79999999999654
 31
0.0
  0
ARC
  5
1818
  8
240
 10
-45.19999999999709
 20
-19.800000000016091
 30
0.0
 40
0.2
 50
270.0
 51
0.0
1001
GENIUS_GENODEF_13
1002
{
1000
HIER
1070
     0
1002
}
1002
{
1000
MANEDIT
1070
     0
1002
}
1002
{
1000
NOSEL
1070
     0
1002
}
1002
{
1000
BEHIND
1070
     0
1002
}
1002
{
1000
OTHER
1070
     0
1002
}
1002
{
1000
REACTOR
1002
}
1001
GENIUS_GENOBJ-N-FIL_13
1002
{
1000
OWNER
1000
GEN
1002
}
  0
ARC
  5
1819
  8
240
 10
-42.300000000010193
 20
-19.800000000016091
 30
0.0
 40
0.2
 50
180.0
 51
270.0
1001
GENIUS_GENOBJ-N-FIL_13
1002
{
1000
OWNER
1000
GEN
1002
}
1001
GENIUS_GENODEF_13
1002
{
1000
HIER
1070
     0
1002
}
1002
{
1000
MANEDIT
1070
     0
1002
}
1002
{
1000
NOSEL
1070
     0
1002
}
1002
{
1000
BEHIND
1070
     0
1002
}
1002
{
1000
OTHER
1070
     0
1002
}
1002
{
1000
REACTOR
1002
}
  0
LINE
  5
181A
  8
241
 10
-42.500000000007269
 20
19.799999999996999
 30
0.0
 11
-42.500000000007269
 21
-19.80000000001246
 31
0.0
  0
LINE
  5
181B
  8
241
 10
-45.000000000007269
 20
19.799999999996992
 30
0.0
 11
-45.000000000003638
 21
-19.80000000001246
 31
0.0
  0
ARC
  5
181C
  8
240
 10
-31.69999999999709
 20
-19.800000000015189
 30
0.0
 40
0.2
 50
270.0
 51
0.0
1001
GENIUS_GENODEF_13
1002
{
1000
HIER
1070
     0
1002
}
1002
{
1000
MANEDIT
1070
     0
1002
}
1002
{
1000
NOSEL
1070
     0
1002
}
1002
{
1000
BEHIND
1070
     0
1002
}
1002
{
1000
OTHER
1070
     0
1002
}
1002
{
1000
REACTOR
1002
}
1001
GENIUS_GENOBJ-N-FIL_13
1002
{
1000
OWNER
1000
GEN
1002
}
  0
ARC
  5
181D
  8
240
 10
-28.800000000010179
 20
-19.800000000015189
 30
0.0
 40
0.2
 50
180.0
 51
270.0
1001
GENIUS_GENOBJ-N-FIL_13
1002
{
1000
OWNER
1000
GEN
1002
}
1001
GENIUS_GENODEF_13
1002
{
1000
HIER
1070
     0
1002
}
1002
{
1000
MANEDIT
1070
     0
1002
}
1002
{
1000
NOSEL
1070
     0
1002
}
1002
{
1000
BEHIND
1070
     0
1002
}
1002
{
1000
OTHER
1070
     0
1002
}
1002
{
1000
REACTOR
1002
}
  0
LINE
  5
181E
  8
241
 10
-31.500000000003642
 20
19.79999999999654
 30
0.0
 11
-31.500000000003642
 21
-19.800000000011551
 31
0.0
  0
ARC
  5
181F
  8
240
 10
-43.750000000003638
 20
17.742857142846152
 30
0.0
 40
2.4071428571493918
 50
58.715507085859173
 51
121.2844929141399
  0
ARC
  5
1820
  8
240
 10
-30.24999999999709
 20
17.742857142849669
 30
0.0
 40
2.4071428571493918
 50
58.715507085859173
 51
121.2844929141399
  0
ARC
  5
1821
  8
240
 10
-43.750000000010083
 20
-17.742857142854429
 30
0.0
 40
2.4071428571493918
 50
238.71550708583911
 51
301.28449291411982
  0
ARC
  5
1822
  8
240
 10
-30.250000000003549
 20
-17.74285714286286
 30
0.0
 40
2.4071428571493918
 50
238.71550708583911
 51
301.28449291411982
  0
TEXT
  5
1823
  8
247
 10
10.436590075087899
 20
-11.829082556746981
 30
0.0
 40
1.9999999999999949
  1
MGT36-M36-65
 50
90.0
  7
YOKO
  0
INSERT
  5
1824
  8
247
  2
A$C187A1F95
 10
7.371467636619399
 20
0.2666738499570638
 30
0.0
 41
0.7999999999999546
 42
0.8000000000001817
 43
0.8
  0
POINT
  5
1825
  8
0
 10
-15034.813256165129
 20
9264.5895273248061
 30
0.0
1001
GENIUS_GENOLIS_13
1002
{
1000
ENT
1005
0
1005
0
1005
1792
1005
0
1002
}
1001
GENIUS_GENOENT_13
1002
{
1000
MYREF
1005
1825
1002
}
1002
{
1000
GRP
1005
0
1002
}
1001
GENIUS_GENOBJ-N-CRS_13
1002
{
1000
OWNER
1000
GEN
1002
}
1001
GENIUS_GENODEF_13
1002
{
1000
HIER
1070
    10
1002
}
1002
{
1000
MANEDIT
1070
     1
1002
}
1002
{
1000
NOSEL
1070
     0
1002
}
1002
{
1000
BEHIND
1070
     0
1002
}
1002
{
1000
OTHER
1070
     0
1002
}
1002
{
1000
REACTOR
1002
}
  0
ENDBLK
  5
1829
  8
0
  0
BLOCK
  8
0
  2
*U6
 70
     1
 10
0.0
 20
0.0
 30
0.0
  3
*U6
  1

  0
TEXT
  5
191E
  8
250
 10
24.974409909777251
 20
-44.609543030701509
 30
0.0
 40
6.0
  1
o
 50
90.0
  0
TEXT
  5
191F
  8
250
 10
24.974409909777251
 20
-37.46668588784437
 30
0.0
 40
6.0
  1
21
 50
90.0
  0
ENDBLK
  5
1921
  8
0
  0
ENDSEC
  0
SECTION
  2
ENTITIES
  0
TEXT
  5
1531
  8
241
 10
-90.706710985126847
 20
64.279293050699891
 30
0.0
 40
7.5
  1
MGT36-M36-65
  7
YOKO
  0
LINE
  5
1749
  8
250
 10
0.0
 20
27.141256028031421
 30
0.0
 11
0.0000000000000014
 21
50.0
 31
0.0
  0
LINE
  5
174A
  8
250
 10
65.0
 20
25.499999999995762
 30
0.0
 11
65.0
 21
50.0
 31
0.0
  0
LINE
  5
174B
  8
250
 10
2.2300000000000009
 20
49.0
 30
0.0
 11
62.77000000000001
 21
49.0
 31
0.0
  0
LINE
  5
1750
  8
250
 10
64.5
 20
25.999999999995911
 30
0.0
 11
92.0
 21
25.9999999999959
 31
0.0
  0
LINE
  5
1751
  8
250
 10
64.500000000003638
 20
-25.999999999996358
 30
0.0
 11
92.0
 21
-25.999999999996369
 31
0.0
  0
LINE
  5
1752
  8
250
 10
91.0
 20
23.7699999999959
 30
0.0
 11
91.0
 21
-23.769999999996369
 31
0.0
  0
LINE
  5
1756
  8
250
 10
65.499999999998394
 20
13.99999999999803
 30
0.0
 11
78.0
 21
13.99999999999803
 31
0.0
  0
LINE
  5
1757
  8
250
 10
65.499999999998394
 20
-14.00000000000167
 30
0.0
 11
78.0
 21
-14.00000000000168
 31
0.0
  0
LINE
  5
1758
  8
250
 10
77.0
 20
11.76999999999803
 30
0.0
 11
77.0
 21
-11.770000000001669
 31
0.0
  0
LINE
  5
175E
  8
250
 10
25.974409909777251
 20
8.2699999999981806
 30
0.0
 11
25.974409909777251
 21
-8.2700000000018186
 31
0.0
  0
LINE
  5
175F
  8
250
 10
25.97440990977724
 20
-45.03811445927294
 30
0.0
 11
25.974409909777251
 21
-10.500000000001821
 31
0.0
  0
INSERT
  5
1760
  8
240
  2
*U6
 10
0.0
 20
0.0
 30
0.0
  0
TEXT
  5
1763
  8
250
 10
26.642857142857149
 20
50.0
 30
0.0
 40
6.0
  1
65
  0
LINE
  5
1764
  8
250
 10
62.77000000000001
 20
49.37166666666667
 30
0.0
 11
65.0
 21
49.0
 31
0.0
  0
LINE
  5
1765
  8
250
 10
62.77000000000001
 20
48.62833333333333
 30
0.0
 11
65.0
 21
49.0
 31
0.0
  0
LINE
  5
1766
  8
250
 10
65.0
 20
49.0
 30
0.0
 11
62.77000000000001
 21
49.0
 31
0.0
  0
LINE
  5
1767
  8
250
 10
2.2300000000000009
 20
48.62833333333333
 30
0.0
 11
0.0000000000000014
 21
49.0
 31
0.0
  0
LINE
  5
1768
  8
250
 10
2.2300000000000009
 20
49.37166666666667
 30
0.0
 11
0.0000000000000014
 21
49.0
 31
0.0
  0
LINE
  5
1769
  8
250
 10
0.0000000000000014
 20
49.0
 30
0.0
 11
2.2300000000000009
 21
49.0
 31
0.0
  0
TEXT
  5
176A
  8
250
 10
90.0
 20
-8.1428571428573573
 30
0.0
 40
6.0
  1
\U+220552
 50
90.0
  0
LINE
  5
176B
  8
250
 10
91.37166666666667
 20
-23.769999999996369
 30
0.0
 11
91.0
 21
-25.999999999996369
 31
0.0
  0
LINE
  5
176C
  8
250
 10
90.62833333333333
 20
-23.769999999996369
 30
0.0
 11
91.0
 21
-25.999999999996369
 31
0.0
  0
LINE
  5
176D
  8
250
 10
91.0
 20
-25.999999999996369
 30
0.0
 11
91.0
 21
-23.769999999996369
 31
0.0
  0
LINE
  5
176E
  8
250
 10
90.62833333333333
 20
23.7699999999959
 30
0.0
 11
91.0
 21
25.9999999999959
 31
0.0
  0
LINE
  5
176F
  8
250
 10
91.37166666666667
 20
23.7699999999959
 30
0.0
 11
91.0
 21
25.9999999999959
 31
0.0
  0
LINE
  5
1770
  8
250
 10
91.0
 20
25.9999999999959
 30
0.0
 11
91.0
 21
23.7699999999959
 31
0.0
  0
TEXT
  5
1771
  8
250
 10
76.0
 20
-8.1428571428575953
 30
0.0
 40
6.0
  1
\U+220528
 50
90.0
  0
LINE
  5
1772
  8
250
 10
77.371666666666655
 20
-11.770000000001669
 30
0.0
 11
77.0
 21
-14.00000000000168
 31
0.0
  0
LINE
  5
1773
  8
250
 10
76.62833333333333
 20
-11.770000000001669
 30
0.0
 11
77.0
 21
-14.00000000000168
 31
0.0
  0
LINE
  5
1774
  8
250
 10
77.0
 20
-14.00000000000168
 30
0.0
 11
77.0
 21
-11.770000000001669
 31
0.0
  0
LINE
  5
1775
  8
250
 10
76.62833333333333
 20
11.76999999999803
 30
0.0
 11
77.0
 21
13.99999999999803
 31
0.0
  0
LINE
  5
1776
  8
250
 10
77.371666666666655
 20
11.76999999999803
 30
0.0
 11
77.0
 21
13.99999999999803
 31
0.0
  0
LINE
  5
1777
  8
250
 10
77.0
 20
13.99999999999803
 30
0.0
 11
77.0
 21
11.76999999999803
 31
0.0
  0
LINE
  5
1778
  8
250
 10
26.34607657644391
 20
-8.2700000000018186
 30
0.0
 11
25.974409909777251
 21
-10.500000000001821
 31
0.0
  0
LINE
  5
1779
  8
250
 10
25.602743243110581
 20
-8.2700000000018186
 30
0.0
 11
25.974409909777251
 21
-10.500000000001821
 31
0.0
  0
LINE
  5
177A
  8
250
 10
25.974409909777251
 20
-10.500000000001821
 30
0.0
 11
25.974409909777251
 21
-8.2700000000018186
 31
0.0
  0
LINE
  5
177B
  8
250
 10
25.602743243110591
 20
8.2699999999981806
 30
0.0
 11
25.974409909777251
 21
10.499999999998179
 31
0.0
  0
LINE
  5
177C
  8
250
 10
26.34607657644392
 20
8.2699999999981806
 30
0.0
 11
25.974409909777251
 21
10.499999999998179
 31
0.0
  0
LINE
  5
177D
  8
250
 10
25.974409909777251
 20
10.499999999998179
 30
0.0
 11
25.974409909777251
 21
8.2699999999981806
 31
0.0
  0
INSERT
  5
182B
  8
240
  2
A$C5D353142
 10
0.0
 20
0.0
 30
0.0
  0
VIEWPORT
  5
22
 67
     1
  8
0
 10
261.51769911504419
 20
148.5
 30
0.0
 40
523.0353982300885
 41
297.0
 68
     1
 69
     1
1001
ACAD
1000
MVIEW
1002
{
1070
    16
1010
0.0
1020
0.0
1030
0.0
1010
0.0
1020
0.0
1030
1.0
1040
0.0
1040
297.0
1040
261.51769911504419
1040
148.5
1040
50.0
1040
0.0
1040
0.0
1070
     0
1070
   100
1070
     1
1070
     1
1070
     0
1070
     0
1070
     0
1070
     0
1040
0.0
1040
0.0
1040
0.0
1040
1.0
1040
1.0
1040
10.0
1040
10.0
1070
     0
1002
{
1002
}
1002
}
1001
GENIUS_GENODEF_13
1002
{
1000
HIER
1070
     0
1002
}
1002
{
1000
MANEDIT
1070
     0
1002
}
1002
{
1000
NOSEL
1070
     0
1002
}
1002
{
1000
BEHIND
1070
     0
1002
}
1002
{
1000
OTHER
1070
     0
1002
}
1002
{
1000
REACTOR
1002
}
1001
GENIUS_GENOBJ-N-SDF_13
1002
{
1000
OWNER
1000
GEN
1002
}
1001
GENIUS_GENSCREG_15
1000
PF
1040
1.0
1000
DF
1040
1.0
1000
MIN
1011
0.0
1021
0.0
1031
0.0
1021
0.0
1031
0.0
1000
MAX
1011
523.0353982300885
1021
0.0
1031
0.0
1021
297.0
1031
0.0
1000
FLAGS
1070
     2
  0
ENDSEC
  0
EOF
