  0
SECTION
  2
HEADER
  9
$ACADVER
  1
AC1009
  9
$INSBASE
 10
0.0
 20
0.0
 30
0.0
  9
$EXTMIN
 10
-92.508968083550371
 20
-44.782521933388232
 30
0.0
  9
$EXTMAX
 10
92.0
 20
72.81969731915234
 30
0.0
  9
$LIMMIN
 10
0.0
 20
0.0
  9
$LIMMAX
 10
297.0
 20
210.0
  9
$ORTHOMODE
 70
     1
  9
$REGENMODE
 70
     1
  9
$FILLMODE
 70
     1
  9
$QTEXTMODE
 70
     0
  9
$MIRRTEXT
 70
     1
  9
$DRAGMODE
 70
     2
  9
$LTSCALE
 40
10.0
  9
$OSMODE
 70
  3071
  9
$ATTMODE
 70
     1
  9
$TEXTSIZE
 40
3.0
  9
$TRACEWID
 40
1.0
  9
$TEXTSTYLE
  7
YOKO
  9
$CLAYER
  8
240
  9
$CELTYPE
  6
BYLAYER
  9
$CECOLOR
 62
   256
  9
$DIMSCALE
 40
1.0
  9
$DIMASZ
 40
2.2299999999999991
  9
$DIMEXO
 40
0.5
  9
$DIMDLI
 40
7.0
  9
$DIMRND
 40
0.0
  9
$DIMDLE
 40
0.0
  9
$DIMEXE
 40
1.0
  9
$DIMTP
 40
0.0
  9
$DIMTM
 40
0.01
  9
$DIMTXT
 40
2.7999999999999989
  9
$DIMCEN
 40
0.0
  9
$DIMTSZ
 40
0.0
  9
$DIMTOL
 70
     0
  9
$DIMLIM
 70
     0
  9
$DIMTIH
 70
     0
  9
$DIMTOH
 70
     0
  9
$DIMSE1
 70
     0
  9
$DIMSE2
 70
     0
  9
$DIMTAD
 70
     3
  9
$DIMZIN
 70
     9
  9
$DIMBLK
  1
OPEN
  9
$DIMASO
 70
     1
  9
$DIMSHO
 70
     1
  9
$DIMPOST
  1

  9
$DIMAPOST
  1

  9
$DIMALT
 70
     0
  9
$DIMALTD
 70
     2
  9
$DIMALTF
 40
25.399999999999999
  9
$DIMLFAC
 40
1.0
  9
$DIMTOFL
 70
     1
  9
$DIMTVP
 40
0.0
  9
$DIMTIX
 70
     1
  9
$DIMSOXD
 70
     0
  9
$DIMSAH
 70
     0
  9
$DIMBLK1
  1

  9
$DIMBLK2
  1

  9
$DIMSTYLE
  2
BIGT
  9
$DIMCLRD
 70
   256
  9
$DIMCLRE
 70
   256
  9
$DIMCLRT
 70
    40
  9
$DIMTFAC
 40
1.0
  9
$DIMGAP
 40
1.0
  9
$LUNITS
 70
     2
  9
$LUPREC
 70
     3
  9
$SKETCHINC
 40
1.0
  9
$FILLETRAD
 40
0.0
  9
$AUNITS
 70
     0
  9
$AUPREC
 70
     3
  9
$MENU
  1
.
  9
$ELEVATION
 40
0.0
  9
$PELEVATION
 40
0.0
  9
$THICKNESS
 40
0.0
  9
$LIMCHECK
 70
     0
  9
$BLIPMODE
 70
     0
  9
$CHAMFERA
 40
0.25
  9
$CHAMFERB
 40
0.25
  9
$SKPOLY
 70
     0
  9
$TDCREATE
 40
2455799.6754796989
  9
$TDUPDATE
 40
2455799.6797102671
  9
$TDINDWG
 40
0.0041761343
  9
$TDUSRTIMER
 40
0.0041761343
  9
$USRTIMER
 70
     1
  9
$ANGBASE
 50
0.0
  9
$ANGDIR
 70
     0
  9
$PDMODE
 70
     1
  9
$PDSIZE
 40
0.0
  9
$PLINEWID
 40
0.0
  9
$COORDS
 70
     0
  9
$SPLFRAME
 70
     0
  9
$SPLINETYPE
 70
     6
  9
$SPLINESEGS
 70
     4
  9
$ATTDIA
 70
     1
  9
$ATTREQ
 70
     1
  9
$HANDLING
 70
     1
  9
$HANDSEED
  5
1AE9
  9
$SURFTAB1
 70
     6
  9
$SURFTAB2
 70
     6
  9
$SURFTYPE
 70
     6
  9
$SURFU
 70
     6
  9
$SURFV
 70
     6
  9
$UCSNAME
  2

  9
$UCSORG
 10
0.0
 20
0.0
 30
0.0
  9
$UCSXDIR
 10
1.0
 20
0.0
 30
0.0
  9
$UCSYDIR
 10
0.0
 20
1.0
 30
0.0
  9
$PUCSNAME
  2

  9
$PUCSORG
 10
0.0
 20
0.0
 30
0.0
  9
$PUCSXDIR
 10
1.0
 20
0.0
 30
0.0
  9
$PUCSYDIR
 10
0.0
 20
1.0
 30
0.0
  9
$USERI1
 70
     1
  9
$USERI2
 70
     0
  9
$USERI3
 70
     0
  9
$USERI4
 70
     0
  9
$USERI5
 70
     0
  9
$USERR1
 40
0.0
  9
$USERR2
 40
0.0
  9
$USERR3
 40
0.0
  9
$USERR4
 40
0.0
  9
$USERR5
 40
0.0
  9
$WORLDVIEW
 70
     1
  9
$SHADEDGE
 70
     3
  9
$SHADEDIF
 70
    70
  9
$TILEMODE
 70
     1
  9
$MAXACTVP
 70
    16
  9
$PLIMCHECK
 70
     0
  9
$PEXTMIN
 10
1.0000000000000000E+020
 20
1.0000000000000000E+020
 30
1.0000000000000000E+020
  9
$PEXTMAX
 10
-1.0000000000000000E+020
 20
-1.0000000000000000E+020
 30
-1.0000000000000000E+020
  9
$PLIMMIN
 10
0.0
 20
0.0
  9
$PLIMMAX
 10
420.0
 20
297.0
  9
$UNITMODE
 70
     0
  9
$VISRETAIN
 70
     1
  9
$PLINEGEN
 70
     0
  9
$PSLTSCALE
 70
     1
  0
ENDSEC
  0
SECTION
  2
TABLES
  0
TABLE
  2
VPORT
 70
     3
  0
VPORT
  2
*ACTIVE
 70
     0
 10
0.0
 20
0.0
 11
1.0
 21
1.0
 12
6.1338572831382399
 22
14.7526957066086
 13
0.0
 23
0.0
 14
7.0
 24
7.0
 15
7.0
 25
7.0
 16
0.0
 26
0.0
 36
1.0
 17
0.0
 27
0.0
 37
0.0
 40
152.39818459358281
 41
1.5857487922705309
 42
50.0
 43
0.0
 44
0.0
 50
0.0
 51
0.0
 71
     0
 72
  2000
 73
     1
 74
     0
 75
     0
 76
     0
 77
     0
 78
     0
  0
ENDTAB
  0
TABLE
  2
LTYPE
 70
    13
  0
LTYPE
  2
CONTINUOUS
 70
     0
  3
Solid line
 72
    65
 73
     0
 40
0.0
  0
LTYPE
  2
CENTER2
 70
     0
  3
___ _ ___ _ ___ _ ___ _ ___ _ ___ _ ___ _ ___ _
 72
    65
 73
     4
 40
1.125
 49
0.75
 49
-0.125
 49
0.125
 49
-0.125
  0
LTYPE
  2
HIDDEN2
 70
     0
  3
_ _ _ _ _ _ _ _ _ _ _ _ _ _ _ _ _ _ _ _ _ _ _ _
 72
    65
 73
     2
 40
0.1875
 49
0.125
 49
-0.0625
  0
LTYPE
  2
PHANTOM2
 70
     0
  3
___ _ _ ___ _ _ ___ _ _ ___ _ _ ___ _ _ ___ _ _
 72
    65
 73
     6
 40
1.25
 49
0.625
 49
-0.125
 49
0.125
 49
-0.125
 49
0.125
 49
-0.125
  0
LTYPE
  2
CENTER
 70
     0
  3
____ _ ____ _ ____ _ ____ _ ____ _ ____ _ ____ 
 72
    65
 73
     4
 40
2.0
 49
1.25
 49
-0.25
 49
0.25
 49
-0.25
  0
LTYPE
  2
AM_ISO02W050
 70
     0
  3
__ __ __ __ __ __ __ __ __ __ __ __ __ __ __
 72
    65
 73
     2
 40
7.5
 49
6.0
 49
-1.5
  0
LTYPE
  2
AMCONSTR
 70
     0
  3
_______________________
 72
    65
 73
     2
 40
9999.0
 49
9999.0
 49
0.0
  0
LTYPE
  2
ACISOWELD
 70
     0
  3
_ _ _ _ _
 72
    65
 73
     2
 40
2.0
 49
2.0
 49
-1.0
  0
LTYPE
  2
ACISOTGB
 70
     0
  3
__ . . __ . .
 72
    65
 73
     6
 40
9.0
 49
4.0
 49
-1.0
 49
1.0
 49
-1.0
 49
1.0
 49
-1.0
  0
LTYPE
  2
ACISOTGL
 70
     0
  3
_ _ _ _ _
 72
    65
 73
     2
 40
3.0
 49
2.0
 49
-1.0
  0
LTYPE
  2
ACJISTGB
 70
     0
  3
__ . . __ . .
 72
    65
 73
     6
 40
9.0
 49
4.0
 49
-1.0
 49
1.0
 49
-1.0
 49
1.0
 49
-1.0
  0
LTYPE
  2
ACJISTGL
 70
     0
  3
_ _ _ _ _
 72
    65
 73
     2
 40
3.0
 49
2.0
 49
-1.0
  0
LTYPE
  2
HIDDEN
 70
     0
  3
Hidden __ __ __ __ __ __ __ __ __ __ __ __ __ _
 72
    65
 73
     2
 40
9.5249999999999986
 49
6.3499999999999988
 49
-3.1749999999999989
  0
ENDTAB
  0
TABLE
  2
LAYER
 70
    11
  0
LAYER
  2
0
 70
     0
 62
     7
  6
CONTINUOUS
  0
LAYER
  2
DEFPOINTS
 70
     0
 62
     7
  6
CONTINUOUS
  0
LAYER
  2
245
 70
     0
 62
     2
  6
CENTER2
  0
LAYER
  2
240
 70
     0
 62
     4
  6
CONTINUOUS
  0
LAYER
  2
241
 70
     0
 62
   211
  6
CONTINUOUS
  0
LAYER
  2
242
 70
     0
 62
     3
  6
CONTINUOUS
  0
LAYER
  2
243
 70
     0
 62
   211
  6
HIDDEN2
  0
LAYER
  2
244
 70
     0
 62
     3
  6
HIDDEN2
  0
LAYER
  2
247
 70
     0
 62
    60
  6
CONTINUOUS
  0
LAYER
  2
250
 70
     0
 62
     3
  6
CONTINUOUS
  0
LAYER
  2
AM_5
 70
     0
 62
     3
  6
CONTINUOUS
  0
ENDTAB
  0
TABLE
  2
STYLE
 70
     6
  0
STYLE
  2
STANDARD
 70
     0
 40
0.0
 41
1.0
 50
0.0
 71
     0
 42
3.0
  3
romans.shx
  4
extfont.shx
  0
STYLE
  2
ACISOTS
 70
     0
 40
1.0
 41
1.0
 50
0.0
 71
     0
 42
3.0
  3
amgdt.shx
  4
extfont.shx
  0
STYLE
  2
ACISOGDT
 70
     0
 40
0.0
 41
1.0
 50
0.0
 71
     0
 42
3.0
  3
amgdt.shx
  4
extfont.shx
  0
STYLE
  2
ACJISTS
 70
     0
 40
1.0
 41
1.0
 50
0.0
 71
     0
 42
3.0
  3
amgdt.shx
  4
extfont.shx
  0
STYLE
  2
ACJISGDT
 70
     0
 40
0.0
 41
1.0
 50
0.0
 71
     0
 42
3.0
  3
amgdt.shx
  4
extfont.shx
  0
STYLE
  2
YOKO
 70
     0
 40
0.0
 41
1.0
 50
0.0
 71
     0
 42
3.0
  3
romans.shx
  4
extfont.shx
  0
ENDTAB
  0
TABLE
  2
VIEW
 70
     0
  0
ENDTAB
  0
TABLE
  2
UCS
 70
     0
  0
ENDTAB
  0
TABLE
  2
APPID
 70
    34
  0
APPID
  2
ACAD
 70
     0
  0
APPID
  2
GLOBAL
 70
     0
  0
APPID
  2
DETAIL
 70
     0
  0
APPID
  2
GRPNAME
 70
     0
  0
APPID
  2
GPARA
 70
     0
  0
APPID
  2
MCAD_NO_VIS
 70
     0
  0
APPID
  2
ACAD_TEMP_GRAPHIC
 70
     0
  0
APPID
  2
ACATTRIBSERVICES
 70
     0
  0
APPID
  2
GENIUS_GENSCREG_15
 70
     0
  0
APPID
  2
GENIUS_GENODEF_13
 70
     0
  0
APPID
  2
GENIUS_GENOBJ-N-SDF_13
 70
     0
  0
APPID
  2
GENIUS_GENREC_14
 70
     0
  0
APPID
  2
GENIUS_GENOBJ-N-REC_13
 70
     0
  0
APPID
  2
GENIUS_GENDIMSH_14
 70
     0
  0
APPID
  2
GENIUS_GENOBJ-N-DIM_13
 70
     0
  0
APPID
  2
GENIUS_GENDIM_13
 70
     0
  0
APPID
  2
GENIUS_GENDTOL_13
 70
     0
  0
APPID
  2
GENIUS_GENOLIS_13
 70
     0
  0
APPID
  2
GENIUS_GENOENT_13
 70
     0
  0
APPID
  2
GENIUS_GENOBJ-F-FEM_13
 70
     0
  0
APPID
  2
GENIUS_GENOREF_13
 70
     0
  0
APPID
  2
GENIUS_GEFFEM_13
 70
     0
  0
APPID
  2
GENIUS_GEFFEMP_13
 70
     0
  0
APPID
  2
AD_DRAW
 70
     0
  0
APPID
  2
DESIGNERASSEMBLIES
 70
     0
  0
APPID
  2
ACADM_DIM_EDIT
 70
     0
  0
APPID
  2
AMDT_DM_ADJ
 70
     0
  0
APPID
  2
GENIUS_GENOBJ-N-FIL_13
 70
     0
  0
APPID
  2
GENIUS_GENFIL_13
 70
     0
  0
APPID
  2
GENIUS_GENOBJ-N-CHA_13
 70
     0
  0
APPID
  2
GENIUS_GENOBJ-N-CRS_13
 70
     0
  0
APPID
  2
HATCH_TYPE
 70
     0
  0
APPID
  2
HATCH_DISPLAY
 70
     0
  0
APPID
  2
HATCH_DISTANCE
 70
     0
  0
ENDTAB
  0
TABLE
  2
DIMSTYLE
 70
    23
  0
DIMSTYLE
  2
BIGT
 70
     0
  3

  4

  5
OPEN
  6

  7

 40
1.0
 41
2.2299999999999991
 42
0.5
 43
7.0
 44
1.0
 45
0.0
 46
0.0
 47
0.0
 48
0.01
140
2.7999999999999989
141
0.0
142
0.0
143
25.399999999999999
144
1.0
145
0.0
146
1.0
147
1.0
 71
     0
 72
     0
 73
     0
 74
     0
 75
     0
 76
     0
 77
     3
 78
     9
170
     0
171
     2
172
     1
173
     0
174
     1
175
     0
176
   256
177
   256
178
    40
  0
DIMSTYLE
  2
AM_ISO
 70
     0
  3

  4
"
  5

  6

  7

 40
1.0
 41
2.5
 42
1.0
 43
10.0
 44
1.0
 45
0.0
 46
0.0
 47
0.1
 48
0.1
140
3.5
141
0.0
142
0.0
143
0.0393701
144
1.0
145
0.0
146
0.71
147
1.5
 71
     0
 72
     0
 73
     0
 74
     0
 75
     0
 76
     0
 77
     1
 78
     8
170
     0
171
     2
172
     1
173
     0
174
     0
175
     0
176
   256
177
   256
178
     2
  0
DIMSTYLE
  2
AM_ISO$3
 70
     0
  3

  4
"
  5

  6

  7

 40
1.0
 41
2.5
 42
1.0
 43
10.0
 44
1.0
 45
0.0
 46
0.0
 47
0.1
 48
0.1
140
3.5
141
0.0
142
0.0
143
0.0393701
144
1.0
145
0.0
146
0.71
147
1.5
 71
     0
 72
     0
 73
     0
 74
     1
 75
     0
 76
     0
 77
     1
 78
     8
170
     0
171
     2
172
     0
173
     0
174
     0
175
     0
176
   256
177
   256
178
     2
  0
DIMSTYLE
  2
AM_ISO$4
 70
     0
  3

  4
"
  5

  6

  7

 40
1.0
 41
2.5
 42
1.0
 43
10.0
 44
1.0
 45
0.0
 46
0.0
 47
0.1
 48
0.1
140
3.5
141
0.0
142
0.0
143
0.0393701
144
1.0
145
0.0
146
0.71
147
1.5
 71
     0
 72
     0
 73
     0
 74
     1
 75
     0
 76
     0
 77
     1
 78
     8
170
     0
171
     2
172
     0
173
     0
174
     0
175
     0
176
   256
177
   256
178
     2
  0
DIMSTYLE
  2
AM_ISO$6
 70
     0
  3

  4
"
  5

  6

  7

 40
1.0
 41
2.5
 42
1.0
 43
10.0
 44
1.0
 45
0.0
 46
0.0
 47
0.1
 48
0.1
140
3.5
141
0.0
142
0.0
143
0.0393701
144
1.0
145
0.0
146
0.71
147
1.5
 71
     0
 72
     0
 73
     0
 74
     0
 75
     0
 76
     0
 77
     0
 78
     8
170
     0
171
     2
172
     1
173
     0
174
     0
175
     0
176
   256
177
   256
178
     2
  0
DIMSTYLE
  2
AM_ISO$7
 70
     0
  3

  4
"
  5

  6

  7

 40
1.0
 41
2.5
 42
1.0
 43
10.0
 44
1.0
 45
0.0
 46
0.0
 47
0.1
 48
0.1
140
5.0
141
0.0
142
0.0
143
0.0393701
144
1.0
145
0.0
146
0.71
147
1.5
 71
     0
 72
     0
 73
     0
 74
     0
 75
     0
 76
     0
 77
     1
 78
     8
170
     0
171
     2
172
     1
173
     0
174
     0
175
     0
176
   256
177
   256
178
     2
  0
DIMSTYLE
  2
AM_ISO$SF
 70
     0
  3

  4
"
  5

  6

  7

 40
1.0
 41
2.5
 42
1.0
 43
10.0
 44
1.0
 45
0.0
 46
0.0
 47
0.1
 48
0.1
140
3.5
141
0.0
142
0.0
143
0.0393701
144
1.0
145
0.0
146
0.71
147
1.5
 71
     0
 72
     0
 73
     0
 74
     0
 75
     1
 76
     1
 77
     1
 78
     8
170
     0
171
     2
172
     1
173
     0
174
     0
175
     0
176
   256
177
   256
178
     2
  0
DIMSTYLE
  2
AM_ISO$SH
 70
     0
  3

  4
"
  5

  6
GENAXEH
  7

 40
1.0
 41
2.5
 42
1.0
 43
10.0
 44
1.0
 45
0.0
 46
0.0
 47
0.1
 48
0.1
140
3.5
141
0.0
142
0.0
143
0.0393701
144
2.0
145
0.0
146
0.71
147
1.5
 71
     0
 72
     0
 73
     0
 74
     0
 75
     1
 76
     1
 77
     1
 78
     8
170
     0
171
     2
172
     1
173
     1
174
     0
175
     0
176
   256
177
   256
178
     2
  0
DIMSTYLE
  2
BIGT$2
 70
     0
  3

  4

  5
OPEN
  6

  7

 40
1.0
 41
2.2299999999999991
 42
0.5
 43
7.0
 44
1.0
 45
0.0
 46
0.0
 47
0.0
 48
0.01
140
2.7999999999999989
141
0.0
142
0.0
143
25.399999999999999
144
1.0
145
0.0
146
1.0
147
1.0
 71
     0
 72
     0
 73
     0
 74
     0
 75
     0
 76
     0
 77
     3
 78
     9
170
     0
171
     2
172
     1
173
     0
174
     0
175
     0
176
   256
177
   256
178
    40
  0
DIMSTYLE
  2
BIGT$3
 70
     0
  3

  4

  5
OPEN
  6

  7

 40
1.0
 41
2.2299999999999991
 42
0.5
 43
2.5
 44
1.0
 45
0.0
 46
0.0
 47
0.0
 48
0.01
140
2.7999999999999989
141
0.0
142
0.0
143
25.399999999999999
144
1.0
145
0.0
146
1.0
147
1.0
 71
     0
 72
     0
 73
     0
 74
     0
 75
     0
 76
     0
 77
     3
 78
     9
170
     0
171
     2
172
     1
173
     0
174
     0
175
     0
176
   256
177
   256
178
    40
  0
DIMSTYLE
  2
BIGT$7
 70
     0
  3

  4

  5
OPEN
  6

  7

 40
0.0
 41
2.2299999999999991
 42
0.5
 43
7.0
 44
1.0
 45
0.0
 46
0.0
 47
0.0
 48
0.01
140
2.7999999999999989
141
0.0
142
0.0
143
25.399999999999999
144
1.0
145
0.0
146
1.0
147
1.0
 71
     0
 72
     0
 73
     0
 74
     0
 75
     0
 76
     0
 77
     3
 78
     9
170
     0
171
     2
172
     0
173
     0
174
     0
175
     0
176
   256
177
   256
178
    40
  0
DIMSTYLE
  2
BIGT$6
 70
     0
  3

  4

  5
OPEN
  6

  7

 40
1.0
 41
2.2299999999999991
 42
0.5
 43
2.5
 44
1.0
 45
0.0
 46
0.0
 47
0.0
 48
0.01
140
2.7999999999999989
141
0.0
142
0.0
143
25.399999999999999
144
1.0
145
0.0
146
1.0
147
1.0
 71
     0
 72
     0
 73
     0
 74
     0
 75
     0
 76
     0
 77
     3
 78
     9
170
     0
171
     2
172
     1
173
     0
174
     0
175
     0
176
   256
177
   256
178
    40
  0
DIMSTYLE
  2
BIGT$0
 70
     0
  3

  4

  5
OPEN
  6

  7

 40
1.0
 41
2.2299999999999991
 42
0.5
 43
7.0
 44
1.0
 45
0.0
 46
0.0
 47
0.0
 48
0.01
140
2.7999999999999989
141
0.0
142
0.0
143
25.399999999999999
144
1.0
145
0.0
146
1.0
147
1.0
 71
     0
 72
     0
 73
     0
 74
     0
 75
     0
 76
     0
 77
     3
 78
     9
170
     0
171
     2
172
     1
173
     0
174
     0
175
     0
176
   256
177
   256
178
    40
  0
DIMSTYLE
  2
BIGT$4
 70
     0
  3

  4

  5
OPEN
  6

  7

 40
1.0
 41
2.2299999999999991
 42
0.5
 43
2.5
 44
1.0
 45
0.0
 46
0.0
 47
0.0
 48
0.01
140
2.7999999999999989
141
0.0
142
0.0
143
25.399999999999999
144
1.0
145
0.0
146
1.0
147
1.0
 71
     0
 72
     0
 73
     0
 74
     0
 75
     0
 76
     0
 77
     3
 78
     9
170
     0
171
     2
172
     1
173
     0
174
     0
175
     0
176
   256
177
   256
178
    40
  0
DIMSTYLE
  2
BIGT$SH
 70
     0
  3

  4

  5
OPEN
  6

  7

 40
1.0
 41
2.2299999999999991
 42
0.5
 43
7.0
 44
1.0
 45
0.0
 46
0.0
 47
0.0
 48
0.0
140
2.7999999999999989
141
0.0
142
0.0
143
25.399999999999999
144
1.0
145
0.0
146
1.0
147
1.0
 71
     0
 72
     0
 73
     0
 74
     0
 75
     0
 76
     0
 77
     3
 78
     9
170
     0
171
     2
172
     1
173
     0
174
     0
175
     0
176
   256
177
   256
178
    40
  0
DIMSTYLE
  2
BIGT$SF
 70
     0
  3

  4

  5
OPEN
  6

  7

 40
1.0
 41
2.2299999999999991
 42
0.5
 43
7.0
 44
1.0
 45
0.0
 46
0.0
 47
0.0
 48
0.0
140
2.7999999999999989
141
0.0
142
0.0
143
25.399999999999999
144
1.0
145
0.0
146
1.0
147
1.0
 71
     0
 72
     0
 73
     0
 74
     0
 75
     0
 76
     0
 77
     3
 78
     9
170
     0
171
     2
172
     1
173
     0
174
     0
175
     0
176
   256
177
   256
178
    40
  0
DIMSTYLE
  2
TECHNICAL_OSAKA
 70
     0
  3

  4
"
  5
OPEN30
  6

  7

 40
1.0
 41
2.5
 42
1.0
 43
10.0
 44
1.0
 45
0.0
 46
0.0
 47
0.1
 48
0.1
140
2.7999999999999989
141
0.0
142
0.0
143
0.0393701
144
1.0
145
0.0
146
0.71
147
1.5
 71
     0
 72
     0
 73
     0
 74
     0
 75
     0
 76
     0
 77
     3
 78
     8
170
     0
171
     2
172
     1
173
     0
174
     0
175
     0
176
   256
177
   256
178
    40
  0
DIMSTYLE
  2
TECHNICAL_OSAKA$3
 70
     0
  3

  4
"
  5
OPEN30
  6

  7

 40
1.0
 41
2.5
 42
1.0
 43
10.0
 44
1.0
 45
0.0
 46
0.0
 47
0.1
 48
0.1
140
2.7999999999999989
141
0.0
142
0.0
143
0.0393701
144
1.0
145
0.0
146
0.71
147
1.5
 71
     0
 72
     0
 73
     0
 74
     1
 75
     0
 76
     0
 77
     3
 78
     8
170
     0
171
     2
172
     0
173
     0
174
     0
175
     0
176
   256
177
   256
178
    40
  0
DIMSTYLE
  2
TECHNICAL_OSAKA$4
 70
     0
  3

  4
"
  5
OPEN30
  6

  7

 40
1.0
 41
2.5
 42
1.0
 43
10.0
 44
1.0
 45
0.0
 46
0.0
 47
0.1
 48
0.1
140
2.7999999999999989
141
0.0
142
0.0
143
0.0393701
144
1.0
145
0.0
146
0.71
147
1.5
 71
     0
 72
     0
 73
     0
 74
     1
 75
     0
 76
     0
 77
     3
 78
     8
170
     0
171
     2
172
     0
173
     0
174
     0
175
     0
176
   256
177
   256
178
    40
  0
DIMSTYLE
  2
TECHNICAL_OSAKA$6
 70
     0
  3

  4
"
  5
OPEN30
  6

  7

 40
1.0
 41
2.5
 42
1.0
 43
10.0
 44
1.0
 45
0.0
 46
0.0
 47
0.1
 48
0.1
140
2.7999999999999989
141
0.0
142
0.0
143
0.0393701
144
1.0
145
0.0
146
0.71
147
1.5
 71
     0
 72
     0
 73
     0
 74
     0
 75
     0
 76
     0
 77
     0
 78
     8
170
     0
171
     2
172
     1
173
     0
174
     0
175
     0
176
   256
177
   256
178
    40
  0
DIMSTYLE
  2
TECHNICAL_OSAKA$7
 70
     0
  3

  4
"
  5
OPEN30
  6

  7

 40
1.0
 41
2.5
 42
1.0
 43
10.0
 44
1.0
 45
0.0
 46
0.0
 47
0.1
 48
0.1
140
2.7999999999999989
141
0.0
142
0.0
143
0.0393701
144
1.0
145
0.0
146
0.71
147
1.5
 71
     0
 72
     0
 73
     0
 74
     0
 75
     0
 76
     0
 77
     3
 78
     8
170
     0
171
     2
172
     1
173
     0
174
     0
175
     0
176
   256
177
   256
178
    40
  0
DIMSTYLE
  2
TECHNICAL_OSAKA$SF
 70
     0
  3

  4
"
  5
OPEN30
  6
OPEN30
  7
OPEN30
 40
1.0
 41
2.5
 42
1.0
 43
10.0
 44
1.0
 45
0.0
 46
0.0
 47
0.1
 48
0.1
140
3.5
141
0.0
142
0.0
143
0.0393701
144
1.0
145
0.0
146
0.71
147
1.5
 71
     0
 72
     0
 73
     0
 74
     0
 75
     1
 76
     1
 77
     3
 78
     8
170
     0
171
     2
172
     1
173
     0
174
     0
175
     0
176
   256
177
   256
178
    40
  0
DIMSTYLE
  2
TECHNICAL_OSAKA$SH
 70
     0
  3

  4
"
  5
OPEN30
  6
GENAXEH
  7
OPEN30
 40
1.0
 41
2.5
 42
1.0
 43
10.0
 44
1.0
 45
0.0
 46
0.0
 47
0.1
 48
0.1
140
3.5
141
0.0
142
0.0
143
0.0393701
144
2.0
145
0.0
146
0.71
147
1.5
 71
     0
 72
     0
 73
     0
 74
     0
 75
     1
 76
     1
 77
     3
 78
     8
170
     0
171
     2
172
     1
173
     1
174
     0
175
     0
176
   256
177
   256
178
    40
  0
ENDTAB
  0
ENDSEC
  0
SECTION
  2
BLOCKS
  0
BLOCK
  8
0
  2
$MODEL_SPACE
 70
     0
 10
0.0
 20
0.0
 30
0.0
  3
$MODEL_SPACE
  1

  0
ENDBLK
  5
1C
  8
0
  0
BLOCK
 67
     1
  8
0
  2
$PAPER_SPACE
 70
     0
 10
0.0
 20
0.0
 30
0.0
  3
$PAPER_SPACE
  1

  0
ENDBLK
  5
19
 67
     1
  8
0
  0
BLOCK
  8
0
  2
_OPEN
 70
     0
 10
0.0
 20
0.0
 30
0.0
  3
_OPEN
  1

  0
LINE
  5
1872
  8
0
  6
BYBLOCK
 62
     0
 10
-1.0
 20
0.1666666666666666
 30
0.0
 11
0.0
 21
0.0
 31
0.0
  0
LINE
  5
1873
  8
0
  6
BYBLOCK
 62
     0
 10
-1.0
 20
-0.1666666666666666
 30
0.0
 11
0.0
 21
0.0
 31
0.0
  0
LINE
  5
1874
  8
0
  6
BYBLOCK
 62
     0
 10
0.0
 20
0.0
 30
0.0
 11
-1.0
 21
0.0
 31
0.0
  0
ENDBLK
  5
1875
  8
0
  0
BLOCK
  8
0
  2
GENAXEH
 70
     0
 10
0.0
 20
0.0
 30
0.0
  3
GENAXEH
  1

  0
LINE
  5
189D
  8
0
 10
-1.0
 20
0.0
 30
0.0
 11
1.0
 21
0.0
 31
0.0
  0
ENDBLK
  5
189E
  8
0
  0
BLOCK
  8
0
  2
_OPEN30
 70
     0
 10
0.0
 20
0.0
 30
0.0
  3
_OPEN30
  1

  0
LINE
  5
18C2
  8
0
  6
BYBLOCK
 62
     0
 10
-1.0
 20
0.26794919
 30
0.0
 11
0.0
 21
0.0
 31
0.0
  0
LINE
  5
18C3
  8
0
  6
BYBLOCK
 62
     0
 10
0.0
 20
0.0
 30
0.0
 11
-1.0
 21
-0.26794919
 31
0.0
  0
LINE
  5
18C4
  8
0
  6
BYBLOCK
 62
     0
 10
0.0
 20
0.0
 30
0.0
 11
-1.0
 21
0.0
 31
0.0
  0
ENDBLK
  5
18C5
  8
0
  0
BLOCK
  8
0
  2
A$C187A1F95
 70
     0
 10
0.0
 20
0.0
 30
0.0
  3
A$C187A1F95
  1

  0
LINE
  5
164D
  8
247
 10
-1.977322221090559
 20
-4.6206927367445578
 30
0.0
 11
-3.13535869020876
 21
-3.462656267626357
 31
0.0
  0
LINE
  5
164E
  8
247
 10
-1.5930681041632491
 20
-4.6681872491318464
 30
0.0
 11
-1.945934160116449
 21
-4.3153211931786473
 31
0.0
  0
LINE
  5
164F
  8
247
 10
-2.8299871466427922
 20
-3.4312682066522471
 30
0.0
 11
-3.182853202595993
 21
-3.0784021506990462
 31
0.0
  0
LINE
  5
1650
  8
247
 10
-1.285909228951936
 20
-4.6385865198030842
 30
0.0
 11
-1.5598263861990631
 21
-4.3646693625558992
 31
0.0
  0
LINE
  5
1651
  8
247
 10
-2.8797229450412938
 20
-3.0447728037137249
 30
0.0
 11
-3.1828540485569188
 21
-2.7416417001980999
 31
0.0
  0
LINE
  5
1652
  8
247
 10
-1.024104307719085
 20
-4.5636318364957971
 30
0.0
 11
-1.264778152703399
 21
-4.32295799151143
 31
0.0
  0
LINE
  5
1653
  8
247
 10
-2.8797229450412938
 20
-2.7080131991735881
 30
0.0
 11
-3.1185360242286571
 21
-2.4692001199862261
 31
0.0
  0
LINE
  5
1654
  8
247
 10
-0.7958947460217019
 20
-4.4550817936531057
 30
0.0
 11
-1.019720746314817
 21
-4.231255793359991
 31
0.0
  0
LINE
  5
1655
  8
247
 10
-0.5958766478120765
 20
-4.318340287322596
 30
0.0
 11
-0.8118227762631136
 21
-4.1023941588715607
 31
0.0
  0
LINE
  5
1656
  8
247
 10
-0.4216677276632482
 20
-4.155789602931347
 30
0.0
 11
-0.6362292780136727
 21
-3.9412280525809811
 31
0.0
  0
LINE
  5
1657
  8
247
 10
-0.2728593971191913
 20
-3.967838328935386
 30
0.0
 11
-0.4921504254615459
 21
-3.7485473005929171
 31
0.0
  0
LINE
  5
1658
  8
247
 10
-0.1508597531703799
 20
-3.7530783683440632
 30
0.0
 11
-0.3823598840220939
 21
-3.5215782374923461
 31
0.0
  0
LINE
  5
1659
  8
247
 10
-0.0594621020085242
 20
-3.5077164149657829
 30
0.0
 11
-0.3151142378612803
 21
-3.2520642791130281
 31
0.0
  0
LINE
  5
165A
  8
247
 10
-0.0067916597444082
 20
-3.2236272526898802
 30
0.0
 11
-0.3031310957142068
 21
-2.9272878167200811
 31
0.0
  0
LINE
  5
165B
  8
247
 10
0.0
 20
-2.8936593078941528
 30
0.0
 11
-0.3031310957142068
 21
-2.5905282121799429
 31
0.0
  0
LINE
  5
165C
  8
247
 10
0.0
 20
-2.5568997033540191
 30
0.0
 11
-0.3031310957142068
 21
-2.2537686076398131
 31
0.0
  0
LINE
  5
165D
  8
247
 10
0.0
 20
-2.2201400988139981
 30
0.0
 11
-0.3031310957142068
 21
-1.917009003099678
 31
0.0
  0
LINE
  5
165E
  8
247
 10
0.0
 20
-1.883380494273865
 30
0.0
 11
-0.3031310957142068
 21
-1.580249398559658
 31
0.0
  0
LINE
  5
165F
  8
247
 10
0.0
 20
-1.546620889733729
 30
0.0
 11
-0.3031310957142068
 21
-1.243489794019524
 31
0.0
  0
LINE
  5
1660
  8
247
 10
0.0
 20
-1.2098612851937101
 30
0.0
 11
-0.3031310957142068
 21
-0.9067301894795035
 31
0.0
  0
LINE
  5
1661
  8
247
 10
0.0
 20
-0.8731016806535761
 30
0.0
 11
-0.3031310957142068
 21
-0.5699705849393695
 31
0.0
  0
LINE
  5
1662
  8
247
 10
0.0
 20
-0.5363420761134421
 30
0.0
 11
-0.3031310957142068
 21
-0.2332109803992353
 31
0.0
  0
LINE
  5
1663
  8
247
 10
0.0
 20
-0.1995824715734216
 30
0.0
 11
-0.3031310957142068
 21
0.1035486241407852
 31
0.0
  0
LINE
  5
1664
  8
247
 10
-2.932855779871657
 20
2.7332733082982941
 30
0.0
 11
-3.1799308926475169
 21
2.980348421074154
 31
0.0
  0
LINE
  5
1665
  8
247
 10
0.0
 20
0.1371771329667126
 30
0.0
 11
-0.3031310957142068
 21
0.4403082286809197
 31
0.0
  0
LINE
  5
1666
  8
247
 10
-2.8782627028439829
 20
3.0154398358106378
 30
0.0
 11
-3.1665816475214679
 21
3.303758780488236
 31
0.0
  0
LINE
  5
1667
  8
247
 10
0.0
 20
0.4739367375067334
 30
0.0
 11
-0.3031310957142068
 21
0.77706783322094
 31
0.0
  0
LINE
  5
1668
  8
247
 10
-2.8548341321414328
 20
3.3287708696482201
 30
0.0
 11
-3.1024062022968319
 21
3.5763429398036801
 31
0.0
  0
LINE
  5
1669
  8
247
 10
0.0
 20
0.8106963420468671
 30
0.0
 11
-0.3031310957142068
 21
1.1138274377610731
 31
0.0
  0
LINE
  5
166A
  8
247
 10
-2.7749546287429299
 20
3.5856509707898558
 30
0.0
 11
-3.0023082063022448
 21
3.8130045483491131
 31
0.0
  0
LINE
  5
166B
  8
247
 10
0.0
 20
1.147455946587
 30
0.0
 11
-0.3031310957142068
 21
1.4505870423012079
 31
0.0
  0
LINE
  5
166C
  8
247
 10
-2.6555268837903441
 20
3.8029828303773452
 30
0.0
 11
-2.8729215537842938
 21
4.0203775003712963
 31
0.0
  0
LINE
  5
166D
  8
247
 10
0.0
 20
1.484215551127021
 30
0.0
 11
-0.3031310957142068
 21
1.7873466468413399
 31
0.0
  0
LINE
  5
166E
  8
247
 10
-2.502948933296635
 20
3.9871644844237131
 30
0.0
 11
-2.7172950248791481
 21
4.2015105760061706
 31
0.0
  0
LINE
  5
166F
  8
247
 10
0.0
 20
1.8209751556671561
 30
0.0
 11
-0.3031310957142068
 21
2.1241062513813631
 31
0.0
  0
LINE
  5
1670
  8
247
 10
-2.3189776436271901
 20
4.1399527992944041
 30
0.0
 11
-2.5363312151759478
 21
4.3573063708431601
 31
0.0
  0
LINE
  5
1671
  8
247
 10
0.0
 20
2.15773476020729
 30
0.0
 11
-0.3031310957142068
 21
2.4608658559214951
 31
0.0
  0
LINE
  5
1672
  8
247
 10
-2.101880422311011
 20
4.259615182518246
 30
0.0
 11
-2.3291397943701782
 21
4.4868745545774109
 31
0.0
  0
LINE
  5
1673
  8
247
 10
0.0
 20
2.494494364747311
 30
0.0
 11
-0.3031310957142068
 21
2.7976254604615161
 31
0.0
  0
LINE
  5
1674
  8
247
 10
-1.845300616400209
 20
4.33979498114752
 30
0.0
 11
-2.0926892600573961
 21
4.5871836248047622
 31
0.0
  0
LINE
  5
1675
  8
247
 10
0.0
 20
2.831253969287443
 30
0.0
 11
-0.3044820142378626
 21
3.1357359835252501
 31
0.0
  0
LINE
  5
1676
  8
247
 10
-1.5324524613939161
 20
4.3637064306814182
 30
0.0
 11
-1.8203788736346951
 21
4.6516328429221359
 31
0.0
  0
LINE
  5
1677
  8
247
 10
-0.0027808648878249
 20
3.1707944387153462
 30
0.0
 11
-0.4008019269780334
 21
3.5688155008056111
 31
0.0
  0
LINE
  5
1678
  8
247
 10
-1.0993729441136111
 20
4.2673865179411861
 30
0.0
 11
-1.4973940062038731
 21
4.6654075800313421
 31
0.0
  0
LINE
  5
1679
  8
247
 10
-0.0849319226709895
 20
3.5897051010385872
 30
0.0
 11
-1.0784833438805741
 21
4.5832565222482327
 31
0.0
  0
LINE
  5
167A
  8
247
 10
-3.151530330666048
 20
-0.078888581768183
 30
0.0
 11
-3.1828540485569188
 21
-0.0475648638773691
 31
0.0
  0
LINE
  5
167B
  8
247
 10
-2.8341326316891
 20
-0.0595266762051097
 30
0.0
 11
-3.1828540485569188
 21
0.2891947406627651
 31
0.0
  0
LINE
  5
167C
  8
247
 10
-2.3619864480280031
 20
-0.1949132553260142
 30
0.0
 11
-3.1828540485569188
 21
0.6259543452028993
 31
0.0
  0
LINE
  5
167D
  8
247
 10
-1.889840264366909
 20
-0.3302998344470325
 30
0.0
 11
-2.8403967590846828
 21
0.6202566602706841
 31
0.0
  0
LINE
  5
167E
  8
247
 10
-1.417694080705814
 20
-0.465686413568051
 30
0.0
 11
-2.368252423011425
 21
0.4848719287375616
 31
0.0
  0
LINE
  5
167F
  8
247
 10
-0.9455478970447755
 20
-0.601072992689069
 30
0.0
 11
-1.896108086938225
 21
0.3494871972044393
 31
0.0
  0
LINE
  5
1680
  8
247
 10
-0.4734017133836801
 20
-0.7364595718099736
 30
0.0
 11
-1.4239637508649701
 21
0.2141024656713171
 31
0.0
  0
LINE
  5
1681
  8
247
 10
-0.4546966474720194
 20
-0.418405033181557
 30
0.0
 11
-0.9518194147917714
 21
0.0787177341381948
 31
0.0
  0
LINE
  5
1682
  8
247
 10
-0.4546966474720194
 20
-0.0816454286414228
 30
0.0
 11
-0.4796750787185148
 21
-0.0566669973949274
 31
0.0
  0
LINE
  5
1683
  8
247
 10
-3.1828540485569188
 20
0.7184543609619141
 30
0.0
 11
-3.1828540485569188
 21
-0.0699062347412109
 31
0.0
  0
LINE
  5
1684
  8
247
 10
-0.4546966474720194
 20
-0.0638294219970703
 30
0.0
 11
-3.1828540485569188
 21
0.7184543609619141
 31
0.0
  0
LINE
  5
1685
  8
247
 10
-0.4546966474720194
 20
-0.7418231964111329
 30
0.0
 11
-0.4546966474720194
 21
-0.0638294219970703
 31
0.0
  0
LINE
  5
1686
  8
247
 10
-2.8494189899631688
 20
-0.0551433563232422
 30
0.0
 11
-0.4546966474720194
 21
-0.7418231964111329
 31
0.0
  0
LINE
  5
1687
  8
247
 10
-2.8494189899631688
 20
-0.1655216217041016
 30
0.0
 11
-2.8494189899631688
 21
-0.0551433563232422
 31
0.0
  0
LINE
  5
1688
  8
247
 10
-3.1828540485569188
 20
-0.0699062347412109
 30
0.0
 11
-2.8494189899631688
 21
-0.1655216217041016
 31
0.0
  0
LINE
  5
1689
  8
247
 10
-3.1828540485569188
 20
0.7184543609619141
 30
0.0
 11
-3.1828540485569188
 21
-0.0699062347412109
 31
0.0
1001
HATCH_DISTANCE
1040
1.0
1001
HATCH_DISPLAY
1070
     0
1001
HATCH_TYPE
1070
     7
  0
LINE
  5
168A
  8
247
 10
-0.4546966474720194
 20
-0.0638294219970703
 30
0.0
 11
-3.1828540485569188
 21
0.7184543609619141
 31
0.0
1001
HATCH_DISTANCE
1040
1.0
1001
HATCH_DISPLAY
1070
     0
1001
HATCH_TYPE
1070
     7
  0
LINE
  5
168B
  8
247
 10
-0.4546966474720194
 20
-0.7418231964111329
 30
0.0
 11
-0.4546966474720194
 21
-0.0638294219970703
 31
0.0
1001
HATCH_DISTANCE
1040
1.0
1001
HATCH_DISPLAY
1070
     0
1001
HATCH_TYPE
1070
     7
  0
LINE
  5
168C
  8
247
 10
-2.8494189899631688
 20
-0.0551433563232422
 30
0.0
 11
-0.4546966474720194
 21
-0.7418231964111329
 31
0.0
1001
HATCH_DISTANCE
1040
1.0
1001
HATCH_DISPLAY
1070
     0
1001
HATCH_TYPE
1070
     7
  0
LINE
  5
168D
  8
247
 10
-2.8494189899631688
 20
-0.1655216217041016
 30
0.0
 11
-2.8494189899631688
 21
-0.0551433563232422
 31
0.0
1001
HATCH_DISTANCE
1040
1.0
1001
HATCH_DISPLAY
1070
     0
1001
HATCH_TYPE
1070
     7
  0
LINE
  5
168E
  8
247
 10
-3.1828540485569188
 20
-0.0699062347412109
 30
0.0
 11
-2.8494189899631688
 21
-0.1655216217041016
 31
0.0
1001
HATCH_DISTANCE
1040
1.0
1001
HATCH_DISPLAY
1070
     0
1001
HATCH_TYPE
1070
     7
  0
LINE
  5
168F
  8
247
 10
-2.8407672565647308
 20
2.7623119354248038
 30
0.0
 11
-2.8407672565647308
 21
2.7623119354248038
 31
0.0
  0
LINE
  5
1690
  8
247
 10
-3.1302684467502782
 20
2.671022415161127
 30
0.0
 11
-2.8407672565647308
 21
2.7623119354248038
 31
0.0
  0
LINE
  5
1691
  8
247
 10
-3.1302684467502782
 20
2.671022415161127
 30
0.0
 11
-3.1302684467502782
 21
2.671022415161127
 31
0.0
  0
LINE
  5
1692
  8
247
 10
-2.8407672565647308
 20
2.7623119354248038
 30
0.0
 11
-3.1302684467502782
 21
2.671022415161127
 31
0.0
  0
LINE
  5
1693
  8
247
 10
-2.8407672565647308
 20
2.7623119354248038
 30
0.0
 11
-2.8407672565647308
 21
2.7623119354248038
 31
0.0
1001
HATCH_DISTANCE
1040
1.0
1001
HATCH_DISPLAY
1070
     0
1001
HATCH_TYPE
1070
     7
  0
LINE
  5
1694
  8
247
 10
-3.1302684467502782
 20
2.671022415161127
 30
0.0
 11
-2.8407672565647308
 21
2.7623119354248038
 31
0.0
1001
HATCH_DISTANCE
1040
1.0
1001
HATCH_DISPLAY
1070
     0
1001
HATCH_TYPE
1070
     7
  0
LINE
  5
1695
  8
247
 10
-3.1302684467502782
 20
2.671022415161127
 30
0.0
 11
-3.1302684467502782
 21
2.671022415161127
 31
0.0
1001
HATCH_DISTANCE
1040
1.0
1001
HATCH_DISPLAY
1070
     0
1001
HATCH_TYPE
1070
     7
  0
LINE
  5
1696
  8
247
 10
-2.8407672565647308
 20
2.7623119354248038
 30
0.0
 11
-3.1302684467502782
 21
2.671022415161127
 31
0.0
1001
HATCH_DISTANCE
1040
1.0
1001
HATCH_DISPLAY
1070
     0
1001
HATCH_TYPE
1070
     7
  0
LINE
  5
1697
  8
247
 10
-2.8407672565647308
 20
2.7623119354248038
 30
0.0
 11
-2.8407672565647308
 21
2.7623119354248038
 31
0.0
  0
LINE
  5
1698
  8
247
 10
-3.1302684467502782
 20
2.671022415161127
 30
0.0
 11
-2.8407672565647308
 21
2.7623119354248038
 31
0.0
  0
LINE
  5
1699
  8
247
 10
-3.1302684467502782
 20
2.671022415161127
 30
0.0
 11
-3.1302684467502782
 21
2.671022415161127
 31
0.0
  0
LINE
  5
169A
  8
247
 10
-2.8407672565647308
 20
2.7623119354248038
 30
0.0
 11
-3.1302684467502782
 21
2.671022415161127
 31
0.0
  0
LINE
  5
169B
  8
247
 10
-2.8407672565647308
 20
2.7623119354248038
 30
0.0
 11
-2.8407672565647308
 21
2.7623119354248038
 31
0.0
1001
HATCH_DISTANCE
1040
1.0
1001
HATCH_DISPLAY
1070
     0
1001
HATCH_TYPE
1070
     7
  0
LINE
  5
169C
  8
247
 10
-3.1302684467502782
 20
2.671022415161127
 30
0.0
 11
-2.8407672565647308
 21
2.7623119354248038
 31
0.0
1001
HATCH_DISTANCE
1040
1.0
1001
HATCH_DISPLAY
1070
     0
1001
HATCH_TYPE
1070
     7
  0
LINE
  5
169D
  8
247
 10
-3.1302684467502782
 20
2.671022415161127
 30
0.0
 11
-3.1302684467502782
 21
2.671022415161127
 31
0.0
1001
HATCH_DISTANCE
1040
1.0
1001
HATCH_DISPLAY
1070
     0
1001
HATCH_TYPE
1070
     7
  0
LINE
  5
169E
  8
247
 10
-2.8407672565647308
 20
2.7623119354248038
 30
0.0
 11
-3.1302684467502782
 21
2.671022415161127
 31
0.0
1001
HATCH_DISTANCE
1040
1.0
1001
HATCH_DISPLAY
1070
     0
1001
HATCH_TYPE
1070
     7
  0
LINE
  5
169F
  8
247
 10
-2.233334179820019
 20
0.6867132900862316
 30
0.0
 11
-3.178021331903266
 21
1.6314004421694741
 31
0.0
  0
LINE
  5
16A0
  8
247
 10
-1.7847728039110951
 20
0.5749115187173857
 30
0.0
 11
-3.158118533680748
 21
1.948257248487036
 31
0.0
  0
LINE
  5
16A1
  8
247
 10
-1.4002961071881821
 20
0.5271944265346065
 30
0.0
 11
-2.388705980804501
 21
1.5156043001509261
 31
0.0
  0
LINE
  5
16A2
  8
247
 10
-2.8394947940194011
 20
1.966393113365823
 30
0.0
 11
-3.0664772985541018
 21
2.1933756179005282
 31
0.0
  0
LINE
  5
16A3
  8
247
 10
-1.117109927643354
 20
0.5807678515299131
 30
0.0
 11
-1.9165598751903301
 21
1.3802177990768301
 31
0.0
  0
LINE
  5
16A4
  8
247
 10
-2.696097987594384
 20
2.159755911480941
 30
0.0
 11
-3.0680578001760632
 21
2.5317157240625638
 31
0.0
  0
LINE
  5
16A5
  8
247
 10
-0.8922196998783532
 20
0.6926372283049888
 30
0.0
 11
-1.4444137695761581
 21
1.244831298002735
 31
0.0
  0
LINE
  5
16A6
  8
247
 10
-2.7804711669083382
 20
2.5808886953349202
 30
0.0
 11
-2.8120318424898301
 21
2.61244937091646
 31
0.0
  0
LINE
  5
16A7
  8
247
 10
-0.7112748006721859
 20
0.8484519336388983
 30
0.0
 11
-1.0323132020055821
 21
1.1694903349722381
 31
0.0
  0
LINE
  5
16A8
  8
247
 10
-1.697525374240511
 20
1.8347025072072241
 30
0.0
 11
-2.0006564777561371
 21
2.1378336107228502
 31
0.0
  0
LINE
  5
16A9
  8
247
 10
-0.5717868958495842
 20
1.045723633356372
 30
0.0
 11
-0.8364735707222051
 21
1.310410308228938
 31
0.0
  0
LINE
  5
16AA
  8
247
 10
-1.4285840781436701
 20
1.902520815650514
 30
0.0
 11
-2.0006564777561371
 21
2.4745932152628711
 31
0.0
  0
LINE
  5
16AB
  8
247
 10
-0.4798095364548658
 20
1.2905058785017891
 30
0.0
 11
-0.8356904142846133
 21
1.646386756331478
 31
0.0
  0
LINE
  5
16AC
  8
247
 10
-0.9390685342908682
 20
1.7497648763377349
 30
0.0
 11
-1.84068457102404
 21
2.6513809130708519
 31
0.0
  0
LINE
  5
16AD
  8
247
 10
-0.4592935072027445
 20
1.606749453789688
 30
0.0
 11
-1.3685389256061731
 21
2.5159948721931178
 31
0.0
  0
LINE
  5
16AE
  8
247
 10
-0.6122124459759563
 20
2.096427997102976
 30
0.0
 11
-0.896393280188363
 21
2.3806088313153841
 31
0.0
  0
LINE
  5
16AF
  8
247
 10
-3.1828540485569188
 20
-0.0699062347412109
 30
0.0
 11
-3.1828540485569188
 21
0.7184543609619141
 31
0.0
  0
ARC
  5
16B0
  8
247
 10
-1.3880656879612141
 20
3.122285842895506
 30
0.0
 40
2.5780792236328121
 50
245.20517736984081
 51
262.79482596205179
  0
LINE
  5
16B1
  8
247
 10
-0.4546966474720194
 20
-0.0638294219970703
 30
0.0
 11
-3.1828540485569188
 21
0.7184543609619141
 31
0.0
  0
LINE
  5
16B2
  8
247
 10
-2.8494189899631688
 20
-0.1655216217041016
 30
0.0
 11
-3.1828540485569188
 21
-0.0699062347412109
 31
0.0
  0
LINE
  5
16B3
  8
247
 10
-2.8494189899631688
 20
-0.1655216217041016
 30
0.0
 11
-2.8494189899631688
 21
-0.0551433563232422
 31
0.0
  0
LINE
  5
16B4
  8
247
 10
-1.1941569965549641
 20
1.1730709075927701
 30
0.0
 11
-2.618866316623325
 21
1.581602096557617
 31
0.0
  0
LINE
  5
16B5
  8
247
 10
-2.7951854389377782
 20
2.6177616119384761
 30
0.0
 11
-3.084686629123325
 21
2.5264720916748038
 31
0.0
  0
ARC
  5
16B6
  8
247
 10
-1.591427199191684
 20
3.0767612457275368
 30
0.0
 40
1.288299322128293
 50
200.87218340207721
 51
222.54194893738699
  0
ARC
  5
16B7
  8
247
 10
-2.5311244648166831
 20
1.8875598907470701
 30
0.0
 40
0.3182875066995621
 50
91.710121382062837
 51
253.99839835444871
  0
ARC
  5
16B8
  8
247
 10
-1.591427199191684
 20
3.0767612457275368
 30
0.0
 40
1.591427564620969
 50
200.22964506331709
 51
208.5716889237174
  0
LINE
  5
16B9
  8
247
 10
-2.8407672565647308
 20
2.7623119354248038
 30
0.0
 11
-3.1302684467502782
 21
2.671022415161127
 31
0.0
  0
LINE
  5
16BA
  8
247
 10
-2.0006564777561371
 20
1.8142833709716779
 30
0.0
 11
-2.0006564777561371
 21
2.6972522735595681
 31
0.0
  0
LINE
  5
16BB
  8
247
 10
-0.4546966474720194
 20
2.2539539337158181
 30
0.0
 11
-2.0006564777561371
 21
2.6972522735595681
 31
0.0
  0
LINE
  5
16BC
  8
247
 10
-0.6325035017200662
 20
2.0761356353759761
 30
0.0
 11
-0.4546966474720194
 21
2.2539539337158181
 31
0.0
  0
LINE
  5
16BD
  8
247
 10
-1.697525374240511
 20
1.7273654937744141
 30
0.0
 11
-2.0006564777561371
 21
1.8142833709716779
 31
0.0
  0
LINE
  5
16BE
  8
247
 10
-1.697525374240511
 20
1.7273654937744141
 30
0.0
 11
-1.697525374240511
 21
1.9796390533447239
 31
0.0
  0
LINE
  5
16BF
  8
247
 10
-1.018696181125277
 20
1.7849864959716779
 30
0.0
 11
-1.697525374240511
 21
1.9796390533447239
 31
0.0
  0
ARC
  5
16C0
  8
247
 10
-1.1064265888401219
 20
1.4790287017822239
 30
0.0
 40
0.3182872831821442
 50
254.00027305718419
 51
74.000273057184273
  0
ARC
  5
16C1
  8
247
 10
-1.4398616474338699
 20
1.5115756988525391
 30
0.0
 40
0.9851760864257813
 50
253.9997507017284
 51
34.963873291627223
  0
LINE
  5
16C2
  8
247
 10
-1.5591265997503561
 20
-1.6712923126838151
 30
0.0
 11
-2.6438748073500729
 21
-0.5865441050841583
 31
0.0
  0
LINE
  5
16C3
  8
247
 10
-2.3618882196755631
 20
-1.2052902972988011
 30
0.0
 11
-2.8691488572415551
 21
-0.6980296597328107
 31
0.0
  0
ARC
  5
16C4
  8
247
 10
-2.4553416889377782
 20
-1.650266647338867
 30
0.0
 40
0.4546839594841006
 50
351.66260168792593
 51
156.3381550951899
  0
LINE
  5
16C5
  8
247
 10
-1.672076319909364
 20
-2.5686214061450978
 30
0.0
 11
-2.733161055462118
 21
-1.5075366705923441
 31
0.0
  0
LINE
  5
16C6
  8
247
 10
-2.1442215461264
 20
-2.4332357844681378
 30
0.0
 11
-3.1828540485568051
 21
-1.39460328203779
 31
0.0
  0
LINE
  5
16C7
  8
247
 10
-2.8717998643828082
 20
-1.467783521770796
 30
0.0
 11
-2.0054630203574102
 21
-1.7161960532857841
 31
0.0
  0
LINE
  5
16C8
  8
247
 10
-0.4546966474720194
 20
-2.917699813842658
 30
0.0
 11
-2.879722945040383
 21
-2.2223339080813931
 31
0.0
  0
LINE
  5
16C9
  8
247
 10
-2.6597950232401191
 20
-1.2441430982743209
 30
0.0
 11
-3.0377771067831532
 21
-0.8661610147312329
 31
0.0
  0
LINE
  5
16CA
  8
247
 10
-3.1828540485569188
 20
-2.2930927276609041
 30
0.0
 11
-3.1828540485568051
 21
-1.3152058504763311
 31
0.0
  0
LINE
  5
16CB
  8
247
 10
-2.8797229450412369
 20
-2.3712535946335711
 30
0.0
 11
-3.182854048556861
 21
-2.0681224911179461
 31
0.0
  0
LINE
  5
16CC
  8
247
 10
-2.616366772343496
 20
-2.2978501627911778
 30
0.0
 11
-3.1828540485568051
 21
-1.731362886577811
 31
0.0
  0
LINE
  5
16CD
  8
247
 10
-3.1828540485569188
 20
-2.2930927276609041
 30
0.0
 11
-2.8797229450412938
 21
-2.3800106048587391
 31
0.0
  0
LINE
  5
16CE
  8
247
 10
-2.8797229450412938
 20
-2.3800106048587391
 30
0.0
 11
-2.879722945040383
 21
-2.2223339080813931
 31
0.0
  0
LINE
  5
16CF
  8
247
 10
-3.1828540485569188
 20
-3.0767612457275368
 30
0.0
 11
-3.1828540485569188
 21
-2.4507579803466788
 31
0.0
  0
LINE
  5
16D0
  8
247
 10
-2.8797229450412938
 20
-3.0767612457275368
 30
0.0
 11
-2.8797229450412938
 21
-2.5376758575439431
 31
0.0
  0
LINE
  5
16D1
  8
247
 10
-3.1828540485569188
 20
-2.4507579803466788
 30
0.0
 11
-2.8797229450412938
 21
-2.5376758575439431
 31
0.0
  0
LINE
  5
16D2
  8
247
 10
-2.837221341631901
 20
-1.4034763844225591
 30
0.0
 11
-3.1498488212662319
 21
-1.090848904788231
 31
0.0
  0
LINE
  5
16D3
  8
247
 10
-0.4546966474719625
 20
-1.7654434513419801
 30
0.0
 11
-1.311675364830988
 21
-0.9084647339828958
 31
0.0
  0
LINE
  5
16D4
  8
247
 10
-1.339919845028759
 20
-1.553739462865336
 30
0.0
 11
-2.3338995209601872
 21
-0.5597597869339097
 31
0.0
  0
LINE
  5
16D5
  8
247
 10
-0.4546966474720194
 20
-2.1022030558820002
 30
0.0
 11
-1.566953587329692
 21
-0.9899461160243843
 31
0.0
  0
ARC
  5
16D6
  8
247
 10
-1.242828718967073
 20
-1.9979496002197239
 30
0.0
 40
0.4546969681978227
 50
351.66285421114878
 51
156.33819215911009
  0
LINE
  5
16D7
  8
247
 10
-0.4546966474720194
 20
-2.775722264962269
 30
0.0
 11
-1.316729054155644
 21
-1.9136898582785291
 31
0.0
  0
LINE
  5
16D8
  8
247
 10
-0.4546966474720194
 20
-2.917699813842658
 30
0.0
 11
-0.4546966474720194
 21
-1.659765243530273
 31
0.0
  0
LINE
  5
16D9
  8
247
 10
-0.4546966474720194
 20
-2.4389626604221339
 30
0.0
 11
-0.8445908038436298
 21
-2.0490685040505241
 31
0.0
  0
LINE
  5
16DA
  8
247
 10
-0.7277858674751772
 20
-2.8393926494991311
 30
0.0
 11
-2.010365338897655
 21
-1.556813178076595
 31
0.0
  0
LINE
  5
16DB
  8
247
 10
-1.19993109369227
 20
-2.7040070278221711
 30
0.0
 11
-2.261020297952085
 21
-1.642917823562243
 31
0.0
  0
LINE
  5
16DC
  8
247
 10
-1.659299511865524
 20
-1.8154628567264111
 30
0.0
 11
-0.7929369714238419
 21
-2.0638794749414711
 31
0.0
  0
LINE
  5
16DD
  8
247
 10
-0.5115142049841666
 20
-1.3718662892896389
 30
0.0
 11
-0.9246143655565219
 21
-0.9587661287173432
 31
0.0
  0
ARC
  5
16DE
  8
247
 10
-1.212513319797152
 20
-1.659765243530273
 30
0.0
 40
0.7578163146972659
 50
0.0
 51
130.32984065416969
  0
LINE
  5
16DF
  8
247
 10
0.0
 20
-3.0767612457275368
 30
0.0
 11
0.0
 21
3.0767612457275368
 31
0.0
  0
LINE
  5
16E0
  8
247
 10
-0.3031310957142068
 20
-3.0767612457275368
 30
0.0
 11
-0.3031310957142068
 21
3.0767612457275368
 31
0.0
  0
LINE
  5
16E1
  8
247
 10
-0.4546966474720194
 20
-0.7418231964111329
 30
0.0
 11
-2.8494189899631688
 21
-0.0551433563232422
 31
0.0
  0
LINE
  5
16E2
  8
247
 10
-0.4546966474720194
 20
-0.7418231964111329
 30
0.0
 11
-0.4546966474720194
 21
-0.0638294219970703
 31
0.0
  0
ARC
  5
16E3
  8
247
 10
-1.591427199191684
 20
-3.0767612457275368
 30
0.0
 40
1.288295745849606
 50
180.0
 51
0.0
  0
ARC
  5
16E4
  8
247
 10
-1.591427199191684
 20
-3.0767612457275368
 30
0.0
 40
1.591426849365233
 50
180.0
 51
0.0
  0
ARC
  5
16E5
  8
247
 10
-2.4250377338596532
 20
-1.3120822906494141
 30
0.0
 40
0.7578227519989014
 50
17.669577547397669
 51
180.2361598426715
  0
ARC
  5
16E6
  8
247
 10
-2.1976894062229331
 20
1.7288761138915989
 30
0.0
 40
0.9851660728454588
 50
143.4440121970604
 51
254.00018438768561
  0
ARC
  5
16E7
  8
247
 10
-1.591427199191684
 20
3.0767612457275368
 30
0.0
 40
1.288295745849606
 50
0.0
 51
194.12743649640839
  0
ARC
  5
16E8
  8
247
 10
-1.591427199191684
 20
3.0767612457275368
 30
0.0
 40
1.591426849365233
 50
0.0
 51
194.77079396609119
  0
ENDBLK
  5
16E9
  8
0
  0
BLOCK
  8
0
  2
A$C67CC1FC6
 70
     0
 10
0.0
 20
0.0
 30
0.0
  3
A$C67CC1FC6
  1

  0
LINE
  5
173F
  8
245
  6
CENTER2
 10
-92.508968083550371
 20
0.0
 30
0.0
 11
66.978040236310221
 21
0.0
 31
0.0
  0
LINE
  5
1740
  8
AM_5
 10
29.499999999996358
 20
9.4999999999986358
 30
0.0
 11
25.534714298565522
 21
9.4999999999986375
 31
0.0
  0
LINE
  5
1741
  8
AM_5
 10
29.499999999996358
 20
-9.5000000000013642
 30
0.0
 11
25.534714298565522
 21
-9.5000000000013625
 31
0.0
  0
LINE
  5
1742
  8
241
 10
42.0
 20
24.49999999999136
 30
0.0
 11
42.0
 21
-0.0000000000004547
 31
0.0
  0
LINE
  5
1743
  8
241
 10
40.399999999994179
 20
24.499999999991822
 30
0.0
 11
40.399999999994179
 21
0.0
 31
0.0
  0
LINE
  5
1744
  8
241
 10
39.0
 20
24.49999999999136
 30
0.0
 11
39.0
 21
-0.0000000000004547
 31
0.0
  0
LINE
  5
1745
  8
241
 10
37.399999999994179
 20
24.499999999992269
 30
0.0
 11
37.399999999994179
 21
-0.0000000000004547
 31
0.0
  0
LINE
  5
1746
  8
245
  6
CENTER2
 10
-37.0
 20
2.999999999974079
 30
0.0
 11
-37.0
 21
-3.0000000000277391
 31
0.0
  0
LINE
  5
1747
  8
245
  6
CENTER2
 10
-66.000000000003624
 20
19.999999999969528
 30
0.0
 11
-66.000000000003624
 21
-20.000000000023189
 31
0.0
1001
GENIUS_GENOREF_13
1005
17E4
  0
ARC
  5
1748
  8
240
 10
-9.0352653961454052
 20
26.699999999968441
 30
0.0
 40
0.2
 50
270.0
 51
289.9999999999892
1001
GENIUS_GENODEF_13
1002
{
1000
HIER
1070
     0
1002
}
1002
{
1000
MANEDIT
1070
     0
1002
}
1002
{
1000
NOSEL
1070
     0
1002
}
1002
{
1000
BEHIND
1070
     0
1002
}
1002
{
1000
OTHER
1070
     0
1002
}
1002
{
1000
REACTOR
1002
}
1001
GENIUS_GENOBJ-N-FIL_13
1002
{
1000
OWNER
1000
GEN
1002
}
  0
LINE
  5
1749
  8
240
 10
-18.000000000003642
 20
25.99999999997317
 30
0.0
 11
-18.000000000003642
 21
20.999999999974989
 31
0.0
  0
ARC
  5
174A
  8
240
 10
-17.500000000003642
 20
25.99999999997317
 30
0.0
 40
0.5
 50
90.0
 51
180.0
  0
LINE
  5
174B
  8
240
 10
-9.0352653961454052
 20
26.499999999967709
 30
0.0
 11
-17.500000000003642
 21
26.49999999997317
 31
0.0
  0
LINE
  5
174C
  8
241
 10
-9.0000000000036362
 20
-0.0000000000268301
 30
0.0
 11
-9.0000000000036362
 21
26.499999999969528
 31
0.0
  0
LINE
  5
174D
  8
241
 10
-9.0000000000036362
 20
20.19999999997026
 30
0.0
 11
-17.500000000003642
 21
20.19999999997026
 31
0.0
  0
LINE
  5
174E
  8
240
 10
-8.9668613674803055
 20
26.512061475811151
 30
0.0
 11
-7.7919544528922406
 21
26.939692620754158
 31
0.0
  0
ARC
  5
174F
  8
240
 10
-7.4499343095667419
 20
25.99999999996772
 30
0.0
 40
1.0
 50
90.0
 51
109.9999999999892
1001
GENIUS_GENODEF_13
1002
{
1000
HIER
1070
     0
1002
}
1002
{
1000
MANEDIT
1070
     0
1002
}
1002
{
1000
NOSEL
1070
     0
1002
}
1002
{
1000
BEHIND
1070
     0
1002
}
1002
{
1000
OTHER
1070
     0
1002
}
1002
{
1000
REACTOR
1002
}
1001
GENIUS_GENOBJ-N-FIL_13
1002
{
1000
OWNER
1000
GEN
1002
}
  0
LINE
  5
1750
  8
240
 10
-0.6356744903932851
 20
26.99999999996772
 30
0.0
 11
-7.4499343095667419
 21
26.99999999996772
 31
0.0
  0
LINE
  5
1751
  8
240
 10
-0.5085079428790778
 20
26.96592582625863
 30
0.0
 11
-0.6356744903932851
 21
26.99999999996772
 31
0.0
  0
ARC
  5
1752
  8
240
 10
-0.7673269879815053
 20
25.99999999996772
 30
0.0
 40
1.0
 50
14.999999999994451
 51
75.000000000005556
1001
GENIUS_GENOBJ-N-FIL_13
1002
{
1000
OWNER
1000
GEN
1002
}
1001
GENIUS_GENODEF_13
1002
{
1000
HIER
1070
     0
1002
}
1002
{
1000
MANEDIT
1070
     0
1002
}
1002
{
1000
NOSEL
1070
     0
1002
}
1002
{
1000
BEHIND
1070
     0
1002
}
1002
{
1000
OTHER
1070
     0
1002
}
1002
{
1000
REACTOR
1002
}
  0
LINE
  5
1753
  8
240
 10
-18.000000000003642
 20
19.69999999997572
 30
0.0
 11
-19.700000000004358
 21
19.69999999997572
 31
0.0
  0
LINE
  5
1754
  8
240
 10
-19.700000000004358
 20
19.69999999997572
 30
0.0
 11
-20.000000000003642
 21
19.999999999974989
 31
0.0
  0
ARC
  5
1755
  8
240
 10
-18.000000000003642
 20
20.19999999997572
 30
0.0
 40
0.5
 50
270.0
 51
0.0
  0
LINE
  5
1756
  8
240
 10
-17.500000000003642
 20
20.499999999971351
 30
0.0
 11
-17.500000000003642
 21
20.19999999997572
 31
0.0
  0
LINE
  5
1757
  8
240
 10
-17.500000000003642
 20
20.499999999971351
 30
0.0
 11
-18.000000000003642
 21
20.999999999974989
 31
0.0
  0
LINE
  5
1758
  8
240
 10
-51.50000000001819
 20
19.99999999997317
 30
0.0
 11
-45.19999999999709
 21
19.999999999971351
 31
0.0
  0
LINE
  5
1759
  8
243
 10
-72.000000000001819
 20
16.499999999959531
 30
0.0
 11
-72.000000000003638
 21
-0.0000000000268301
 31
0.0
  0
LINE
  5
175A
  8
243
 10
-60.000000000021828
 20
16.49999999997317
 30
0.0
 11
-60.000000000018183
 21
-0.0000000000268301
 31
0.0
  0
LINE
  5
175B
  8
240
 10
-55.000000000021828
 20
16.49999999997317
 30
0.0
 11
-51.50000000001819
 21
19.99999999997317
 31
0.0
  0
LINE
  5
175C
  8
240
 10
-55.000000000021828
 20
16.49999999997317
 30
0.0
 11
-66.000000000003624
 21
16.49999999997317
 31
0.0
  0
LINE
  5
175D
  8
240
 10
-76.999999999989086
 20
16.499999999971351
 30
0.0
 11
-66.000000000003624
 21
16.499999999945882
 31
0.0
  0
LINE
  5
175E
  8
240
 10
-76.999999999989086
 20
16.499999999971351
 30
0.0
 11
-80.499999999989086
 21
19.999999999971351
 31
0.0
  0
LINE
  5
175F
  8
240
 10
-42.300000000010193
 20
19.99999999997317
 30
0.0
 11
-31.69999999999709
 21
19.999999999974989
 31
0.0
  0
LINE
  5
1760
  8
240
 10
-28.800000000010179
 20
19.999999999974989
 30
0.0
 11
-20.000000000003642
 21
19.999999999974989
 31
0.0
  0
CIRCLE
  5
1761
  8
241
 10
-37.0
 20
-0.0000000000268301
 30
0.0
 40
3.0000000000009091
  0
LINE
  5
1762
  8
241
 10
0.0
 20
26.641256028021871
 30
0.0
 11
0.0
 21
-0.0000000000268301
 31
0.0
  0
LINE
  5
1763
  8
241
 10
-20.000000000003642
 20
19.999999999974989
 30
0.0
 11
-20.000000000003642
 21
-0.0000000000268301
 31
0.0
  0
LINE
  5
1764
  8
241
 10
-7.6262612902773981
 20
26.99999999996772
 30
0.0
 11
-7.6262612902773981
 21
-0.0000000000268301
 31
0.0
  0
LINE
  5
1765
  8
241
 10
4.0
 20
24.399999999985539
 30
0.0
 11
4.0
 21
-0.0000000000004547
 31
0.0
  0
ARC
  5
1766
  8
240
 10
-9.0352653961454052
 20
-26.700000000022101
 30
0.0
 40
0.2
 50
70.000000000010758
 51
90.0
1001
GENIUS_GENODEF_13
1002
{
1000
HIER
1070
     0
1002
}
1002
{
1000
MANEDIT
1070
     0
1002
}
1002
{
1000
NOSEL
1070
     0
1002
}
1002
{
1000
BEHIND
1070
     0
1002
}
1002
{
1000
OTHER
1070
     0
1002
}
1002
{
1000
REACTOR
1002
}
1001
GENIUS_GENOBJ-N-FIL_13
1002
{
1000
OWNER
1000
GEN
1002
}
  0
LINE
  5
1767
  8
240
 10
-18.000000000003642
 20
-26.00000000002683
 30
0.0
 11
-18.000000000003642
 21
-21.000000000028649
 31
0.0
  0
ARC
  5
1768
  8
240
 10
-17.500000000003642
 20
-26.00000000002683
 30
0.0
 40
0.5
 50
180.0
 51
270.0
  0
LINE
  5
1769
  8
240
 10
-9.0352653961454052
 20
-26.50000000002137
 30
0.0
 11
-17.500000000003642
 21
-26.50000000002683
 31
0.0
  0
LINE
  5
176A
  8
241
 10
-9.0000000000036362
 20
-0.0000000000268301
 30
0.0
 11
-9.0000000000036362
 21
-26.500000000023189
 31
0.0
  0
LINE
  5
176B
  8
241
 10
-9.0000000000036362
 20
-20.20000000002392
 30
0.0
 11
-17.500000000003642
 21
-20.20000000002392
 31
0.0
  0
LINE
  5
176C
  8
240
 10
-8.9668613674803055
 20
-26.512061475864812
 30
0.0
 11
-7.7919544528922406
 21
-26.939692620807818
 31
0.0
  0
ARC
  5
176D
  8
240
 10
-7.4499343095667419
 20
-26.00000000002137
 30
0.0
 40
1.0
 50
250.0000000000108
 51
270.0
1001
GENIUS_GENODEF_13
1002
{
1000
HIER
1070
     0
1002
}
1002
{
1000
MANEDIT
1070
     0
1002
}
1002
{
1000
NOSEL
1070
     0
1002
}
1002
{
1000
BEHIND
1070
     0
1002
}
1002
{
1000
OTHER
1070
     0
1002
}
1002
{
1000
REACTOR
1002
}
1001
GENIUS_GENOBJ-N-FIL_13
1002
{
1000
OWNER
1000
GEN
1002
}
  0
LINE
  5
176E
  8
240
 10
-0.6356744903932851
 20
-27.00000000002138
 30
0.0
 11
-7.4499343095667419
 21
-27.00000000002138
 31
0.0
  0
LINE
  5
176F
  8
240
 10
-0.5085079428790778
 20
-26.96592582631229
 30
0.0
 11
-0.6356744903932851
 21
-27.00000000002138
 31
0.0
  0
ARC
  5
1770
  8
240
 10
-0.7673269879815053
 20
-26.00000000002137
 30
0.0
 40
1.0
 50
284.99999999999437
 51
345.00000000000563
1001
GENIUS_GENOBJ-N-FIL_13
1002
{
1000
OWNER
1000
GEN
1002
}
1001
GENIUS_GENODEF_13
1002
{
1000
HIER
1070
     0
1002
}
1002
{
1000
MANEDIT
1070
     0
1002
}
1002
{
1000
NOSEL
1070
     0
1002
}
1002
{
1000
BEHIND
1070
     0
1002
}
1002
{
1000
OTHER
1070
     0
1002
}
1002
{
1000
REACTOR
1002
}
  0
LINE
  5
1771
  8
240
 10
-18.000000000003642
 20
-19.70000000002938
 30
0.0
 11
-19.700000000004358
 21
-19.70000000002938
 31
0.0
  0
LINE
  5
1772
  8
240
 10
-19.700000000004358
 20
-19.70000000002938
 30
0.0
 11
-20.000000000003642
 21
-20.000000000028649
 31
0.0
  0
ARC
  5
1773
  8
240
 10
-18.000000000003642
 20
-20.20000000002938
 30
0.0
 40
0.5
 50
0.0
 51
90.0
  0
LINE
  5
1774
  8
240
 10
-17.500000000003642
 20
-20.500000000025011
 30
0.0
 11
-17.500000000003642
 21
-20.20000000002938
 31
0.0
  0
LINE
  5
1775
  8
240
 10
-17.500000000003642
 20
-20.500000000025011
 30
0.0
 11
-18.000000000003642
 21
-21.000000000028649
 31
0.0
  0
LINE
  5
1776
  8
240
 10
-51.50000000001819
 20
-20.00000000002683
 30
0.0
 11
-45.19999999999709
 21
-20.000000000025011
 31
0.0
  0
LINE
  5
1777
  8
243
 10
-72.000000000001819
 20
-16.500000000013191
 30
0.0
 11
-72.000000000003638
 21
-0.0000000000268301
 31
0.0
  0
LINE
  5
1778
  8
243
 10
-60.000000000021828
 20
-16.50000000002683
 30
0.0
 11
-60.000000000018183
 21
-0.0000000000268301
 31
0.0
  0
LINE
  5
1779
  8
240
 10
-55.000000000021828
 20
-16.50000000002683
 30
0.0
 11
-51.50000000001819
 21
-20.00000000002683
 31
0.0
  0
LINE
  5
177A
  8
240
 10
-55.000000000021828
 20
-16.50000000002683
 30
0.0
 11
-66.000000000003624
 21
-16.50000000002683
 31
0.0
  0
LINE
  5
177B
  8
240
 10
-76.999999999989086
 20
-16.500000000025011
 30
0.0
 11
-66.000000000003624
 21
-16.499999999999542
 31
0.0
  0
LINE
  5
177C
  8
240
 10
-76.999999999989086
 20
-16.500000000025011
 30
0.0
 11
-80.499999999989086
 21
-20.000000000025011
 31
0.0
  0
LINE
  5
177D
  8
240
 10
-42.300000000010193
 20
-20.00000000002683
 30
0.0
 11
-31.69999999999709
 21
-20.000000000028649
 31
0.0
  0
LINE
  5
177E
  8
240
 10
-28.800000000010179
 20
-20.000000000028649
 30
0.0
 11
-20.000000000003642
 21
-20.000000000028649
 31
0.0
  0
LINE
  5
177F
  8
241
 10
0.0
 20
-26.641256028075532
 30
0.0
 11
0.0
 21
-0.0000000000268301
 31
0.0
  0
LINE
  5
1780
  8
241
 10
-20.000000000003642
 20
-20.000000000028649
 30
0.0
 11
-20.000000000003642
 21
-0.0000000000268301
 31
0.0
  0
LINE
  5
1781
  8
241
 10
-7.6262612902773981
 20
-27.00000000002138
 30
0.0
 11
-7.6262612902773981
 21
-0.0000000000268301
 31
0.0
  0
LINE
  5
1782
  8
241
 10
-18.000000000005461
 20
19.69999999997572
 30
0.0
 11
-18.000000000003642
 21
-0.0000000000268301
 31
0.0
  0
LINE
  5
1783
  8
241
 10
-18.000000000005461
 20
-19.70000000002938
 30
0.0
 11
-18.000000000003642
 21
-0.0000000000268301
 31
0.0
  0
LINE
  5
1784
  8
244
 10
32.999999999996369
 20
-12.5
 30
0.0
 11
64.999999999998295
 21
-12.5
 31
0.0
  0
LINE
  5
1785
  8
244
 10
7.999999999996362
 20
9.5
 30
0.0
 11
29.999999999996358
 21
9.5
 31
0.0
  0
LINE
  5
1786
  8
244
 10
7.999999999996362
 20
0.0
 30
0.0
 11
7.999999999996362
 21
9.5
 31
0.0
  0
LINE
  5
1787
  8
244
 10
7.999999999996362
 20
-9.5
 30
0.0
 11
29.999999999996358
 21
-9.5
 31
0.0
  0
LINE
  5
1788
  8
244
 10
7.999999999996362
 20
0.0
 30
0.0
 11
7.999999999996362
 21
-9.5
 31
0.0
  0
LINE
  5
1789
  8
244
 10
29.999999999996358
 20
0.0
 30
0.0
 11
29.999999999996358
 21
-9.5
 31
0.0
  0
LINE
  5
178A
  8
244
 10
29.999999999996358
 20
-9.5
 30
0.0
 11
32.999999999996369
 21
-12.5
 31
0.0
  0
LINE
  5
178B
  8
244
 10
29.999999999996358
 20
9.5
 30
0.0
 11
32.999999999996369
 21
12.5
 31
0.0
  0
LINE
  5
178C
  8
244
 10
29.999999999996358
 20
0.0
 30
0.0
 11
29.999999999996358
 21
9.5
 31
0.0
  0
LINE
  5
178D
  8
244
 10
32.999999999996369
 20
12.5
 30
0.0
 11
64.999999999998295
 21
12.5
 31
0.0
  0
ARC
  5
178E
  8
240
 10
64.0
 20
23.499999999989079
 30
0.0
 40
1.0
 50
0.0
 51
90.0
1001
GENIUS_GENOBJ-N-FIL_13
1002
{
1000
OWNER
1000
GEN
1002
}
1001
GENIUS_GENODEF_13
1002
{
1000
HIER
1070
     0
1002
}
1002
{
1000
MANEDIT
1070
     0
1002
}
1002
{
1000
NOSEL
1070
     0
1002
}
1002
{
1000
BEHIND
1070
     0
1002
}
1002
{
1000
OTHER
1070
     0
1002
}
1002
{
1000
REACTOR
1002
}
  0
LINE
  5
178F
  8
240
 10
4.0
 20
24.399999999988719
 30
0.0
 11
4.1000000000003629
 21
24.49999999998909
 31
0.0
  0
LINE
  5
1790
  8
240
 10
4.0
 20
24.399999999988719
 30
0.0
 11
1.4639948883013849
 21
24.399999999988271
 31
0.0
  0
LINE
  5
1791
  8
240
 10
0.1985988383094082
 20
26.25881904509879
 30
0.0
 11
0.4980690620122914
 21
25.14118095488584
 31
0.0
  0
LINE
  5
1792
  8
240
 10
64.999999999996362
 20
0.0
 30
0.0
 11
65.0
 21
23.499999999989079
 31
0.0
  0
LINE
  5
1793
  8
245
  6
CENTER2
 10
50.0
 20
20.495044512077129
 30
0.0
 11
50.0
 21
13.423976700211821
 31
0.0
  0
LINE
  5
1794
  8
240
 10
4.1000000000058199
 20
24.499999999996358
 30
0.0
 11
37.399999999994179
 21
24.499999999992269
 31
0.0
  0
LINE
  5
1795
  8
240
 10
42.0
 20
24.49999999999136
 30
0.0
 11
64.0
 21
24.49999999998909
 31
0.0
  0
ARC
  5
1796
  8
240
 10
1.4639948883013849
 20
25.399999999988271
 30
0.0
 40
1.0
 50
194.9999999999944
 51
270.0
1001
GENIUS_GENOBJ-N-FIL_13
1002
{
1000
OWNER
1000
GEN
1002
}
1001
GENIUS_GENODEF_13
1002
{
1000
HIER
1070
     0
1002
}
1002
{
1000
MANEDIT
1070
     0
1002
}
1002
{
1000
NOSEL
1070
     0
1002
}
1002
{
1000
BEHIND
1070
     0
1002
}
1002
{
1000
OTHER
1070
     0
1002
}
1002
{
1000
REACTOR
1002
}
  0
LINE
  5
1797
  8
245
  6
CENTER2
 10
20.0
 20
5.0000000000004539
 30
0.0
 11
20.0
 21
-5.0000000000004539
 31
0.0
  0
CIRCLE
  5
1798
  8
242
 10
20.0
 20
0.0
 30
0.0
 40
5.0000000000004539
  0
CIRCLE
  5
1799
  8
241
 10
20.0
 20
0.0
 30
0.0
 40
4.2500000000004539
  0
LINE
  5
179A
  8
241
 10
0.6966679003235186
 20
24.399999999988271
 30
0.0
 11
0.6966679003235186
 21
0.0
 31
0.0
  0
POLYLINE
  5
179B
  8
241
 10
45.75
 20
17.06146974911417
 30
0.0
 66
     1
 70
     8
  0
VERTEX
  8
241
  5
18E1
 10
45.7500
 20
17.0615
 30
0.000000
  70
    32
  0
VERTEX
  8
241
  5
18E2
 10
45.7551
 20
16.9140
 30
0.000000
  70
    32
  0
VERTEX
  8
241
  5
18E3
 10
45.7705
 20
16.7669
 30
0.000000
  70
    32
  0
VERTEX
  8
241
  5
18E4
 10
45.7960
 20
16.6205
 30
0.000000
  70
    32
  0
VERTEX
  8
241
  5
18E5
 10
45.8317
 20
16.4752
 30
0.000000
  70
    32
  0
VERTEX
  8
241
  5
18E6
 10
45.8774
 20
16.3313
 30
0.000000
  70
    32
  0
VERTEX
  8
241
  5
18E7
 10
45.9330
 20
16.1891
 30
0.000000
  70
    32
  0
VERTEX
  8
241
  5
18E8
 10
45.9984
 20
16.0490
 30
0.000000
  70
    32
  0
VERTEX
  8
241
  5
18E9
 10
46.0735
 20
15.9114
 30
0.000000
  70
    32
  0
VERTEX
  8
241
  5
18EA
 10
46.1580
 20
15.7766
 30
0.000000
  70
    32
  0
VERTEX
  8
241
  5
18EB
 10
46.2518
 20
15.6448
 30
0.000000
  70
    32
  0
VERTEX
  8
241
  5
18EC
 10
46.3547
 20
15.5165
 30
0.000000
  70
    32
  0
VERTEX
  8
241
  5
18ED
 10
46.4663
 20
15.3919
 30
0.000000
  70
    32
  0
VERTEX
  8
241
  5
18EE
 10
46.5864
 20
15.2713
 30
0.000000
  70
    32
  0
VERTEX
  8
241
  5
18EF
 10
46.7147
 20
15.1550
 30
0.000000
  70
    32
  0
VERTEX
  8
241
  5
18F0
 10
46.8510
 20
15.0433
 30
0.000000
  70
    32
  0
VERTEX
  8
241
  5
18F1
 10
46.9948
 20
14.9365
 30
0.000000
  70
    32
  0
VERTEX
  8
241
  5
18F2
 10
47.1459
 20
14.8348
 30
0.000000
  70
    32
  0
VERTEX
  8
241
  5
18F3
 10
47.3038
 20
14.7384
 30
0.000000
  70
    32
  0
VERTEX
  8
241
  5
18F4
 10
47.4683
 20
14.6477
 30
0.000000
  70
    32
  0
VERTEX
  8
241
  5
18F5
 10
47.6388
 20
14.5627
 30
0.000000
  70
    32
  0
VERTEX
  8
241
  5
18F6
 10
47.8151
 20
14.4838
 30
0.000000
  70
    32
  0
VERTEX
  8
241
  5
18F7
 10
47.9966
 20
14.4111
 30
0.000000
  70
    32
  0
VERTEX
  8
241
  5
18F8
 10
48.1829
 20
14.3448
 30
0.000000
  70
    32
  0
VERTEX
  8
241
  5
18F9
 10
48.3736
 20
14.2850
 30
0.000000
  70
    32
  0
VERTEX
  8
241
  5
18FA
 10
48.5682
 20
14.2319
 30
0.000000
  70
    32
  0
VERTEX
  8
241
  5
18FB
 10
48.7663
 20
14.1857
 30
0.000000
  70
    32
  0
VERTEX
  8
241
  5
18FC
 10
48.9673
 20
14.1463
 30
0.000000
  70
    32
  0
VERTEX
  8
241
  5
18FD
 10
49.1709
 20
14.1140
 30
0.000000
  70
    32
  0
VERTEX
  8
241
  5
18FE
 10
49.3764
 20
14.0888
 30
0.000000
  70
    32
  0
VERTEX
  8
241
  5
18FF
 10
49.5834
 20
14.0707
 30
0.000000
  70
    32
  0
VERTEX
  8
241
  5
1900
 10
49.7915
 20
14.0599
 30
0.000000
  70
    32
  0
VERTEX
  8
241
  5
1901
 10
50.0000
 20
14.0563
 30
0.000000
  70
    32
  0
VERTEX
  8
241
  5
1902
 10
50.2085
 20
14.0599
 30
0.000000
  70
    32
  0
VERTEX
  8
241
  5
1903
 10
50.4166
 20
14.0707
 30
0.000000
  70
    32
  0
VERTEX
  8
241
  5
1904
 10
50.6236
 20
14.0888
 30
0.000000
  70
    32
  0
VERTEX
  8
241
  5
1905
 10
50.8291
 20
14.1140
 30
0.000000
  70
    32
  0
VERTEX
  8
241
  5
1906
 10
51.0327
 20
14.1463
 30
0.000000
  70
    32
  0
VERTEX
  8
241
  5
1907
 10
51.2337
 20
14.1857
 30
0.000000
  70
    32
  0
VERTEX
  8
241
  5
1908
 10
51.4318
 20
14.2319
 30
0.000000
  70
    32
  0
VERTEX
  8
241
  5
1909
 10
51.6264
 20
14.2850
 30
0.000000
  70
    32
  0
VERTEX
  8
241
  5
190A
 10
51.8171
 20
14.3448
 30
0.000000
  70
    32
  0
VERTEX
  8
241
  5
190B
 10
52.0034
 20
14.4111
 30
0.000000
  70
    32
  0
VERTEX
  8
241
  5
190C
 10
52.1849
 20
14.4838
 30
0.000000
  70
    32
  0
VERTEX
  8
241
  5
190D
 10
52.3612
 20
14.5627
 30
0.000000
  70
    32
  0
VERTEX
  8
241
  5
190E
 10
52.5317
 20
14.6477
 30
0.000000
  70
    32
  0
VERTEX
  8
241
  5
190F
 10
52.6962
 20
14.7384
 30
0.000000
  70
    32
  0
VERTEX
  8
241
  5
1910
 10
52.8541
 20
14.8348
 30
0.000000
  70
    32
  0
VERTEX
  8
241
  5
1911
 10
53.0052
 20
14.9365
 30
0.000000
  70
    32
  0
VERTEX
  8
241
  5
1912
 10
53.1490
 20
15.0433
 30
0.000000
  70
    32
  0
VERTEX
  8
241
  5
1913
 10
53.2853
 20
15.1550
 30
0.000000
  70
    32
  0
VERTEX
  8
241
  5
1914
 10
53.4136
 20
15.2713
 30
0.000000
  70
    32
  0
VERTEX
  8
241
  5
1915
 10
53.5337
 20
15.3919
 30
0.000000
  70
    32
  0
VERTEX
  8
241
  5
1916
 10
53.6453
 20
15.5165
 30
0.000000
  70
    32
  0
VERTEX
  8
241
  5
1917
 10
53.7482
 20
15.6448
 30
0.000000
  70
    32
  0
VERTEX
  8
241
  5
1918
 10
53.8420
 20
15.7766
 30
0.000000
  70
    32
  0
VERTEX
  8
241
  5
1919
 10
53.9265
 20
15.9114
 30
0.000000
  70
    32
  0
VERTEX
  8
241
  5
191A
 10
54.0016
 20
16.0490
 30
0.000000
  70
    32
  0
VERTEX
  8
241
  5
191B
 10
54.0670
 20
16.1891
 30
0.000000
  70
    32
  0
VERTEX
  8
241
  5
191C
 10
54.1226
 20
16.3313
 30
0.000000
  70
    32
  0
VERTEX
  8
241
  5
191D
 10
54.1683
 20
16.4752
 30
0.000000
  70
    32
  0
VERTEX
  8
241
  5
191E
 10
54.2040
 20
16.6205
 30
0.000000
  70
    32
  0
VERTEX
  8
241
  5
191F
 10
54.2295
 20
16.7669
 30
0.000000
  70
    32
  0
VERTEX
  8
241
  5
1920
 10
54.2449
 20
16.9140
 30
0.000000
  70
    32
  0
VERTEX
  8
241
  5
1921
 10
54.2500
 20
17.0615
 30
0.000000
  70
    32
  0
VERTEX
  8
241
  5
1922
 10
54.2449
 20
17.2089
 30
0.000000
  70
    32
  0
VERTEX
  8
241
  5
1923
 10
54.2295
 20
17.3560
 30
0.000000
  70
    32
  0
VERTEX
  8
241
  5
1924
 10
54.2040
 20
17.5024
 30
0.000000
  70
    32
  0
VERTEX
  8
241
  5
1925
 10
54.1683
 20
17.6478
 30
0.000000
  70
    32
  0
VERTEX
  8
241
  5
1926
 10
54.1226
 20
17.7917
 30
0.000000
  70
    32
  0
VERTEX
  8
241
  5
1927
 10
54.0670
 20
17.9338
 30
0.000000
  70
    32
  0
VERTEX
  8
241
  5
1928
 10
54.0016
 20
18.0739
 30
0.000000
  70
    32
  0
VERTEX
  8
241
  5
1929
 10
53.9265
 20
18.2115
 30
0.000000
  70
    32
  0
VERTEX
  8
241
  5
192A
 10
53.8420
 20
18.3464
 30
0.000000
  70
    32
  0
VERTEX
  8
241
  5
192B
 10
53.7482
 20
18.4781
 30
0.000000
  70
    32
  0
VERTEX
  8
241
  5
192C
 10
53.6453
 20
18.6065
 30
0.000000
  70
    32
  0
VERTEX
  8
241
  5
192D
 10
53.5337
 20
18.7311
 30
0.000000
  70
    32
  0
VERTEX
  8
241
  5
192E
 10
53.4136
 20
18.8517
 30
0.000000
  70
    32
  0
VERTEX
  8
241
  5
192F
 10
53.2853
 20
18.9680
 30
0.000000
  70
    32
  0
VERTEX
  8
241
  5
1930
 10
53.1490
 20
19.0796
 30
0.000000
  70
    32
  0
VERTEX
  8
241
  5
1931
 10
53.0052
 20
19.1865
 30
0.000000
  70
    32
  0
VERTEX
  8
241
  5
1932
 10
52.8541
 20
19.2882
 30
0.000000
  70
    32
  0
VERTEX
  8
241
  5
1933
 10
52.6962
 20
19.3845
 30
0.000000
  70
    32
  0
VERTEX
  8
241
  5
1934
 10
52.5317
 20
19.4753
 30
0.000000
  70
    32
  0
VERTEX
  8
241
  5
1935
 10
52.3612
 20
19.5602
 30
0.000000
  70
    32
  0
VERTEX
  8
241
  5
1936
 10
52.1849
 20
19.6391
 30
0.000000
  70
    32
  0
VERTEX
  8
241
  5
1937
 10
52.0034
 20
19.7118
 30
0.000000
  70
    32
  0
VERTEX
  8
241
  5
1938
 10
51.8171
 20
19.7781
 30
0.000000
  70
    32
  0
VERTEX
  8
241
  5
1939
 10
51.6264
 20
19.8379
 30
0.000000
  70
    32
  0
VERTEX
  8
241
  5
193A
 10
51.4318
 20
19.8910
 30
0.000000
  70
    32
  0
VERTEX
  8
241
  5
193B
 10
51.2337
 20
19.9373
 30
0.000000
  70
    32
  0
VERTEX
  8
241
  5
193C
 10
51.0327
 20
19.9766
 30
0.000000
  70
    32
  0
VERTEX
  8
241
  5
193D
 10
50.8291
 20
20.0089
 30
0.000000
  70
    32
  0
VERTEX
  8
241
  5
193E
 10
50.6236
 20
20.0341
 30
0.000000
  70
    32
  0
VERTEX
  8
241
  5
193F
 10
50.4166
 20
20.0522
 30
0.000000
  70
    32
  0
VERTEX
  8
241
  5
1940
 10
50.2085
 20
20.0631
 30
0.000000
  70
    32
  0
VERTEX
  8
241
  5
1941
 10
50.0000
 20
20.0667
 30
0.000000
  70
    32
  0
VERTEX
  8
241
  5
1942
 10
49.7915
 20
20.0631
 30
0.000000
  70
    32
  0
VERTEX
  8
241
  5
1943
 10
49.5834
 20
20.0522
 30
0.000000
  70
    32
  0
VERTEX
  8
241
  5
1944
 10
49.3764
 20
20.0341
 30
0.000000
  70
    32
  0
VERTEX
  8
241
  5
1945
 10
49.1709
 20
20.0089
 30
0.000000
  70
    32
  0
VERTEX
  8
241
  5
1946
 10
48.9673
 20
19.9766
 30
0.000000
  70
    32
  0
VERTEX
  8
241
  5
1947
 10
48.7663
 20
19.9373
 30
0.000000
  70
    32
  0
VERTEX
  8
241
  5
1948
 10
48.5682
 20
19.8910
 30
0.000000
  70
    32
  0
VERTEX
  8
241
  5
1949
 10
48.3736
 20
19.8379
 30
0.000000
  70
    32
  0
VERTEX
  8
241
  5
194A
 10
48.1829
 20
19.7781
 30
0.000000
  70
    32
  0
VERTEX
  8
241
  5
194B
 10
47.9966
 20
19.7118
 30
0.000000
  70
    32
  0
VERTEX
  8
241
  5
194C
 10
47.8151
 20
19.6391
 30
0.000000
  70
    32
  0
VERTEX
  8
241
  5
194D
 10
47.6388
 20
19.5602
 30
0.000000
  70
    32
  0
VERTEX
  8
241
  5
194E
 10
47.4683
 20
19.4753
 30
0.000000
  70
    32
  0
VERTEX
  8
241
  5
194F
 10
47.3038
 20
19.3845
 30
0.000000
  70
    32
  0
VERTEX
  8
241
  5
1950
 10
47.1459
 20
19.2882
 30
0.000000
  70
    32
  0
VERTEX
  8
241
  5
1951
 10
46.9948
 20
19.1865
 30
0.000000
  70
    32
  0
VERTEX
  8
241
  5
1952
 10
46.8510
 20
19.0796
 30
0.000000
  70
    32
  0
VERTEX
  8
241
  5
1953
 10
46.7147
 20
18.9680
 30
0.000000
  70
    32
  0
VERTEX
  8
241
  5
1954
 10
46.5864
 20
18.8517
 30
0.000000
  70
    32
  0
VERTEX
  8
241
  5
1955
 10
46.4663
 20
18.7311
 30
0.000000
  70
    32
  0
VERTEX
  8
241
  5
1956
 10
46.3547
 20
18.6065
 30
0.000000
  70
    32
  0
VERTEX
  8
241
  5
1957
 10
46.2518
 20
18.4781
 30
0.000000
  70
    32
  0
VERTEX
  8
241
  5
1958
 10
46.1580
 20
18.3464
 30
0.000000
  70
    32
  0
VERTEX
  8
241
  5
1959
 10
46.0735
 20
18.2115
 30
0.000000
  70
    32
  0
VERTEX
  8
241
  5
195A
 10
45.9984
 20
18.0739
 30
0.000000
  70
    32
  0
VERTEX
  8
241
  5
195B
 10
45.9330
 20
17.9338
 30
0.000000
  70
    32
  0
VERTEX
  8
241
  5
195C
 10
45.8774
 20
17.7917
 30
0.000000
  70
    32
  0
VERTEX
  8
241
  5
195D
 10
45.8317
 20
17.6478
 30
0.000000
  70
    32
  0
VERTEX
  8
241
  5
195E
 10
45.7960
 20
17.5024
 30
0.000000
  70
    32
  0
VERTEX
  8
241
  5
195F
 10
45.7705
 20
17.3560
 30
0.000000
  70
    32
  0
VERTEX
  8
241
  5
1960
 10
45.7551
 20
17.2089
 30
0.000000
  70
    32
  0
VERTEX
  8
241
  5
1961
 10
45.7500
 20
17.0615
 30
0.000000
  70
    32
  0
SEQEND
  8
241
  5
1962
  0
POLYLINE
  5
179C
  8
242
 10
45.0
 20
16.959510606144701
 30
0.0
 66
     1
 70
     8
  0
VERTEX
  8
242
  5
1963
 10
45.0000
 20
16.9595
 30
0.000000
  70
    32
  0
VERTEX
  8
242
  5
1964
 10
45.0060
 20
16.7860
 30
0.000000
  70
    32
  0
VERTEX
  8
242
  5
1965
 10
45.0241
 20
16.6130
 30
0.000000
  70
    32
  0
VERTEX
  8
242
  5
1966
 10
45.0541
 20
16.4407
 30
0.000000
  70
    32
  0
VERTEX
  8
242
  5
1967
 10
45.0961
 20
16.2698
 30
0.000000
  70
    32
  0
VERTEX
  8
242
  5
1968
 10
45.1498
 20
16.1004
 30
0.000000
  70
    32
  0
VERTEX
  8
242
  5
1969
 10
45.2153
 20
15.9332
 30
0.000000
  70
    32
  0
VERTEX
  8
242
  5
196A
 10
45.2923
 20
15.7684
 30
0.000000
  70
    32
  0
VERTEX
  8
242
  5
196B
 10
45.3806
 20
15.6065
 30
0.000000
  70
    32
  0
VERTEX
  8
242
  5
196C
 10
45.4801
 20
15.4479
 30
0.000000
  70
    32
  0
VERTEX
  8
242
  5
196D
 10
45.5904
 20
15.2929
 30
0.000000
  70
    32
  0
VERTEX
  8
242
  5
196E
 10
45.7114
 20
15.1419
 30
0.000000
  70
    32
  0
VERTEX
  8
242
  5
196F
 10
45.8427
 20
14.9953
 30
0.000000
  70
    32
  0
VERTEX
  8
242
  5
1970
 10
45.9840
 20
14.8534
 30
0.000000
  70
    32
  0
VERTEX
  8
242
  5
1971
 10
46.1349
 20
14.7166
 30
0.000000
  70
    32
  0
VERTEX
  8
242
  5
1972
 10
46.2952
 20
14.5852
 30
0.000000
  70
    32
  0
VERTEX
  8
242
  5
1973
 10
46.4645
 20
14.4595
 30
0.000000
  70
    32
  0
VERTEX
  8
242
  5
1974
 10
46.6422
 20
14.3399
 30
0.000000
  70
    32
  0
VERTEX
  8
242
  5
1975
 10
46.8280
 20
14.2265
 30
0.000000
  70
    32
  0
VERTEX
  8
242
  5
1976
 10
47.0215
 20
14.1197
 30
0.000000
  70
    32
  0
VERTEX
  8
242
  5
1977
 10
47.2221
 20
14.0198
 30
0.000000
  70
    32
  0
VERTEX
  8
242
  5
1978
 10
47.4295
 20
13.9270
 30
0.000000
  70
    32
  0
VERTEX
  8
242
  5
1979
 10
47.6430
 20
13.8414
 30
0.000000
  70
    32
  0
VERTEX
  8
242
  5
197A
 10
47.8622
 20
13.7634
 30
0.000000
  70
    32
  0
VERTEX
  8
242
  5
197B
 10
48.0866
 20
13.6931
 30
0.000000
  70
    32
  0
VERTEX
  8
242
  5
197C
 10
48.3156
 20
13.6306
 30
0.000000
  70
    32
  0
VERTEX
  8
242
  5
197D
 10
48.5486
 20
13.5762
 30
0.000000
  70
    32
  0
VERTEX
  8
242
  5
197E
 10
48.7851
 20
13.5299
 30
0.000000
  70
    32
  0
VERTEX
  8
242
  5
197F
 10
49.0245
 20
13.4919
 30
0.000000
  70
    32
  0
VERTEX
  8
242
  5
1980
 10
49.2663
 20
13.4622
 30
0.000000
  70
    32
  0
VERTEX
  8
242
  5
1981
 10
49.5099
 20
13.4410
 30
0.000000
  70
    32
  0
VERTEX
  8
242
  5
1982
 10
49.7547
 20
13.4282
 30
0.000000
  70
    32
  0
VERTEX
  8
242
  5
1983
 10
50.0000
 20
13.4240
 30
0.000000
  70
    32
  0
VERTEX
  8
242
  5
1984
 10
50.2453
 20
13.4282
 30
0.000000
  70
    32
  0
VERTEX
  8
242
  5
1985
 10
50.4901
 20
13.4410
 30
0.000000
  70
    32
  0
VERTEX
  8
242
  5
1986
 10
50.7337
 20
13.4622
 30
0.000000
  70
    32
  0
VERTEX
  8
242
  5
1987
 10
50.9755
 20
13.4919
 30
0.000000
  70
    32
  0
VERTEX
  8
242
  5
1988
 10
51.2149
 20
13.5299
 30
0.000000
  70
    32
  0
VERTEX
  8
242
  5
1989
 10
51.4514
 20
13.5762
 30
0.000000
  70
    32
  0
VERTEX
  8
242
  5
198A
 10
51.6844
 20
13.6306
 30
0.000000
  70
    32
  0
VERTEX
  8
242
  5
198B
 10
51.9134
 20
13.6931
 30
0.000000
  70
    32
  0
VERTEX
  8
242
  5
198C
 10
52.1378
 20
13.7634
 30
0.000000
  70
    32
  0
VERTEX
  8
242
  5
198D
 10
52.3570
 20
13.8414
 30
0.000000
  70
    32
  0
VERTEX
  8
242
  5
198E
 10
52.5705
 20
13.9270
 30
0.000000
  70
    32
  0
VERTEX
  8
242
  5
198F
 10
52.7779
 20
14.0198
 30
0.000000
  70
    32
  0
VERTEX
  8
242
  5
1990
 10
52.9785
 20
14.1197
 30
0.000000
  70
    32
  0
VERTEX
  8
242
  5
1991
 10
53.1720
 20
14.2265
 30
0.000000
  70
    32
  0
VERTEX
  8
242
  5
1992
 10
53.3578
 20
14.3399
 30
0.000000
  70
    32
  0
VERTEX
  8
242
  5
1993
 10
53.5355
 20
14.4595
 30
0.000000
  70
    32
  0
VERTEX
  8
242
  5
1994
 10
53.7048
 20
14.5852
 30
0.000000
  70
    32
  0
VERTEX
  8
242
  5
1995
 10
53.8651
 20
14.7166
 30
0.000000
  70
    32
  0
VERTEX
  8
242
  5
1996
 10
54.0160
 20
14.8534
 30
0.000000
  70
    32
  0
VERTEX
  8
242
  5
1997
 10
54.1573
 20
14.9953
 30
0.000000
  70
    32
  0
VERTEX
  8
242
  5
1998
 10
54.2886
 20
15.1419
 30
0.000000
  70
    32
  0
VERTEX
  8
242
  5
1999
 10
54.4096
 20
15.2929
 30
0.000000
  70
    32
  0
VERTEX
  8
242
  5
199A
 10
54.5199
 20
15.4479
 30
0.000000
  70
    32
  0
VERTEX
  8
242
  5
199B
 10
54.6194
 20
15.6065
 30
0.000000
  70
    32
  0
VERTEX
  8
242
  5
199C
 10
54.7077
 20
15.7684
 30
0.000000
  70
    32
  0
VERTEX
  8
242
  5
199D
 10
54.7847
 20
15.9332
 30
0.000000
  70
    32
  0
VERTEX
  8
242
  5
199E
 10
54.8502
 20
16.1004
 30
0.000000
  70
    32
  0
VERTEX
  8
242
  5
199F
 10
54.9039
 20
16.2698
 30
0.000000
  70
    32
  0
VERTEX
  8
242
  5
19A0
 10
54.9459
 20
16.4407
 30
0.000000
  70
    32
  0
VERTEX
  8
242
  5
19A1
 10
54.9759
 20
16.6130
 30
0.000000
  70
    32
  0
VERTEX
  8
242
  5
19A2
 10
54.9940
 20
16.7860
 30
0.000000
  70
    32
  0
VERTEX
  8
242
  5
19A3
 10
55.0000
 20
16.9595
 30
0.000000
  70
    32
  0
VERTEX
  8
242
  5
19A4
 10
54.9940
 20
17.1330
 30
0.000000
  70
    32
  0
VERTEX
  8
242
  5
19A5
 10
54.9759
 20
17.3061
 30
0.000000
  70
    32
  0
VERTEX
  8
242
  5
19A6
 10
54.9459
 20
17.4783
 30
0.000000
  70
    32
  0
VERTEX
  8
242
  5
19A7
 10
54.9039
 20
17.6493
 30
0.000000
  70
    32
  0
VERTEX
  8
242
  5
19A8
 10
54.8502
 20
17.8186
 30
0.000000
  70
    32
  0
VERTEX
  8
242
  5
19A9
 10
54.7847
 20
17.9858
 30
0.000000
  70
    32
  0
VERTEX
  8
242
  5
19AA
 10
54.7077
 20
18.1506
 30
0.000000
  70
    32
  0
VERTEX
  8
242
  5
19AB
 10
54.6194
 20
18.3125
 30
0.000000
  70
    32
  0
VERTEX
  8
242
  5
19AC
 10
54.5199
 20
18.4711
 30
0.000000
  70
    32
  0
VERTEX
  8
242
  5
19AD
 10
54.4096
 20
18.6261
 30
0.000000
  70
    32
  0
VERTEX
  8
242
  5
19AE
 10
54.2886
 20
18.7771
 30
0.000000
  70
    32
  0
VERTEX
  8
242
  5
19AF
 10
54.1573
 20
18.9237
 30
0.000000
  70
    32
  0
VERTEX
  8
242
  5
19B0
 10
54.0160
 20
19.0656
 30
0.000000
  70
    32
  0
VERTEX
  8
242
  5
19B1
 10
53.8651
 20
19.2024
 30
0.000000
  70
    32
  0
VERTEX
  8
242
  5
19B2
 10
53.7048
 20
19.3338
 30
0.000000
  70
    32
  0
VERTEX
  8
242
  5
19B3
 10
53.5355
 20
19.4595
 30
0.000000
  70
    32
  0
VERTEX
  8
242
  5
19B4
 10
53.3578
 20
19.5792
 30
0.000000
  70
    32
  0
VERTEX
  8
242
  5
19B5
 10
53.1720
 20
19.6925
 30
0.000000
  70
    32
  0
VERTEX
  8
242
  5
19B6
 10
52.9785
 20
19.7993
 30
0.000000
  70
    32
  0
VERTEX
  8
242
  5
19B7
 10
52.7779
 20
19.8992
 30
0.000000
  70
    32
  0
VERTEX
  8
242
  5
19B8
 10
52.5705
 20
19.9920
 30
0.000000
  70
    32
  0
VERTEX
  8
242
  5
19B9
 10
52.3570
 20
20.0776
 30
0.000000
  70
    32
  0
VERTEX
  8
242
  5
19BA
 10
52.1378
 20
20.1556
 30
0.000000
  70
    32
  0
VERTEX
  8
242
  5
19BB
 10
51.9134
 20
20.2259
 30
0.000000
  70
    32
  0
VERTEX
  8
242
  5
19BC
 10
51.6844
 20
20.2884
 30
0.000000
  70
    32
  0
VERTEX
  8
242
  5
19BD
 10
51.4514
 20
20.3428
 30
0.000000
  70
    32
  0
VERTEX
  8
242
  5
19BE
 10
51.2149
 20
20.3891
 30
0.000000
  70
    32
  0
VERTEX
  8
242
  5
19BF
 10
50.9755
 20
20.4271
 30
0.000000
  70
    32
  0
VERTEX
  8
242
  5
19C0
 10
50.7337
 20
20.4568
 30
0.000000
  70
    32
  0
VERTEX
  8
242
  5
19C1
 10
50.4901
 20
20.4780
 30
0.000000
  70
    32
  0
VERTEX
  8
242
  5
19C2
 10
50.2453
 20
20.4908
 30
0.000000
  70
    32
  0
VERTEX
  8
242
  5
19C3
 10
50.0000
 20
20.4950
 30
0.000000
  70
    32
  0
VERTEX
  8
242
  5
19C4
 10
49.7547
 20
20.4908
 30
0.000000
  70
    32
  0
VERTEX
  8
242
  5
19C5
 10
49.5099
 20
20.4780
 30
0.000000
  70
    32
  0
VERTEX
  8
242
  5
19C6
 10
49.2663
 20
20.4568
 30
0.000000
  70
    32
  0
VERTEX
  8
242
  5
19C7
 10
49.0245
 20
20.4271
 30
0.000000
  70
    32
  0
VERTEX
  8
242
  5
19C8
 10
48.7851
 20
20.3891
 30
0.000000
  70
    32
  0
VERTEX
  8
242
  5
19C9
 10
48.5486
 20
20.3428
 30
0.000000
  70
    32
  0
VERTEX
  8
242
  5
19CA
 10
48.3156
 20
20.2884
 30
0.000000
  70
    32
  0
VERTEX
  8
242
  5
19CB
 10
48.0866
 20
20.2259
 30
0.000000
  70
    32
  0
VERTEX
  8
242
  5
19CC
 10
47.8622
 20
20.1556
 30
0.000000
  70
    32
  0
VERTEX
  8
242
  5
19CD
 10
47.6430
 20
20.0776
 30
0.000000
  70
    32
  0
VERTEX
  8
242
  5
19CE
 10
47.4295
 20
19.9920
 30
0.000000
  70
    32
  0
VERTEX
  8
242
  5
19CF
 10
47.2221
 20
19.8992
 30
0.000000
  70
    32
  0
VERTEX
  8
242
  5
19D0
 10
47.0215
 20
19.7993
 30
0.000000
  70
    32
  0
VERTEX
  8
242
  5
19D1
 10
46.8280
 20
19.6925
 30
0.000000
  70
    32
  0
VERTEX
  8
242
  5
19D2
 10
46.6422
 20
19.5792
 30
0.000000
  70
    32
  0
VERTEX
  8
242
  5
19D3
 10
46.4645
 20
19.4595
 30
0.000000
  70
    32
  0
VERTEX
  8
242
  5
19D4
 10
46.2952
 20
19.3338
 30
0.000000
  70
    32
  0
VERTEX
  8
242
  5
19D5
 10
46.1349
 20
19.2024
 30
0.000000
  70
    32
  0
VERTEX
  8
242
  5
19D6
 10
45.9840
 20
19.0656
 30
0.000000
  70
    32
  0
VERTEX
  8
242
  5
19D7
 10
45.8427
 20
18.9237
 30
0.000000
  70
    32
  0
VERTEX
  8
242
  5
19D8
 10
45.7114
 20
18.7771
 30
0.000000
  70
    32
  0
VERTEX
  8
242
  5
19D9
 10
45.5904
 20
18.6261
 30
0.000000
  70
    32
  0
VERTEX
  8
242
  5
19DA
 10
45.4801
 20
18.4711
 30
0.000000
  70
    32
  0
VERTEX
  8
242
  5
19DB
 10
45.3806
 20
18.3125
 30
0.000000
  70
    32
  0
VERTEX
  8
242
  5
19DC
 10
45.2923
 20
18.1506
 30
0.000000
  70
    32
  0
VERTEX
  8
242
  5
19DD
 10
45.2153
 20
17.9858
 30
0.000000
  70
    32
  0
VERTEX
  8
242
  5
19DE
 10
45.1498
 20
17.8186
 30
0.000000
  70
    32
  0
VERTEX
  8
242
  5
19DF
 10
45.0961
 20
17.6493
 30
0.000000
  70
    32
  0
VERTEX
  8
242
  5
19E0
 10
45.0541
 20
17.4783
 30
0.000000
  70
    32
  0
VERTEX
  8
242
  5
19E1
 10
45.0241
 20
17.3061
 30
0.000000
  70
    32
  0
VERTEX
  8
242
  5
19E2
 10
45.0060
 20
17.1330
 30
0.000000
  70
    32
  0
VERTEX
  8
242
  5
19E3
 10
45.0000
 20
16.9595
 30
0.000000
  70
    32
  0
SEQEND
  8
242
  5
19E4
  0
LINE
  5
179D
  8
245
  6
CENTER2
 10
45.0
 20
17.32411613906833
 30
0.0
 11
55.0
 21
17.32411613906833
 31
0.0
  0
LINE
  5
179E
  8
241
 10
42.0
 20
-24.49999999999136
 30
0.0
 11
42.0
 21
0.0000000000004547
 31
0.0
  0
LINE
  5
179F
  8
241
 10
40.399999999994179
 20
-24.49999999999136
 30
0.0
 11
40.399999999994179
 21
0.0000000000004547
 31
0.0
  0
LINE
  5
17A0
  8
241
 10
39.0
 20
-24.49999999999136
 30
0.0
 11
39.0
 21
0.0000000000004547
 31
0.0
  0
LINE
  5
17A1
  8
241
 10
37.399999999994179
 20
-24.499999999992269
 30
0.0
 11
37.399999999994179
 21
0.0000000000004547
 31
0.0
  0
LINE
  5
17A2
  8
241
 10
4.0
 20
-24.399999999985539
 30
0.0
 11
4.0
 21
0.0000000000004547
 31
0.0
  0
ARC
  5
17A3
  8
240
 10
64.0
 20
-23.499999999988631
 30
0.0
 40
1.0
 50
270.0
 51
0.0
1001
GENIUS_GENOBJ-N-FIL_13
1002
{
1000
OWNER
1000
GEN
1002
}
1001
GENIUS_GENODEF_13
1002
{
1000
HIER
1070
     0
1002
}
1002
{
1000
MANEDIT
1070
     0
1002
}
1002
{
1000
NOSEL
1070
     0
1002
}
1002
{
1000
BEHIND
1070
     0
1002
}
1002
{
1000
OTHER
1070
     0
1002
}
1002
{
1000
REACTOR
1002
}
  0
LINE
  5
17A4
  8
240
 10
4.0
 20
-24.399999999988719
 30
0.0
 11
4.1000000000003629
 21
-24.49999999998909
 31
0.0
  0
LINE
  5
17A5
  8
240
 10
4.0
 20
-24.399999999988719
 30
0.0
 11
1.4639948883013849
 21
-24.399999999988271
 31
0.0
  0
LINE
  5
17A6
  8
240
 10
0.1985988383094082
 20
-26.25881904509879
 30
0.0
 11
0.4980690620122914
 21
-25.14118095488584
 31
0.0
  0
LINE
  5
17A7
  8
240
 10
64.999999999996362
 20
0.0000000000004547
 30
0.0
 11
65.0
 21
-23.499999999988631
 31
0.0
  0
LINE
  5
17A8
  8
245
  6
CENTER2
 10
50.0
 20
-20.495044512076671
 30
0.0
 11
50.0
 21
-13.423976700211369
 31
0.0
  0
LINE
  5
17A9
  8
240
 10
4.1000000000058199
 20
-24.499999999996358
 30
0.0
 11
37.399999999994179
 21
-24.499999999992269
 31
0.0
  0
LINE
  5
17AA
  8
240
 10
42.0
 20
-24.49999999999136
 30
0.0
 11
64.0
 21
-24.499999999988631
 31
0.0
  0
ARC
  5
17AB
  8
240
 10
1.4639948883013849
 20
-25.399999999988271
 30
0.0
 40
1.0
 50
90.0
 51
165.00000000000551
1001
GENIUS_GENOBJ-N-FIL_13
1002
{
1000
OWNER
1000
GEN
1002
}
1001
GENIUS_GENODEF_13
1002
{
1000
HIER
1070
     0
1002
}
1002
{
1000
MANEDIT
1070
     0
1002
}
1002
{
1000
NOSEL
1070
     0
1002
}
1002
{
1000
BEHIND
1070
     0
1002
}
1002
{
1000
OTHER
1070
     0
1002
}
1002
{
1000
REACTOR
1002
}
  0
LINE
  5
17AC
  8
241
 10
0.6966679003235186
 20
-24.399999999988271
 30
0.0
 11
0.6966679003235186
 21
0.0
 31
0.0
  0
POLYLINE
  5
17AD
  8
241
 10
45.75
 20
-17.061469749113293
 30
0.0
 66
     1
 70
     8
  0
VERTEX
  8
241
  5
19E5
 10
45.7500
 20
-17.0615
 30
0.000000
  70
    32
  0
VERTEX
  8
241
  5
19E6
 10
45.7551
 20
-16.9140
 30
0.000000
  70
    32
  0
VERTEX
  8
241
  5
19E7
 10
45.7705
 20
-16.7669
 30
0.000000
  70
    32
  0
VERTEX
  8
241
  5
19E8
 10
45.7960
 20
-16.6205
 30
0.000000
  70
    32
  0
VERTEX
  8
241
  5
19E9
 10
45.8317
 20
-16.4752
 30
0.000000
  70
    32
  0
VERTEX
  8
241
  5
19EA
 10
45.8774
 20
-16.3313
 30
0.000000
  70
    32
  0
VERTEX
  8
241
  5
19EB
 10
45.9330
 20
-16.1891
 30
0.000000
  70
    32
  0
VERTEX
  8
241
  5
19EC
 10
45.9984
 20
-16.0490
 30
0.000000
  70
    32
  0
VERTEX
  8
241
  5
19ED
 10
46.0735
 20
-15.9114
 30
0.000000
  70
    32
  0
VERTEX
  8
241
  5
19EE
 10
46.1580
 20
-15.7766
 30
0.000000
  70
    32
  0
VERTEX
  8
241
  5
19EF
 10
46.2518
 20
-15.6448
 30
0.000000
  70
    32
  0
VERTEX
  8
241
  5
19F0
 10
46.3547
 20
-15.5165
 30
0.000000
  70
    32
  0
VERTEX
  8
241
  5
19F1
 10
46.4663
 20
-15.3919
 30
0.000000
  70
    32
  0
VERTEX
  8
241
  5
19F2
 10
46.5864
 20
-15.2713
 30
0.000000
  70
    32
  0
VERTEX
  8
241
  5
19F3
 10
46.7147
 20
-15.1550
 30
0.000000
  70
    32
  0
VERTEX
  8
241
  5
19F4
 10
46.8510
 20
-15.0433
 30
0.000000
  70
    32
  0
VERTEX
  8
241
  5
19F5
 10
46.9948
 20
-14.9365
 30
0.000000
  70
    32
  0
VERTEX
  8
241
  5
19F6
 10
47.1459
 20
-14.8348
 30
0.000000
  70
    32
  0
VERTEX
  8
241
  5
19F7
 10
47.3038
 20
-14.7384
 30
0.000000
  70
    32
  0
VERTEX
  8
241
  5
19F8
 10
47.4683
 20
-14.6477
 30
0.000000
  70
    32
  0
VERTEX
  8
241
  5
19F9
 10
47.6388
 20
-14.5627
 30
0.000000
  70
    32
  0
VERTEX
  8
241
  5
19FA
 10
47.8151
 20
-14.4838
 30
0.000000
  70
    32
  0
VERTEX
  8
241
  5
19FB
 10
47.9966
 20
-14.4111
 30
0.000000
  70
    32
  0
VERTEX
  8
241
  5
19FC
 10
48.1829
 20
-14.3448
 30
0.000000
  70
    32
  0
VERTEX
  8
241
  5
19FD
 10
48.3736
 20
-14.2850
 30
0.000000
  70
    32
  0
VERTEX
  8
241
  5
19FE
 10
48.5682
 20
-14.2319
 30
0.000000
  70
    32
  0
VERTEX
  8
241
  5
19FF
 10
48.7663
 20
-14.1857
 30
0.000000
  70
    32
  0
VERTEX
  8
241
  5
1A00
 10
48.9673
 20
-14.1463
 30
0.000000
  70
    32
  0
VERTEX
  8
241
  5
1A01
 10
49.1709
 20
-14.1140
 30
0.000000
  70
    32
  0
VERTEX
  8
241
  5
1A02
 10
49.3764
 20
-14.0888
 30
0.000000
  70
    32
  0
VERTEX
  8
241
  5
1A03
 10
49.5834
 20
-14.0707
 30
0.000000
  70
    32
  0
VERTEX
  8
241
  5
1A04
 10
49.7915
 20
-14.0599
 30
0.000000
  70
    32
  0
VERTEX
  8
241
  5
1A05
 10
50.0000
 20
-14.0563
 30
0.000000
  70
    32
  0
VERTEX
  8
241
  5
1A06
 10
50.2085
 20
-14.0599
 30
0.000000
  70
    32
  0
VERTEX
  8
241
  5
1A07
 10
50.4166
 20
-14.0707
 30
0.000000
  70
    32
  0
VERTEX
  8
241
  5
1A08
 10
50.6236
 20
-14.0888
 30
0.000000
  70
    32
  0
VERTEX
  8
241
  5
1A09
 10
50.8291
 20
-14.1140
 30
0.000000
  70
    32
  0
VERTEX
  8
241
  5
1A0A
 10
51.0327
 20
-14.1463
 30
0.000000
  70
    32
  0
VERTEX
  8
241
  5
1A0B
 10
51.2337
 20
-14.1857
 30
0.000000
  70
    32
  0
VERTEX
  8
241
  5
1A0C
 10
51.4318
 20
-14.2319
 30
0.000000
  70
    32
  0
VERTEX
  8
241
  5
1A0D
 10
51.6264
 20
-14.2850
 30
0.000000
  70
    32
  0
VERTEX
  8
241
  5
1A0E
 10
51.8171
 20
-14.3448
 30
0.000000
  70
    32
  0
VERTEX
  8
241
  5
1A0F
 10
52.0034
 20
-14.4111
 30
0.000000
  70
    32
  0
VERTEX
  8
241
  5
1A10
 10
52.1849
 20
-14.4838
 30
0.000000
  70
    32
  0
VERTEX
  8
241
  5
1A11
 10
52.3612
 20
-14.5627
 30
0.000000
  70
    32
  0
VERTEX
  8
241
  5
1A12
 10
52.5317
 20
-14.6477
 30
0.000000
  70
    32
  0
VERTEX
  8
241
  5
1A13
 10
52.6962
 20
-14.7384
 30
0.000000
  70
    32
  0
VERTEX
  8
241
  5
1A14
 10
52.8541
 20
-14.8348
 30
0.000000
  70
    32
  0
VERTEX
  8
241
  5
1A15
 10
53.0052
 20
-14.9365
 30
0.000000
  70
    32
  0
VERTEX
  8
241
  5
1A16
 10
53.1490
 20
-15.0433
 30
0.000000
  70
    32
  0
VERTEX
  8
241
  5
1A17
 10
53.2853
 20
-15.1550
 30
0.000000
  70
    32
  0
VERTEX
  8
241
  5
1A18
 10
53.4136
 20
-15.2713
 30
0.000000
  70
    32
  0
VERTEX
  8
241
  5
1A19
 10
53.5337
 20
-15.3919
 30
0.000000
  70
    32
  0
VERTEX
  8
241
  5
1A1A
 10
53.6453
 20
-15.5165
 30
0.000000
  70
    32
  0
VERTEX
  8
241
  5
1A1B
 10
53.7482
 20
-15.6448
 30
0.000000
  70
    32
  0
VERTEX
  8
241
  5
1A1C
 10
53.8420
 20
-15.7766
 30
0.000000
  70
    32
  0
VERTEX
  8
241
  5
1A1D
 10
53.9265
 20
-15.9114
 30
0.000000
  70
    32
  0
VERTEX
  8
241
  5
1A1E
 10
54.0016
 20
-16.0490
 30
0.000000
  70
    32
  0
VERTEX
  8
241
  5
1A1F
 10
54.0670
 20
-16.1891
 30
0.000000
  70
    32
  0
VERTEX
  8
241
  5
1A20
 10
54.1226
 20
-16.3313
 30
0.000000
  70
    32
  0
VERTEX
  8
241
  5
1A21
 10
54.1683
 20
-16.4752
 30
0.000000
  70
    32
  0
VERTEX
  8
241
  5
1A22
 10
54.2040
 20
-16.6205
 30
0.000000
  70
    32
  0
VERTEX
  8
241
  5
1A23
 10
54.2295
 20
-16.7669
 30
0.000000
  70
    32
  0
VERTEX
  8
241
  5
1A24
 10
54.2449
 20
-16.9140
 30
0.000000
  70
    32
  0
VERTEX
  8
241
  5
1A25
 10
54.2500
 20
-17.0615
 30
0.000000
  70
    32
  0
VERTEX
  8
241
  5
1A26
 10
54.2449
 20
-17.2089
 30
0.000000
  70
    32
  0
VERTEX
  8
241
  5
1A27
 10
54.2295
 20
-17.3560
 30
0.000000
  70
    32
  0
VERTEX
  8
241
  5
1A28
 10
54.2040
 20
-17.5024
 30
0.000000
  70
    32
  0
VERTEX
  8
241
  5
1A29
 10
54.1683
 20
-17.6478
 30
0.000000
  70
    32
  0
VERTEX
  8
241
  5
1A2A
 10
54.1226
 20
-17.7917
 30
0.000000
  70
    32
  0
VERTEX
  8
241
  5
1A2B
 10
54.0670
 20
-17.9338
 30
0.000000
  70
    32
  0
VERTEX
  8
241
  5
1A2C
 10
54.0016
 20
-18.0739
 30
0.000000
  70
    32
  0
VERTEX
  8
241
  5
1A2D
 10
53.9265
 20
-18.2115
 30
0.000000
  70
    32
  0
VERTEX
  8
241
  5
1A2E
 10
53.8420
 20
-18.3464
 30
0.000000
  70
    32
  0
VERTEX
  8
241
  5
1A2F
 10
53.7482
 20
-18.4781
 30
0.000000
  70
    32
  0
VERTEX
  8
241
  5
1A30
 10
53.6453
 20
-18.6065
 30
0.000000
  70
    32
  0
VERTEX
  8
241
  5
1A31
 10
53.5337
 20
-18.7311
 30
0.000000
  70
    32
  0
VERTEX
  8
241
  5
1A32
 10
53.4136
 20
-18.8517
 30
0.000000
  70
    32
  0
VERTEX
  8
241
  5
1A33
 10
53.2853
 20
-18.9680
 30
0.000000
  70
    32
  0
VERTEX
  8
241
  5
1A34
 10
53.1490
 20
-19.0796
 30
0.000000
  70
    32
  0
VERTEX
  8
241
  5
1A35
 10
53.0052
 20
-19.1865
 30
0.000000
  70
    32
  0
VERTEX
  8
241
  5
1A36
 10
52.8541
 20
-19.2882
 30
0.000000
  70
    32
  0
VERTEX
  8
241
  5
1A37
 10
52.6962
 20
-19.3845
 30
0.000000
  70
    32
  0
VERTEX
  8
241
  5
1A38
 10
52.5317
 20
-19.4753
 30
0.000000
  70
    32
  0
VERTEX
  8
241
  5
1A39
 10
52.3612
 20
-19.5602
 30
0.000000
  70
    32
  0
VERTEX
  8
241
  5
1A3A
 10
52.1849
 20
-19.6391
 30
0.000000
  70
    32
  0
VERTEX
  8
241
  5
1A3B
 10
52.0034
 20
-19.7118
 30
0.000000
  70
    32
  0
VERTEX
  8
241
  5
1A3C
 10
51.8171
 20
-19.7781
 30
0.000000
  70
    32
  0
VERTEX
  8
241
  5
1A3D
 10
51.6264
 20
-19.8379
 30
0.000000
  70
    32
  0
VERTEX
  8
241
  5
1A3E
 10
51.4318
 20
-19.8910
 30
0.000000
  70
    32
  0
VERTEX
  8
241
  5
1A3F
 10
51.2337
 20
-19.9373
 30
0.000000
  70
    32
  0
VERTEX
  8
241
  5
1A40
 10
51.0327
 20
-19.9766
 30
0.000000
  70
    32
  0
VERTEX
  8
241
  5
1A41
 10
50.8291
 20
-20.0089
 30
0.000000
  70
    32
  0
VERTEX
  8
241
  5
1A42
 10
50.6236
 20
-20.0341
 30
0.000000
  70
    32
  0
VERTEX
  8
241
  5
1A43
 10
50.4166
 20
-20.0522
 30
0.000000
  70
    32
  0
VERTEX
  8
241
  5
1A44
 10
50.2085
 20
-20.0631
 30
0.000000
  70
    32
  0
VERTEX
  8
241
  5
1A45
 10
50.0000
 20
-20.0667
 30
0.000000
  70
    32
  0
VERTEX
  8
241
  5
1A46
 10
49.7915
 20
-20.0631
 30
0.000000
  70
    32
  0
VERTEX
  8
241
  5
1A47
 10
49.5834
 20
-20.0522
 30
0.000000
  70
    32
  0
VERTEX
  8
241
  5
1A48
 10
49.3764
 20
-20.0341
 30
0.000000
  70
    32
  0
VERTEX
  8
241
  5
1A49
 10
49.1709
 20
-20.0089
 30
0.000000
  70
    32
  0
VERTEX
  8
241
  5
1A4A
 10
48.9673
 20
-19.9766
 30
0.000000
  70
    32
  0
VERTEX
  8
241
  5
1A4B
 10
48.7663
 20
-19.9373
 30
0.000000
  70
    32
  0
VERTEX
  8
241
  5
1A4C
 10
48.5682
 20
-19.8910
 30
0.000000
  70
    32
  0
VERTEX
  8
241
  5
1A4D
 10
48.3736
 20
-19.8379
 30
0.000000
  70
    32
  0
VERTEX
  8
241
  5
1A4E
 10
48.1829
 20
-19.7781
 30
0.000000
  70
    32
  0
VERTEX
  8
241
  5
1A4F
 10
47.9966
 20
-19.7118
 30
0.000000
  70
    32
  0
VERTEX
  8
241
  5
1A50
 10
47.8151
 20
-19.6391
 30
0.000000
  70
    32
  0
VERTEX
  8
241
  5
1A51
 10
47.6388
 20
-19.5602
 30
0.000000
  70
    32
  0
VERTEX
  8
241
  5
1A52
 10
47.4683
 20
-19.4753
 30
0.000000
  70
    32
  0
VERTEX
  8
241
  5
1A53
 10
47.3038
 20
-19.3845
 30
0.000000
  70
    32
  0
VERTEX
  8
241
  5
1A54
 10
47.1459
 20
-19.2882
 30
0.000000
  70
    32
  0
VERTEX
  8
241
  5
1A55
 10
46.9948
 20
-19.1865
 30
0.000000
  70
    32
  0
VERTEX
  8
241
  5
1A56
 10
46.8510
 20
-19.0796
 30
0.000000
  70
    32
  0
VERTEX
  8
241
  5
1A57
 10
46.7147
 20
-18.9680
 30
0.000000
  70
    32
  0
VERTEX
  8
241
  5
1A58
 10
46.5864
 20
-18.8517
 30
0.000000
  70
    32
  0
VERTEX
  8
241
  5
1A59
 10
46.4663
 20
-18.7311
 30
0.000000
  70
    32
  0
VERTEX
  8
241
  5
1A5A
 10
46.3547
 20
-18.6065
 30
0.000000
  70
    32
  0
VERTEX
  8
241
  5
1A5B
 10
46.2518
 20
-18.4781
 30
0.000000
  70
    32
  0
VERTEX
  8
241
  5
1A5C
 10
46.1580
 20
-18.3464
 30
0.000000
  70
    32
  0
VERTEX
  8
241
  5
1A5D
 10
46.0735
 20
-18.2115
 30
0.000000
  70
    32
  0
VERTEX
  8
241
  5
1A5E
 10
45.9984
 20
-18.0739
 30
0.000000
  70
    32
  0
VERTEX
  8
241
  5
1A5F
 10
45.9330
 20
-17.9338
 30
0.000000
  70
    32
  0
VERTEX
  8
241
  5
1A60
 10
45.8774
 20
-17.7917
 30
0.000000
  70
    32
  0
VERTEX
  8
241
  5
1A61
 10
45.8317
 20
-17.6478
 30
0.000000
  70
    32
  0
VERTEX
  8
241
  5
1A62
 10
45.7960
 20
-17.5024
 30
0.000000
  70
    32
  0
VERTEX
  8
241
  5
1A63
 10
45.7705
 20
-17.3560
 30
0.000000
  70
    32
  0
VERTEX
  8
241
  5
1A64
 10
45.7551
 20
-17.2089
 30
0.000000
  70
    32
  0
VERTEX
  8
241
  5
1A65
 10
45.7500
 20
-17.0615
 30
0.000000
  70
    32
  0
SEQEND
  8
241
  5
1A66
  0
POLYLINE
  5
17AE
  8
242
 10
45.0
 20
-16.959510606143827
 30
0.0
 66
     1
 70
     8
  0
VERTEX
  8
242
  5
1A67
 10
45.0000
 20
-16.9595
 30
0.000000
  70
    32
  0
VERTEX
  8
242
  5
1A68
 10
45.0060
 20
-16.7860
 30
0.000000
  70
    32
  0
VERTEX
  8
242
  5
1A69
 10
45.0241
 20
-16.6130
 30
0.000000
  70
    32
  0
VERTEX
  8
242
  5
1A6A
 10
45.0541
 20
-16.4407
 30
0.000000
  70
    32
  0
VERTEX
  8
242
  5
1A6B
 10
45.0961
 20
-16.2698
 30
0.000000
  70
    32
  0
VERTEX
  8
242
  5
1A6C
 10
45.1498
 20
-16.1004
 30
0.000000
  70
    32
  0
VERTEX
  8
242
  5
1A6D
 10
45.2153
 20
-15.9332
 30
0.000000
  70
    32
  0
VERTEX
  8
242
  5
1A6E
 10
45.2923
 20
-15.7684
 30
0.000000
  70
    32
  0
VERTEX
  8
242
  5
1A6F
 10
45.3806
 20
-15.6065
 30
0.000000
  70
    32
  0
VERTEX
  8
242
  5
1A70
 10
45.4801
 20
-15.4479
 30
0.000000
  70
    32
  0
VERTEX
  8
242
  5
1A71
 10
45.5904
 20
-15.2929
 30
0.000000
  70
    32
  0
VERTEX
  8
242
  5
1A72
 10
45.7114
 20
-15.1419
 30
0.000000
  70
    32
  0
VERTEX
  8
242
  5
1A73
 10
45.8427
 20
-14.9953
 30
0.000000
  70
    32
  0
VERTEX
  8
242
  5
1A74
 10
45.9840
 20
-14.8534
 30
0.000000
  70
    32
  0
VERTEX
  8
242
  5
1A75
 10
46.1349
 20
-14.7166
 30
0.000000
  70
    32
  0
VERTEX
  8
242
  5
1A76
 10
46.2952
 20
-14.5852
 30
0.000000
  70
    32
  0
VERTEX
  8
242
  5
1A77
 10
46.4645
 20
-14.4595
 30
0.000000
  70
    32
  0
VERTEX
  8
242
  5
1A78
 10
46.6422
 20
-14.3399
 30
0.000000
  70
    32
  0
VERTEX
  8
242
  5
1A79
 10
46.8280
 20
-14.2265
 30
0.000000
  70
    32
  0
VERTEX
  8
242
  5
1A7A
 10
47.0215
 20
-14.1197
 30
0.000000
  70
    32
  0
VERTEX
  8
242
  5
1A7B
 10
47.2221
 20
-14.0198
 30
0.000000
  70
    32
  0
VERTEX
  8
242
  5
1A7C
 10
47.4295
 20
-13.9270
 30
0.000000
  70
    32
  0
VERTEX
  8
242
  5
1A7D
 10
47.6430
 20
-13.8414
 30
0.000000
  70
    32
  0
VERTEX
  8
242
  5
1A7E
 10
47.8622
 20
-13.7634
 30
0.000000
  70
    32
  0
VERTEX
  8
242
  5
1A7F
 10
48.0866
 20
-13.6931
 30
0.000000
  70
    32
  0
VERTEX
  8
242
  5
1A80
 10
48.3156
 20
-13.6306
 30
0.000000
  70
    32
  0
VERTEX
  8
242
  5
1A81
 10
48.5486
 20
-13.5762
 30
0.000000
  70
    32
  0
VERTEX
  8
242
  5
1A82
 10
48.7851
 20
-13.5299
 30
0.000000
  70
    32
  0
VERTEX
  8
242
  5
1A83
 10
49.0245
 20
-13.4919
 30
0.000000
  70
    32
  0
VERTEX
  8
242
  5
1A84
 10
49.2663
 20
-13.4622
 30
0.000000
  70
    32
  0
VERTEX
  8
242
  5
1A85
 10
49.5099
 20
-13.4410
 30
0.000000
  70
    32
  0
VERTEX
  8
242
  5
1A86
 10
49.7547
 20
-13.4282
 30
0.000000
  70
    32
  0
VERTEX
  8
242
  5
1A87
 10
50.0000
 20
-13.4240
 30
0.000000
  70
    32
  0
VERTEX
  8
242
  5
1A88
 10
50.2453
 20
-13.4282
 30
0.000000
  70
    32
  0
VERTEX
  8
242
  5
1A89
 10
50.4901
 20
-13.4410
 30
0.000000
  70
    32
  0
VERTEX
  8
242
  5
1A8A
 10
50.7337
 20
-13.4622
 30
0.000000
  70
    32
  0
VERTEX
  8
242
  5
1A8B
 10
50.9755
 20
-13.4919
 30
0.000000
  70
    32
  0
VERTEX
  8
242
  5
1A8C
 10
51.2149
 20
-13.5299
 30
0.000000
  70
    32
  0
VERTEX
  8
242
  5
1A8D
 10
51.4514
 20
-13.5762
 30
0.000000
  70
    32
  0
VERTEX
  8
242
  5
1A8E
 10
51.6844
 20
-13.6306
 30
0.000000
  70
    32
  0
VERTEX
  8
242
  5
1A8F
 10
51.9134
 20
-13.6931
 30
0.000000
  70
    32
  0
VERTEX
  8
242
  5
1A90
 10
52.1378
 20
-13.7634
 30
0.000000
  70
    32
  0
VERTEX
  8
242
  5
1A91
 10
52.3570
 20
-13.8414
 30
0.000000
  70
    32
  0
VERTEX
  8
242
  5
1A92
 10
52.5705
 20
-13.9270
 30
0.000000
  70
    32
  0
VERTEX
  8
242
  5
1A93
 10
52.7779
 20
-14.0198
 30
0.000000
  70
    32
  0
VERTEX
  8
242
  5
1A94
 10
52.9785
 20
-14.1197
 30
0.000000
  70
    32
  0
VERTEX
  8
242
  5
1A95
 10
53.1720
 20
-14.2265
 30
0.000000
  70
    32
  0
VERTEX
  8
242
  5
1A96
 10
53.3578
 20
-14.3399
 30
0.000000
  70
    32
  0
VERTEX
  8
242
  5
1A97
 10
53.5355
 20
-14.4595
 30
0.000000
  70
    32
  0
VERTEX
  8
242
  5
1A98
 10
53.7048
 20
-14.5852
 30
0.000000
  70
    32
  0
VERTEX
  8
242
  5
1A99
 10
53.8651
 20
-14.7166
 30
0.000000
  70
    32
  0
VERTEX
  8
242
  5
1A9A
 10
54.0160
 20
-14.8534
 30
0.000000
  70
    32
  0
VERTEX
  8
242
  5
1A9B
 10
54.1573
 20
-14.9953
 30
0.000000
  70
    32
  0
VERTEX
  8
242
  5
1A9C
 10
54.2886
 20
-15.1419
 30
0.000000
  70
    32
  0
VERTEX
  8
242
  5
1A9D
 10
54.4096
 20
-15.2929
 30
0.000000
  70
    32
  0
VERTEX
  8
242
  5
1A9E
 10
54.5199
 20
-15.4479
 30
0.000000
  70
    32
  0
VERTEX
  8
242
  5
1A9F
 10
54.6194
 20
-15.6065
 30
0.000000
  70
    32
  0
VERTEX
  8
242
  5
1AA0
 10
54.7077
 20
-15.7684
 30
0.000000
  70
    32
  0
VERTEX
  8
242
  5
1AA1
 10
54.7847
 20
-15.9332
 30
0.000000
  70
    32
  0
VERTEX
  8
242
  5
1AA2
 10
54.8502
 20
-16.1004
 30
0.000000
  70
    32
  0
VERTEX
  8
242
  5
1AA3
 10
54.9039
 20
-16.2698
 30
0.000000
  70
    32
  0
VERTEX
  8
242
  5
1AA4
 10
54.9459
 20
-16.4407
 30
0.000000
  70
    32
  0
VERTEX
  8
242
  5
1AA5
 10
54.9759
 20
-16.6130
 30
0.000000
  70
    32
  0
VERTEX
  8
242
  5
1AA6
 10
54.9940
 20
-16.7860
 30
0.000000
  70
    32
  0
VERTEX
  8
242
  5
1AA7
 10
55.0000
 20
-16.9595
 30
0.000000
  70
    32
  0
VERTEX
  8
242
  5
1AA8
 10
54.9940
 20
-17.1330
 30
0.000000
  70
    32
  0
VERTEX
  8
242
  5
1AA9
 10
54.9759
 20
-17.3061
 30
0.000000
  70
    32
  0
VERTEX
  8
242
  5
1AAA
 10
54.9459
 20
-17.4783
 30
0.000000
  70
    32
  0
VERTEX
  8
242
  5
1AAB
 10
54.9039
 20
-17.6493
 30
0.000000
  70
    32
  0
VERTEX
  8
242
  5
1AAC
 10
54.8502
 20
-17.8186
 30
0.000000
  70
    32
  0
VERTEX
  8
242
  5
1AAD
 10
54.7847
 20
-17.9858
 30
0.000000
  70
    32
  0
VERTEX
  8
242
  5
1AAE
 10
54.7077
 20
-18.1506
 30
0.000000
  70
    32
  0
VERTEX
  8
242
  5
1AAF
 10
54.6194
 20
-18.3125
 30
0.000000
  70
    32
  0
VERTEX
  8
242
  5
1AB0
 10
54.5199
 20
-18.4711
 30
0.000000
  70
    32
  0
VERTEX
  8
242
  5
1AB1
 10
54.4096
 20
-18.6261
 30
0.000000
  70
    32
  0
VERTEX
  8
242
  5
1AB2
 10
54.2886
 20
-18.7771
 30
0.000000
  70
    32
  0
VERTEX
  8
242
  5
1AB3
 10
54.1573
 20
-18.9237
 30
0.000000
  70
    32
  0
VERTEX
  8
242
  5
1AB4
 10
54.0160
 20
-19.0656
 30
0.000000
  70
    32
  0
VERTEX
  8
242
  5
1AB5
 10
53.8651
 20
-19.2024
 30
0.000000
  70
    32
  0
VERTEX
  8
242
  5
1AB6
 10
53.7048
 20
-19.3338
 30
0.000000
  70
    32
  0
VERTEX
  8
242
  5
1AB7
 10
53.5355
 20
-19.4595
 30
0.000000
  70
    32
  0
VERTEX
  8
242
  5
1AB8
 10
53.3578
 20
-19.5792
 30
0.000000
  70
    32
  0
VERTEX
  8
242
  5
1AB9
 10
53.1720
 20
-19.6925
 30
0.000000
  70
    32
  0
VERTEX
  8
242
  5
1ABA
 10
52.9785
 20
-19.7993
 30
0.000000
  70
    32
  0
VERTEX
  8
242
  5
1ABB
 10
52.7779
 20
-19.8992
 30
0.000000
  70
    32
  0
VERTEX
  8
242
  5
1ABC
 10
52.5705
 20
-19.9920
 30
0.000000
  70
    32
  0
VERTEX
  8
242
  5
1ABD
 10
52.3570
 20
-20.0776
 30
0.000000
  70
    32
  0
VERTEX
  8
242
  5
1ABE
 10
52.1378
 20
-20.1556
 30
0.000000
  70
    32
  0
VERTEX
  8
242
  5
1ABF
 10
51.9134
 20
-20.2259
 30
0.000000
  70
    32
  0
VERTEX
  8
242
  5
1AC0
 10
51.6844
 20
-20.2884
 30
0.000000
  70
    32
  0
VERTEX
  8
242
  5
1AC1
 10
51.4514
 20
-20.3428
 30
0.000000
  70
    32
  0
VERTEX
  8
242
  5
1AC2
 10
51.2149
 20
-20.3891
 30
0.000000
  70
    32
  0
VERTEX
  8
242
  5
1AC3
 10
50.9755
 20
-20.4271
 30
0.000000
  70
    32
  0
VERTEX
  8
242
  5
1AC4
 10
50.7337
 20
-20.4568
 30
0.000000
  70
    32
  0
VERTEX
  8
242
  5
1AC5
 10
50.4901
 20
-20.4780
 30
0.000000
  70
    32
  0
VERTEX
  8
242
  5
1AC6
 10
50.2453
 20
-20.4908
 30
0.000000
  70
    32
  0
VERTEX
  8
242
  5
1AC7
 10
50.0000
 20
-20.4950
 30
0.000000
  70
    32
  0
VERTEX
  8
242
  5
1AC8
 10
49.7547
 20
-20.4908
 30
0.000000
  70
    32
  0
VERTEX
  8
242
  5
1AC9
 10
49.5099
 20
-20.4780
 30
0.000000
  70
    32
  0
VERTEX
  8
242
  5
1ACA
 10
49.2663
 20
-20.4568
 30
0.000000
  70
    32
  0
VERTEX
  8
242
  5
1ACB
 10
49.0245
 20
-20.4271
 30
0.000000
  70
    32
  0
VERTEX
  8
242
  5
1ACC
 10
48.7851
 20
-20.3891
 30
0.000000
  70
    32
  0
VERTEX
  8
242
  5
1ACD
 10
48.5486
 20
-20.3428
 30
0.000000
  70
    32
  0
VERTEX
  8
242
  5
1ACE
 10
48.3156
 20
-20.2884
 30
0.000000
  70
    32
  0
VERTEX
  8
242
  5
1ACF
 10
48.0866
 20
-20.2259
 30
0.000000
  70
    32
  0
VERTEX
  8
242
  5
1AD0
 10
47.8622
 20
-20.1556
 30
0.000000
  70
    32
  0
VERTEX
  8
242
  5
1AD1
 10
47.6430
 20
-20.0776
 30
0.000000
  70
    32
  0
VERTEX
  8
242
  5
1AD2
 10
47.4295
 20
-19.9920
 30
0.000000
  70
    32
  0
VERTEX
  8
242
  5
1AD3
 10
47.2221
 20
-19.8992
 30
0.000000
  70
    32
  0
VERTEX
  8
242
  5
1AD4
 10
47.0215
 20
-19.7993
 30
0.000000
  70
    32
  0
VERTEX
  8
242
  5
1AD5
 10
46.8280
 20
-19.6925
 30
0.000000
  70
    32
  0
VERTEX
  8
242
  5
1AD6
 10
46.6422
 20
-19.5792
 30
0.000000
  70
    32
  0
VERTEX
  8
242
  5
1AD7
 10
46.4645
 20
-19.4595
 30
0.000000
  70
    32
  0
VERTEX
  8
242
  5
1AD8
 10
46.2952
 20
-19.3338
 30
0.000000
  70
    32
  0
VERTEX
  8
242
  5
1AD9
 10
46.1349
 20
-19.2024
 30
0.000000
  70
    32
  0
VERTEX
  8
242
  5
1ADA
 10
45.9840
 20
-19.0656
 30
0.000000
  70
    32
  0
VERTEX
  8
242
  5
1ADB
 10
45.8427
 20
-18.9237
 30
0.000000
  70
    32
  0
VERTEX
  8
242
  5
1ADC
 10
45.7114
 20
-18.7771
 30
0.000000
  70
    32
  0
VERTEX
  8
242
  5
1ADD
 10
45.5904
 20
-18.6261
 30
0.000000
  70
    32
  0
VERTEX
  8
242
  5
1ADE
 10
45.4801
 20
-18.4711
 30
0.000000
  70
    32
  0
VERTEX
  8
242
  5
1ADF
 10
45.3806
 20
-18.3125
 30
0.000000
  70
    32
  0
VERTEX
  8
242
  5
1AE0
 10
45.2923
 20
-18.1506
 30
0.000000
  70
    32
  0
VERTEX
  8
242
  5
1AE1
 10
45.2153
 20
-17.9858
 30
0.000000
  70
    32
  0
VERTEX
  8
242
  5
1AE2
 10
45.1498
 20
-17.8186
 30
0.000000
  70
    32
  0
VERTEX
  8
242
  5
1AE3
 10
45.0961
 20
-17.6493
 30
0.000000
  70
    32
  0
VERTEX
  8
242
  5
1AE4
 10
45.0541
 20
-17.4783
 30
0.000000
  70
    32
  0
VERTEX
  8
242
  5
1AE5
 10
45.0241
 20
-17.3061
 30
0.000000
  70
    32
  0
VERTEX
  8
242
  5
1AE6
 10
45.0060
 20
-17.1330
 30
0.000000
  70
    32
  0
VERTEX
  8
242
  5
1AE7
 10
45.0000
 20
-16.9595
 30
0.000000
  70
    32
  0
SEQEND
  8
242
  5
1AE8
  0
LINE
  5
17AF
  8
245
  6
CENTER2
 10
45.0
 20
-17.324116139067879
 30
0.0
 11
55.0
 21
-17.324116139067879
 31
0.0
  0
LINE
  5
17B0
  8
240
 10
-90.000000000002728
 20
19.136539030918811
 30
0.0
 11
-90.000000000003638
 21
0.0
 31
0.0
  0
ARC
  5
17B1
  8
240
 10
-88.80000000000382
 20
18.815000000000051
 30
0.0
 40
1.1999999999999991
 50
99.068721546943138
 51
149.99999999998971
1001
GENIUS_GENOBJ-N-FIL_13
1002
{
1000
OWNER
1000
GEN
1002
}
1001
GENIUS_GENODEF_13
1002
{
1000
HIER
1070
     0
1002
}
1002
{
1000
MANEDIT
1070
     0
1002
}
1002
{
1000
NOSEL
1070
     0
1002
}
1002
{
1000
BEHIND
1070
     0
1002
}
1002
{
1000
OTHER
1070
     0
1002
}
1002
{
1000
REACTOR
1002
}
  0
LINE
  5
17B2
  8
240
 10
-89.839230484544714
 20
19.41499999999996
 30
0.0
 11
-90.000000000002728
 21
19.136539030918811
 31
0.0
  0
ARC
  5
17B3
  8
240
 10
-88.80000000000382
 20
18.815000000000051
 30
0.0
 40
1.1999999999999991
 50
79.999999999996106
 51
80.931278453056876
1001
GENIUS_GENOBJ-N-FIL_13
1002
{
1000
OWNER
1000
GEN
1002
}
1001
GENIUS_GENODEF_13
1002
{
1000
HIER
1070
     0
1002
}
1002
{
1000
MANEDIT
1070
     0
1002
}
1002
{
1000
NOSEL
1070
     0
1002
}
1002
{
1000
BEHIND
1070
     0
1002
}
1002
{
1000
OTHER
1070
     0
1002
}
1002
{
1000
REACTOR
1002
}
  0
LINE
  5
17B4
  8
240
 10
-88.591622186803761
 20
19.996769303614649
 30
0.0
 11
-86.612627514931773
 21
19.64781914828518
 31
0.0
  0
LINE
  5
17B5
  8
240
 10
-86.612627514931773
 20
19.64781914828518
 30
0.0
 11
-84.106730545857317
 21
19.999999999997272
 31
0.0
  0
LINE
  5
17B6
  8
240
 10
-88.989142803216055
 20
19.99999999999682
 30
0.0
 11
-88.610857196791585
 21
19.99999999999682
 31
0.0
  0
LINE
  5
17B7
  8
240
 10
-84.106730545870064
 20
19.999999999995449
 30
0.0
 11
-80.499999999997272
 21
19.999999999995449
 31
0.0
  0
LINE
  5
17B8
  8
241
 10
-86.612627514931773
 20
19.64781914828518
 30
0.0
 11
-86.612627514931773
 21
-0.0000000000077307
 31
0.0
  0
LINE
  5
17B9
  8
241
 10
-84.106730545857317
 20
19.999999999997272
 30
0.0
 11
-84.106730545856408
 21
-0.0000000000068212
 31
0.0
  0
LINE
  5
17BA
  8
240
 10
-90.000000000002728
 20
-19.136539030931999
 30
0.0
 11
-90.000000000003638
 21
-0.0000000000131877
 31
0.0
  0
ARC
  5
17BB
  8
240
 10
-88.80000000000382
 20
-18.815000000013239
 30
0.0
 40
1.1999999999999991
 50
210.00000000001029
 51
260.9312784530569
1001
GENIUS_GENOBJ-N-FIL_13
1002
{
1000
OWNER
1000
GEN
1002
}
1001
GENIUS_GENODEF_13
1002
{
1000
HIER
1070
     0
1002
}
1002
{
1000
MANEDIT
1070
     0
1002
}
1002
{
1000
NOSEL
1070
     0
1002
}
1002
{
1000
BEHIND
1070
     0
1002
}
1002
{
1000
OTHER
1070
     0
1002
}
1002
{
1000
REACTOR
1002
}
  0
LINE
  5
17BC
  8
240
 10
-89.839230484544714
 20
-19.415000000013151
 30
0.0
 11
-90.000000000002728
 21
-19.136539030931999
 31
0.0
  0
ARC
  5
17BD
  8
240
 10
-88.80000000000382
 20
-18.815000000013239
 30
0.0
 40
1.1999999999999991
 50
279.06872154694321
 51
280.00000000000392
1001
GENIUS_GENOBJ-N-FIL_13
1002
{
1000
OWNER
1000
GEN
1002
}
1001
GENIUS_GENODEF_13
1002
{
1000
HIER
1070
     0
1002
}
1002
{
1000
MANEDIT
1070
     0
1002
}
1002
{
1000
NOSEL
1070
     0
1002
}
1002
{
1000
BEHIND
1070
     0
1002
}
1002
{
1000
OTHER
1070
     0
1002
}
1002
{
1000
REACTOR
1002
}
  0
LINE
  5
17BE
  8
240
 10
-88.591622186803761
 20
-19.99676930362784
 30
0.0
 11
-86.612627514931773
 21
-19.647819148298371
 31
0.0
  0
LINE
  5
17BF
  8
240
 10
-86.612627514931773
 20
-19.647819148298371
 30
0.0
 11
-84.106730545857317
 21
-20.000000000010459
 31
0.0
  0
LINE
  5
17C0
  8
240
 10
-88.989142803216055
 20
-20.000000000010001
 30
0.0
 11
-88.610857196791585
 21
-20.000000000010001
 31
0.0
  0
LINE
  5
17C1
  8
240
 10
-84.106730545870064
 20
-20.00000000000864
 30
0.0
 11
-80.499999999997272
 21
-20.00000000000864
 31
0.0
  0
LINE
  5
17C2
  8
241
 10
-86.612627514931773
 20
-19.647819148298371
 30
0.0
 11
-86.612627514931773
 21
-0.000000000005457
 31
0.0
  0
LINE
  5
17C3
  8
241
 10
-84.106730545857317
 20
-20.000000000010459
 30
0.0
 11
-84.106730545856408
 21
-0.0000000000063665
 31
0.0
  0
LINE
  5
17C4
  8
240
 10
40.399999999994179
 20
24.499999999992269
 30
0.0
 11
41.199999999997686
 21
24.038119784638688
 31
0.0
  0
LINE
  5
17C5
  8
240
 10
42.0
 20
24.499999999992269
 30
0.0
 11
41.199999999997686
 21
24.038119784638688
 31
0.0
  0
LINE
  5
17C6
  8
240
 10
39.0
 20
24.499999999992269
 30
0.0
 11
38.199999999997686
 21
24.038119784638688
 31
0.0
  0
LINE
  5
17C7
  8
240
 10
37.399999999994179
 20
24.499999999992269
 30
0.0
 11
38.199999999997686
 21
24.038119784638688
 31
0.0
  0
LINE
  5
17C8
  8
240
 10
39.0
 20
24.499999999992269
 30
0.0
 11
40.399999999994179
 21
24.499999999992269
 31
0.0
  0
LINE
  5
17C9
  8
240
 10
40.399999999994179
 20
-24.499999999992731
 30
0.0
 11
41.199999999997686
 21
-24.038119784639139
 31
0.0
  0
LINE
  5
17CA
  8
240
 10
42.0
 20
-24.499999999992731
 30
0.0
 11
41.199999999997686
 21
-24.038119784639139
 31
0.0
  0
LINE
  5
17CB
  8
240
 10
39.0
 20
-24.499999999992731
 30
0.0
 11
38.199999999997686
 21
-24.038119784639139
 31
0.0
  0
LINE
  5
17CC
  8
240
 10
37.399999999994179
 20
-24.499999999992731
 30
0.0
 11
38.199999999997686
 21
-24.038119784639139
 31
0.0
  0
LINE
  5
17CD
  8
240
 10
39.0
 20
-24.499999999992731
 30
0.0
 11
40.399999999994179
 21
-24.499999999992731
 31
0.0
  0
ARC
  5
17CE
  8
240
 10
-45.19999999999709
 20
19.800000000014279
 30
0.0
 40
0.2
 50
0.0
 51
90.0
1001
GENIUS_GENODEF_13
1002
{
1000
HIER
1070
     0
1002
}
1002
{
1000
MANEDIT
1070
     0
1002
}
1002
{
1000
NOSEL
1070
     0
1002
}
1002
{
1000
BEHIND
1070
     0
1002
}
1002
{
1000
OTHER
1070
     0
1002
}
1002
{
1000
REACTOR
1002
}
1001
GENIUS_GENOBJ-N-FIL_13
1002
{
1000
OWNER
1000
GEN
1002
}
  0
ARC
  5
17CF
  8
240
 10
-42.300000000010193
 20
19.800000000014279
 30
0.0
 40
0.2
 50
90.0
 51
180.0
1001
GENIUS_GENOBJ-N-FIL_13
1002
{
1000
OWNER
1000
GEN
1002
}
1001
GENIUS_GENODEF_13
1002
{
1000
HIER
1070
     0
1002
}
1002
{
1000
MANEDIT
1070
     0
1002
}
1002
{
1000
NOSEL
1070
     0
1002
}
1002
{
1000
BEHIND
1070
     0
1002
}
1002
{
1000
OTHER
1070
     0
1002
}
1002
{
1000
REACTOR
1002
}
  0
LINE
  5
17D0
  8
241
 10
-42.500000000007269
 20
0.0000000000059117
 30
0.0
 11
-42.500000000007269
 21
19.800000000010641
 31
0.0
  0
LINE
  5
17D1
  8
241
 10
-45.000000000005457
 20
0.000000000005457
 30
0.0
 11
-45.000000000003638
 21
19.800000000010641
 31
0.0
  0
ARC
  5
17D2
  8
240
 10
-31.69999999999709
 20
19.800000000013821
 30
0.0
 40
0.2
 50
0.0
 51
90.0
1001
GENIUS_GENODEF_13
1002
{
1000
HIER
1070
     0
1002
}
1002
{
1000
MANEDIT
1070
     0
1002
}
1002
{
1000
NOSEL
1070
     0
1002
}
1002
{
1000
BEHIND
1070
     0
1002
}
1002
{
1000
OTHER
1070
     0
1002
}
1002
{
1000
REACTOR
1002
}
1001
GENIUS_GENOBJ-N-FIL_13
1002
{
1000
OWNER
1000
GEN
1002
}
  0
ARC
  5
17D3
  8
240
 10
-28.800000000010179
 20
19.800000000013821
 30
0.0
 40
0.2
 50
90.0
 51
180.0
1001
GENIUS_GENOBJ-N-FIL_13
1002
{
1000
OWNER
1000
GEN
1002
}
1001
GENIUS_GENODEF_13
1002
{
1000
HIER
1070
     0
1002
}
1002
{
1000
MANEDIT
1070
     0
1002
}
1002
{
1000
NOSEL
1070
     0
1002
}
1002
{
1000
BEHIND
1070
     0
1002
}
1002
{
1000
OTHER
1070
     0
1002
}
1002
{
1000
REACTOR
1002
}
  0
LINE
  5
17D4
  8
241
 10
-29.00000000000728
 20
0.000000000005457
 30
0.0
 11
-29.00000000000728
 21
19.800000000010179
 31
0.0
  0
LINE
  5
17D5
  8
241
 10
-31.500000000003642
 20
0.0000000000050022
 30
0.0
 11
-31.500000000003642
 21
19.800000000010179
 31
0.0
  0
ARC
  5
17D6
  8
240
 10
-45.19999999999709
 20
-19.800000000002449
 30
0.0
 40
0.2
 50
270.0
 51
0.0
1001
GENIUS_GENODEF_13
1002
{
1000
HIER
1070
     0
1002
}
1002
{
1000
MANEDIT
1070
     0
1002
}
1002
{
1000
NOSEL
1070
     0
1002
}
1002
{
1000
BEHIND
1070
     0
1002
}
1002
{
1000
OTHER
1070
     0
1002
}
1002
{
1000
REACTOR
1002
}
1001
GENIUS_GENOBJ-N-FIL_13
1002
{
1000
OWNER
1000
GEN
1002
}
  0
ARC
  5
17D7
  8
240
 10
-42.300000000010193
 20
-19.800000000002449
 30
0.0
 40
0.2
 50
180.0
 51
270.0
1001
GENIUS_GENOBJ-N-FIL_13
1002
{
1000
OWNER
1000
GEN
1002
}
1001
GENIUS_GENODEF_13
1002
{
1000
HIER
1070
     0
1002
}
1002
{
1000
MANEDIT
1070
     0
1002
}
1002
{
1000
NOSEL
1070
     0
1002
}
1002
{
1000
BEHIND
1070
     0
1002
}
1002
{
1000
OTHER
1070
     0
1002
}
1002
{
1000
REACTOR
1002
}
  0
LINE
  5
17D8
  8
241
 10
-42.500000000007269
 20
0.0000000000059117
 30
0.0
 11
-42.500000000007269
 21
-19.799999999998821
 31
0.0
  0
LINE
  5
17D9
  8
241
 10
-45.000000000005457
 20
0.0000000000063665
 30
0.0
 11
-45.000000000003638
 21
-19.799999999998821
 31
0.0
  0
ARC
  5
17DA
  8
240
 10
-31.69999999999709
 20
-19.800000000001539
 30
0.0
 40
0.2
 50
270.0
 51
0.0
1001
GENIUS_GENODEF_13
1002
{
1000
HIER
1070
     0
1002
}
1002
{
1000
MANEDIT
1070
     0
1002
}
1002
{
1000
NOSEL
1070
     0
1002
}
1002
{
1000
BEHIND
1070
     0
1002
}
1002
{
1000
OTHER
1070
     0
1002
}
1002
{
1000
REACTOR
1002
}
1001
GENIUS_GENOBJ-N-FIL_13
1002
{
1000
OWNER
1000
GEN
1002
}
  0
ARC
  5
17DB
  8
240
 10
-28.800000000010179
 20
-19.800000000001539
 30
0.0
 40
0.2
 50
180.0
 51
270.0
1001
GENIUS_GENOBJ-N-FIL_13
1002
{
1000
OWNER
1000
GEN
1002
}
1001
GENIUS_GENODEF_13
1002
{
1000
HIER
1070
     0
1002
}
1002
{
1000
MANEDIT
1070
     0
1002
}
1002
{
1000
NOSEL
1070
     0
1002
}
1002
{
1000
BEHIND
1070
     0
1002
}
1002
{
1000
OTHER
1070
     0
1002
}
1002
{
1000
REACTOR
1002
}
  0
LINE
  5
17DC
  8
241
 10
-29.00000000000728
 20
0.0000000000068212
 30
0.0
 11
-29.00000000000728
 21
-19.799999999997901
 31
0.0
  0
LINE
  5
17DD
  8
241
 10
-31.500000000003642
 20
0.000000000007276
 30
0.0
 11
-31.500000000003642
 21
-19.799999999997901
 31
0.0
  0
ARC
  5
17DE
  8
240
 10
-43.750000000003638
 20
17.742857142859791
 30
0.0
 40
2.4071428571493918
 50
58.715507085859173
 51
121.2844929141399
  0
ARC
  5
17DF
  8
240
 10
-30.24999999999709
 20
17.742857142863318
 30
0.0
 40
2.4071428571493918
 50
58.715507085859173
 51
121.2844929141399
  0
ARC
  5
17E0
  8
240
 10
-43.750000000010083
 20
-17.742857142840791
 30
0.0
 40
2.4071428571493918
 50
238.71550708583911
 51
301.28449291411982
  0
ARC
  5
17E1
  8
240
 10
-30.250000000003549
 20
-17.742857142849221
 30
0.0
 40
2.4071428571493918
 50
238.71550708583911
 51
301.28449291411982
  0
TEXT
  5
17E2
  8
247
 10
10.943454868234991
 20
-11.829082556739699
 30
0.0
 40
1.9999999999999949
  1
MGT36-M33-65
 50
90.0
  7
YOKO
  0
INSERT
  5
17E3
  8
247
  2
A$C187A1F95
 10
7.3018994380372533
 20
0.2666738499643397
 30
0.0
 41
0.7999999999999546
 42
0.8000000000001817
 43
0.8
  0
POINT
  5
17E4
  8
0
 10
-15034.813256165129
 20
9264.5895273247952
 30
0.0
1001
GENIUS_GENOLIS_13
1002
{
1000
ENT
1005
0
1005
0
1005
1747
1005
0
1002
}
1001
GENIUS_GENOENT_13
1002
{
1000
MYREF
1005
17E4
1002
}
1002
{
1000
GRP
1005
0
1002
}
1001
GENIUS_GENOBJ-N-CRS_13
1002
{
1000
OWNER
1000
GEN
1002
}
1001
GENIUS_GENODEF_13
1002
{
1000
HIER
1070
    10
1002
}
1002
{
1000
MANEDIT
1070
     1
1002
}
1002
{
1000
NOSEL
1070
     0
1002
}
1002
{
1000
BEHIND
1070
     0
1002
}
1002
{
1000
OTHER
1070
     0
1002
}
1002
{
1000
REACTOR
1002
}
  0
ENDBLK
  5
17E8
  8
0
  0
BLOCK
  8
0
  2
*U6
 70
     1
 10
0.0
 20
0.0
 30
0.0
  3
*U6
  1

  0
TEXT
  5
18DD
  8
250
 10
25.534714298565511
 20
-44.353950504816787
 30
0.0
 40
6.0
  1
o
 50
90.0
  0
TEXT
  5
18DE
  8
250
 10
25.534714298565511
 20
-37.211093361959648
 30
0.0
 40
6.0
  1
19
 50
90.0
  0
ENDBLK
  5
18E0
  8
0
  0
ENDSEC
  0
SECTION
  2
ENTITIES
  0
TEXT
  5
151B
  8
241
 10
-90.706710985126847
 20
65.31969731915234
 30
0.0
 40
7.5
  1
MGT36-M33-65
  7
YOKO
  0
LINE
  5
1702
  8
250
 10
0.0
 20
27.499999999983121
 30
0.0
 11
0.0000000000000014
 21
50.0
 31
0.0
  0
LINE
  5
1703
  8
250
 10
65.0
 20
23.999999999989509
 30
0.0
 11
65.0
 21
50.0
 31
0.0
  0
LINE
  5
1704
  8
250
 10
2.2300000000000009
 20
49.0
 30
0.0
 11
62.77000000000001
 21
49.0
 31
0.0
  0
LINE
  5
1709
  8
250
 10
64.500000000003638
 20
24.49999999998909
 30
0.0
 11
92.0
 21
24.499999999989079
 31
0.0
  0
LINE
  5
170A
  8
250
 10
64.5
 20
-24.49999999998909
 30
0.0
 11
92.0
 21
-24.49999999998909
 31
0.0
  0
LINE
  5
170B
  8
250
 10
91.0
 20
22.269999999989079
 30
0.0
 11
91.0
 21
-22.269999999989089
 31
0.0
  0
LINE
  5
170F
  8
250
 10
65.499999999998295
 20
12.5
 30
0.0
 11
78.0
 21
12.5
 31
0.0
  0
LINE
  5
1710
  8
250
 10
65.499999999998295
 20
-12.50000000000121
 30
0.0
 11
78.0
 21
-12.50000000000121
 31
0.0
  0
LINE
  5
1711
  8
250
 10
77.0
 20
10.269999999999991
 30
0.0
 11
77.0
 21
-10.270000000001209
 31
0.0
  0
LINE
  5
1717
  8
250
 10
26.534714298565522
 20
7.2699999999986362
 30
0.0
 11
26.534714298565522
 21
-7.270000000001362
 31
0.0
  0
LINE
  5
1718
  8
250
 10
26.534714298565511
 20
-44.782521933388232
 30
0.0
 11
26.534714298565522
 21
-9.5000000000013625
 31
0.0
  0
INSERT
  5
1719
  8
240
  2
*U6
 10
0.0
 20
0.0
 30
0.0
  0
TEXT
  5
171C
  8
250
 10
26.642857142857149
 20
50.0
 30
0.0
 40
6.0
  1
65
  0
LINE
  5
171D
  8
250
 10
62.77000000000001
 20
49.37166666666667
 30
0.0
 11
65.0
 21
49.0
 31
0.0
  0
LINE
  5
171E
  8
250
 10
62.77000000000001
 20
48.62833333333333
 30
0.0
 11
65.0
 21
49.0
 31
0.0
  0
LINE
  5
171F
  8
250
 10
65.0
 20
49.0
 30
0.0
 11
62.77000000000001
 21
49.0
 31
0.0
  0
LINE
  5
1720
  8
250
 10
2.2300000000000009
 20
48.62833333333333
 30
0.0
 11
0.0000000000000013
 21
49.0
 31
0.0
  0
LINE
  5
1721
  8
250
 10
2.2300000000000009
 20
49.37166666666667
 30
0.0
 11
0.0000000000000013
 21
49.0
 31
0.0
  0
LINE
  5
1722
  8
250
 10
0.0000000000000013
 20
49.0
 30
0.0
 11
2.2300000000000009
 21
49.0
 31
0.0
  0
TEXT
  5
1723
  8
250
 10
90.0
 20
-7.9999999999999893
 30
0.0
 40
6.0
  1
\U+220549
 50
90.0
  0
LINE
  5
1724
  8
250
 10
91.37166666666667
 20
-22.269999999989089
 30
0.0
 11
91.0
 21
-24.49999999998909
 31
0.0
  0
LINE
  5
1725
  8
250
 10
90.62833333333333
 20
-22.269999999989089
 30
0.0
 11
91.0
 21
-24.49999999998909
 31
0.0
  0
LINE
  5
1726
  8
250
 10
91.0
 20
-24.49999999998909
 30
0.0
 11
91.0
 21
-22.269999999989089
 31
0.0
  0
LINE
  5
1727
  8
250
 10
90.62833333333333
 20
22.269999999989079
 30
0.0
 11
91.0
 21
24.499999999989079
 31
0.0
  0
LINE
  5
1728
  8
250
 10
91.37166666666667
 20
22.269999999989079
 30
0.0
 11
91.0
 21
24.499999999989079
 31
0.0
  0
LINE
  5
1729
  8
250
 10
91.0
 20
24.499999999989079
 30
0.0
 11
91.0
 21
22.269999999989079
 31
0.0
  0
TEXT
  5
172A
  8
250
 10
76.0
 20
-6.6428571428557763
 30
0.0
 40
6.0
  1
\U+220525
 50
90.0
  0
LINE
  5
172B
  8
250
 10
77.371666666666655
 20
-10.270000000001209
 30
0.0
 11
77.0
 21
-12.50000000000121
 31
0.0
  0
LINE
  5
172C
  8
250
 10
76.62833333333333
 20
-10.270000000001209
 30
0.0
 11
77.0
 21
-12.50000000000121
 31
0.0
  0
LINE
  5
172D
  8
250
 10
77.0
 20
-12.50000000000121
 30
0.0
 11
77.0
 21
-10.270000000001209
 31
0.0
  0
LINE
  5
172E
  8
250
 10
76.62833333333333
 20
10.269999999999991
 30
0.0
 11
77.0
 21
12.5
 31
0.0
  0
LINE
  5
172F
  8
250
 10
77.371666666666655
 20
10.269999999999991
 30
0.0
 11
77.0
 21
12.5
 31
0.0
  0
LINE
  5
1730
  8
250
 10
77.0
 20
12.5
 30
0.0
 11
77.0
 21
10.269999999999991
 31
0.0
  0
LINE
  5
1731
  8
250
 10
26.906380965232181
 20
-7.270000000001362
 30
0.0
 11
26.534714298565522
 21
-9.5000000000013625
 31
0.0
  0
LINE
  5
1732
  8
250
 10
26.163047631898849
 20
-7.270000000001362
 30
0.0
 11
26.534714298565522
 21
-9.5000000000013625
 31
0.0
  0
LINE
  5
1733
  8
250
 10
26.534714298565522
 20
-9.5000000000013625
 30
0.0
 11
26.534714298565522
 21
-7.270000000001362
 31
0.0
  0
LINE
  5
1734
  8
250
 10
26.163047631898859
 20
7.2699999999986371
 30
0.0
 11
26.534714298565522
 21
9.4999999999986375
 31
0.0
  0
LINE
  5
1735
  8
250
 10
26.906380965232191
 20
7.2699999999986371
 30
0.0
 11
26.534714298565522
 21
9.4999999999986375
 31
0.0
  0
LINE
  5
1736
  8
250
 10
26.534714298565522
 20
9.4999999999986375
 30
0.0
 11
26.534714298565522
 21
7.2699999999986371
 31
0.0
  0
INSERT
  5
17EA
  8
240
  2
A$C67CC1FC6
 10
0.0
 20
0.0
 30
0.0
  0
VIEWPORT
  5
22
 67
     1
  8
0
 10
261.51769911504419
 20
148.5
 30
0.0
 40
523.0353982300885
 41
297.0
 68
     1
 69
     1
1001
ACAD
1000
MVIEW
1002
{
1070
    16
1010
0.0
1020
0.0
1030
0.0
1010
0.0
1020
0.0
1030
1.0
1040
0.0
1040
297.0
1040
261.51769911504419
1040
148.5
1040
50.0
1040
0.0
1040
0.0
1070
     0
1070
   100
1070
     1
1070
     1
1070
     0
1070
     0
1070
     0
1070
     0
1040
0.0
1040
0.0
1040
0.0
1040
1.0
1040
1.0
1040
10.0
1040
10.0
1070
     0
1002
{
1002
}
1002
}
1001
GENIUS_GENODEF_13
1002
{
1000
HIER
1070
     0
1002
}
1002
{
1000
MANEDIT
1070
     0
1002
}
1002
{
1000
NOSEL
1070
     0
1002
}
1002
{
1000
BEHIND
1070
     0
1002
}
1002
{
1000
OTHER
1070
     0
1002
}
1002
{
1000
REACTOR
1002
}
1001
GENIUS_GENOBJ-N-SDF_13
1002
{
1000
OWNER
1000
GEN
1002
}
1001
GENIUS_GENSCREG_15
1000
PF
1040
1.0
1000
DF
1040
1.0
1000
MIN
1011
0.0
1021
0.0
1031
0.0
1021
0.0
1031
0.0
1000
MAX
1011
523.0353982300885
1021
0.0
1031
0.0
1021
297.0
1031
0.0
1000
FLAGS
1070
     2
  0
ENDSEC
  0
EOF
