  0
SECTION
  2
HEADER
  9
$ACADVER
  1
AC1009
  9
$INSBASE
 10
0.0
 20
0.0
 30
0.0
  9
$EXTMIN
 10
-90.000000000002728
 20
-42.344351158271948
 30
0.0
  9
$EXTMAX
 10
92.0
 20
63.500000000000007
 30
0.0
  9
$LIMMIN
 10
0.0
 20
0.0
  9
$LIMMAX
 10
297.0
 20
210.0
  9
$ORTHOMODE
 70
     1
  9
$REGENMODE
 70
     1
  9
$FILLMODE
 70
     1
  9
$QTEXTMODE
 70
     0
  9
$MIRRTEXT
 70
     1
  9
$DRAGMODE
 70
     2
  9
$LTSCALE
 40
10.0
  9
$OSMODE
 70
  3071
  9
$ATTMODE
 70
     1
  9
$TEXTSIZE
 40
3.0
  9
$TRACEWID
 40
1.0
  9
$TEXTSTYLE
  7
YOKO
  9
$CLAYER
  8
240
  9
$CELTYPE
  6
BYLAYER
  9
$CECOLOR
 62
   256
  9
$DIMSCALE
 40
1.0
  9
$DIMASZ
 40
2.2299999999999991
  9
$DIMEXO
 40
0.5
  9
$DIMDLI
 40
7.0
  9
$DIMRND
 40
0.0
  9
$DIMDLE
 40
0.0
  9
$DIMEXE
 40
1.0
  9
$DIMTP
 40
0.0
  9
$DIMTM
 40
0.01
  9
$DIMTXT
 40
2.7999999999999989
  9
$DIMCEN
 40
0.0
  9
$DIMTSZ
 40
0.0
  9
$DIMTOL
 70
     0
  9
$DIMLIM
 70
     0
  9
$DIMTIH
 70
     0
  9
$DIMTOH
 70
     0
  9
$DIMSE1
 70
     0
  9
$DIMSE2
 70
     0
  9
$DIMTAD
 70
     3
  9
$DIMZIN
 70
     9
  9
$DIMBLK
  1
OPEN
  9
$DIMASO
 70
     1
  9
$DIMSHO
 70
     1
  9
$DIMPOST
  1

  9
$DIMAPOST
  1

  9
$DIMALT
 70
     0
  9
$DIMALTD
 70
     2
  9
$DIMALTF
 40
25.399999999999999
  9
$DIMLFAC
 40
1.0
  9
$DIMTOFL
 70
     1
  9
$DIMTVP
 40
0.0
  9
$DIMTIX
 70
     1
  9
$DIMSOXD
 70
     0
  9
$DIMSAH
 70
     0
  9
$DIMBLK1
  1

  9
$DIMBLK2
  1

  9
$DIMSTYLE
  2
BIGT
  9
$DIMCLRD
 70
   256
  9
$DIMCLRE
 70
   256
  9
$DIMCLRT
 70
    40
  9
$DIMTFAC
 40
1.0
  9
$DIMGAP
 40
1.0
  9
$LUNITS
 70
     2
  9
$LUPREC
 70
     3
  9
$SKETCHINC
 40
1.0
  9
$FILLETRAD
 40
0.0
  9
$AUNITS
 70
     0
  9
$AUPREC
 70
     3
  9
$MENU
  1
.
  9
$ELEVATION
 40
0.0
  9
$PELEVATION
 40
0.0
  9
$THICKNESS
 40
0.0
  9
$LIMCHECK
 70
     0
  9
$BLIPMODE
 70
     0
  9
$CHAMFERA
 40
0.25
  9
$CHAMFERB
 40
0.25
  9
$SKPOLY
 70
     0
  9
$TDCREATE
 40
2455799.6585420021
  9
$TDUPDATE
 40
2455799.6644786112
  9
$TDINDWG
 40
0.0058678935
  9
$TDUSRTIMER
 40
0.0058678935
  9
$USRTIMER
 70
     1
  9
$ANGBASE
 50
0.0
  9
$ANGDIR
 70
     0
  9
$PDMODE
 70
     1
  9
$PDSIZE
 40
0.0
  9
$PLINEWID
 40
0.0
  9
$COORDS
 70
     0
  9
$SPLFRAME
 70
     0
  9
$SPLINETYPE
 70
     6
  9
$SPLINESEGS
 70
     4
  9
$ATTDIA
 70
     1
  9
$ATTREQ
 70
     1
  9
$HANDLING
 70
     1
  9
$HANDSEED
  5
1B21
  9
$SURFTAB1
 70
     6
  9
$SURFTAB2
 70
     6
  9
$SURFTYPE
 70
     6
  9
$SURFU
 70
     6
  9
$SURFV
 70
     6
  9
$UCSNAME
  2

  9
$UCSORG
 10
0.0
 20
0.0
 30
0.0
  9
$UCSXDIR
 10
1.0
 20
0.0
 30
0.0
  9
$UCSYDIR
 10
0.0
 20
1.0
 30
0.0
  9
$PUCSNAME
  2

  9
$PUCSORG
 10
0.0
 20
0.0
 30
0.0
  9
$PUCSXDIR
 10
1.0
 20
0.0
 30
0.0
  9
$PUCSYDIR
 10
0.0
 20
1.0
 30
0.0
  9
$USERI1
 70
     1
  9
$USERI2
 70
     0
  9
$USERI3
 70
     0
  9
$USERI4
 70
     0
  9
$USERI5
 70
     0
  9
$USERR1
 40
0.0
  9
$USERR2
 40
0.0
  9
$USERR3
 40
0.0
  9
$USERR4
 40
0.0
  9
$USERR5
 40
0.0
  9
$WORLDVIEW
 70
     1
  9
$SHADEDGE
 70
     3
  9
$SHADEDIF
 70
    70
  9
$TILEMODE
 70
     1
  9
$MAXACTVP
 70
    16
  9
$PLIMCHECK
 70
     0
  9
$PEXTMIN
 10
1.0000000000000000E+020
 20
1.0000000000000000E+020
 30
1.0000000000000000E+020
  9
$PEXTMAX
 10
-1.0000000000000000E+020
 20
-1.0000000000000000E+020
 30
-1.0000000000000000E+020
  9
$PLIMMIN
 10
0.0
 20
0.0
  9
$PLIMMAX
 10
420.0
 20
297.0
  9
$UNITMODE
 70
     0
  9
$VISRETAIN
 70
     1
  9
$PLINEGEN
 70
     0
  9
$PSLTSCALE
 70
     1
  0
ENDSEC
  0
SECTION
  2
TABLES
  0
TABLE
  2
VPORT
 70
     3
  0
VPORT
  2
*ACTIVE
 70
     0
 10
0.0
 20
0.0
 11
1.0
 21
1.0
 12
-4.5941763313721822
 22
17.944971989681619
 13
0.0
 23
0.0
 14
7.0
 24
7.0
 15
7.0
 25
7.0
 16
0.0
 26
0.0
 36
1.0
 17
0.0
 27
0.0
 37
0.0
 40
132.59149704352609
 41
1.5857487922705309
 42
50.0
 43
0.0
 44
0.0
 50
0.0
 51
0.0
 71
     0
 72
  2000
 73
     1
 74
     0
 75
     0
 76
     0
 77
     0
 78
     0
  0
ENDTAB
  0
TABLE
  2
LTYPE
 70
    13
  0
LTYPE
  2
CONTINUOUS
 70
     0
  3
Solid line
 72
    65
 73
     0
 40
0.0
  0
LTYPE
  2
CENTER2
 70
     0
  3
___ _ ___ _ ___ _ ___ _ ___ _ ___ _ ___ _ ___ _
 72
    65
 73
     4
 40
1.125
 49
0.75
 49
-0.125
 49
0.125
 49
-0.125
  0
LTYPE
  2
HIDDEN2
 70
     0
  3
_ _ _ _ _ _ _ _ _ _ _ _ _ _ _ _ _ _ _ _ _ _ _ _
 72
    65
 73
     2
 40
0.1875
 49
0.125
 49
-0.0625
  0
LTYPE
  2
PHANTOM2
 70
     0
  3
___ _ _ ___ _ _ ___ _ _ ___ _ _ ___ _ _ ___ _ _
 72
    65
 73
     6
 40
1.25
 49
0.625
 49
-0.125
 49
0.125
 49
-0.125
 49
0.125
 49
-0.125
  0
LTYPE
  2
CENTER
 70
     0
  3
____ _ ____ _ ____ _ ____ _ ____ _ ____ _ ____ 
 72
    65
 73
     4
 40
2.0
 49
1.25
 49
-0.25
 49
0.25
 49
-0.25
  0
LTYPE
  2
AM_ISO02W050
 70
     0
  3
__ __ __ __ __ __ __ __ __ __ __ __ __ __ __
 72
    65
 73
     2
 40
7.5
 49
6.0
 49
-1.5
  0
LTYPE
  2
AMCONSTR
 70
     0
  3
_______________________
 72
    65
 73
     2
 40
9999.0
 49
9999.0
 49
0.0
  0
LTYPE
  2
ACISOWELD
 70
     0
  3
_ _ _ _ _
 72
    65
 73
     2
 40
2.0
 49
2.0
 49
-1.0
  0
LTYPE
  2
ACISOTGB
 70
     0
  3
__ . . __ . .
 72
    65
 73
     6
 40
9.0
 49
4.0
 49
-1.0
 49
1.0
 49
-1.0
 49
1.0
 49
-1.0
  0
LTYPE
  2
ACISOTGL
 70
     0
  3
_ _ _ _ _
 72
    65
 73
     2
 40
3.0
 49
2.0
 49
-1.0
  0
LTYPE
  2
ACJISTGB
 70
     0
  3
__ . . __ . .
 72
    65
 73
     6
 40
9.0
 49
4.0
 49
-1.0
 49
1.0
 49
-1.0
 49
1.0
 49
-1.0
  0
LTYPE
  2
ACJISTGL
 70
     0
  3
_ _ _ _ _
 72
    65
 73
     2
 40
3.0
 49
2.0
 49
-1.0
  0
LTYPE
  2
HIDDEN
 70
     0
  3
Hidden __ __ __ __ __ __ __ __ __ __ __ __ __ _
 72
    65
 73
     2
 40
9.5249999999999986
 49
6.3499999999999988
 49
-3.1749999999999989
  0
ENDTAB
  0
TABLE
  2
LAYER
 70
    10
  0
LAYER
  2
0
 70
     0
 62
     7
  6
CONTINUOUS
  0
LAYER
  2
DEFPOINTS
 70
     0
 62
     7
  6
CONTINUOUS
  0
LAYER
  2
245
 70
     0
 62
     2
  6
CENTER2
  0
LAYER
  2
240
 70
     0
 62
     4
  6
CONTINUOUS
  0
LAYER
  2
241
 70
     0
 62
   211
  6
CONTINUOUS
  0
LAYER
  2
242
 70
     0
 62
     3
  6
CONTINUOUS
  0
LAYER
  2
243
 70
     0
 62
   211
  6
HIDDEN2
  0
LAYER
  2
244
 70
     0
 62
     3
  6
HIDDEN2
  0
LAYER
  2
247
 70
     0
 62
    60
  6
CONTINUOUS
  0
LAYER
  2
250
 70
     0
 62
     3
  6
CONTINUOUS
  0
ENDTAB
  0
TABLE
  2
STYLE
 70
     6
  0
STYLE
  2
STANDARD
 70
     0
 40
0.0
 41
1.0
 50
0.0
 71
     0
 42
3.0
  3
romans.shx
  4
extfont.shx
  0
STYLE
  2
ACISOTS
 70
     0
 40
1.0
 41
1.0
 50
0.0
 71
     0
 42
3.0
  3
amgdt.shx
  4
extfont.shx
  0
STYLE
  2
ACISOGDT
 70
     0
 40
0.0
 41
1.0
 50
0.0
 71
     0
 42
3.0
  3
amgdt.shx
  4
extfont.shx
  0
STYLE
  2
ACJISTS
 70
     0
 40
1.0
 41
1.0
 50
0.0
 71
     0
 42
3.0
  3
amgdt.shx
  4
extfont.shx
  0
STYLE
  2
ACJISGDT
 70
     0
 40
0.0
 41
1.0
 50
0.0
 71
     0
 42
3.0
  3
amgdt.shx
  4
extfont.shx
  0
STYLE
  2
YOKO
 70
     0
 40
0.0
 41
1.0
 50
0.0
 71
     0
 42
3.0
  3
romans.shx
  4
extfont.shx
  0
ENDTAB
  0
TABLE
  2
VIEW
 70
     0
  0
ENDTAB
  0
TABLE
  2
UCS
 70
     0
  0
ENDTAB
  0
TABLE
  2
APPID
 70
    34
  0
APPID
  2
ACAD
 70
     0
  0
APPID
  2
GLOBAL
 70
     0
  0
APPID
  2
DETAIL
 70
     0
  0
APPID
  2
GRPNAME
 70
     0
  0
APPID
  2
GPARA
 70
     0
  0
APPID
  2
MCAD_NO_VIS
 70
     0
  0
APPID
  2
ACAD_TEMP_GRAPHIC
 70
     0
  0
APPID
  2
ACATTRIBSERVICES
 70
     0
  0
APPID
  2
GENIUS_GENSCREG_15
 70
     0
  0
APPID
  2
GENIUS_GENODEF_13
 70
     0
  0
APPID
  2
GENIUS_GENOBJ-N-SDF_13
 70
     0
  0
APPID
  2
GENIUS_GENREC_14
 70
     0
  0
APPID
  2
GENIUS_GENOBJ-N-REC_13
 70
     0
  0
APPID
  2
GENIUS_GENDIMSH_14
 70
     0
  0
APPID
  2
GENIUS_GENOBJ-N-DIM_13
 70
     0
  0
APPID
  2
GENIUS_GENDIM_13
 70
     0
  0
APPID
  2
GENIUS_GENDTOL_13
 70
     0
  0
APPID
  2
GENIUS_GENOLIS_13
 70
     0
  0
APPID
  2
GENIUS_GENOENT_13
 70
     0
  0
APPID
  2
GENIUS_GENOBJ-F-FEM_13
 70
     0
  0
APPID
  2
GENIUS_GENOREF_13
 70
     0
  0
APPID
  2
GENIUS_GEFFEM_13
 70
     0
  0
APPID
  2
GENIUS_GEFFEMP_13
 70
     0
  0
APPID
  2
AD_DRAW
 70
     0
  0
APPID
  2
DESIGNERASSEMBLIES
 70
     0
  0
APPID
  2
ACADM_DIM_EDIT
 70
     0
  0
APPID
  2
AMDT_DM_ADJ
 70
     0
  0
APPID
  2
GENIUS_GENOBJ-N-FIL_13
 70
     0
  0
APPID
  2
GENIUS_GENFIL_13
 70
     0
  0
APPID
  2
GENIUS_GENOBJ-N-CHA_13
 70
     0
  0
APPID
  2
GENIUS_GENOBJ-N-CRS_13
 70
     0
  0
APPID
  2
HATCH_TYPE
 70
     0
  0
APPID
  2
HATCH_DISPLAY
 70
     0
  0
APPID
  2
HATCH_DISTANCE
 70
     0
  0
ENDTAB
  0
TABLE
  2
DIMSTYLE
 70
    23
  0
DIMSTYLE
  2
BIGT
 70
     0
  3

  4

  5
OPEN
  6

  7

 40
1.0
 41
2.2299999999999991
 42
0.5
 43
7.0
 44
1.0
 45
0.0
 46
0.0
 47
0.0
 48
0.01
140
2.7999999999999989
141
0.0
142
0.0
143
25.399999999999999
144
1.0
145
0.0
146
1.0
147
1.0
 71
     0
 72
     0
 73
     0
 74
     0
 75
     0
 76
     0
 77
     3
 78
     9
170
     0
171
     2
172
     1
173
     0
174
     1
175
     0
176
   256
177
   256
178
    40
  0
DIMSTYLE
  2
AM_ISO
 70
     0
  3

  4
"
  5

  6

  7

 40
1.0
 41
2.5
 42
1.0
 43
10.0
 44
1.0
 45
0.0
 46
0.0
 47
0.1
 48
0.1
140
3.5
141
0.0
142
0.0
143
0.0393701
144
1.0
145
0.0
146
0.71
147
1.5
 71
     0
 72
     0
 73
     0
 74
     0
 75
     0
 76
     0
 77
     1
 78
     8
170
     0
171
     2
172
     1
173
     0
174
     0
175
     0
176
   256
177
   256
178
     2
  0
DIMSTYLE
  2
AM_ISO$3
 70
     0
  3

  4
"
  5

  6

  7

 40
1.0
 41
2.5
 42
1.0
 43
10.0
 44
1.0
 45
0.0
 46
0.0
 47
0.1
 48
0.1
140
3.5
141
0.0
142
0.0
143
0.0393701
144
1.0
145
0.0
146
0.71
147
1.5
 71
     0
 72
     0
 73
     0
 74
     1
 75
     0
 76
     0
 77
     1
 78
     8
170
     0
171
     2
172
     0
173
     0
174
     0
175
     0
176
   256
177
   256
178
     2
  0
DIMSTYLE
  2
AM_ISO$4
 70
     0
  3

  4
"
  5

  6

  7

 40
1.0
 41
2.5
 42
1.0
 43
10.0
 44
1.0
 45
0.0
 46
0.0
 47
0.1
 48
0.1
140
3.5
141
0.0
142
0.0
143
0.0393701
144
1.0
145
0.0
146
0.71
147
1.5
 71
     0
 72
     0
 73
     0
 74
     1
 75
     0
 76
     0
 77
     1
 78
     8
170
     0
171
     2
172
     0
173
     0
174
     0
175
     0
176
   256
177
   256
178
     2
  0
DIMSTYLE
  2
AM_ISO$6
 70
     0
  3

  4
"
  5

  6

  7

 40
1.0
 41
2.5
 42
1.0
 43
10.0
 44
1.0
 45
0.0
 46
0.0
 47
0.1
 48
0.1
140
3.5
141
0.0
142
0.0
143
0.0393701
144
1.0
145
0.0
146
0.71
147
1.5
 71
     0
 72
     0
 73
     0
 74
     0
 75
     0
 76
     0
 77
     0
 78
     8
170
     0
171
     2
172
     1
173
     0
174
     0
175
     0
176
   256
177
   256
178
     2
  0
DIMSTYLE
  2
AM_ISO$7
 70
     0
  3

  4
"
  5

  6

  7

 40
1.0
 41
2.5
 42
1.0
 43
10.0
 44
1.0
 45
0.0
 46
0.0
 47
0.1
 48
0.1
140
5.0
141
0.0
142
0.0
143
0.0393701
144
1.0
145
0.0
146
0.71
147
1.5
 71
     0
 72
     0
 73
     0
 74
     0
 75
     0
 76
     0
 77
     1
 78
     8
170
     0
171
     2
172
     1
173
     0
174
     0
175
     0
176
   256
177
   256
178
     2
  0
DIMSTYLE
  2
AM_ISO$SF
 70
     0
  3

  4
"
  5

  6

  7

 40
1.0
 41
2.5
 42
1.0
 43
10.0
 44
1.0
 45
0.0
 46
0.0
 47
0.1
 48
0.1
140
3.5
141
0.0
142
0.0
143
0.0393701
144
1.0
145
0.0
146
0.71
147
1.5
 71
     0
 72
     0
 73
     0
 74
     0
 75
     1
 76
     1
 77
     1
 78
     8
170
     0
171
     2
172
     1
173
     0
174
     0
175
     0
176
   256
177
   256
178
     2
  0
DIMSTYLE
  2
AM_ISO$SH
 70
     0
  3

  4
"
  5

  6
GENAXEH
  7

 40
1.0
 41
2.5
 42
1.0
 43
10.0
 44
1.0
 45
0.0
 46
0.0
 47
0.1
 48
0.1
140
3.5
141
0.0
142
0.0
143
0.0393701
144
2.0
145
0.0
146
0.71
147
1.5
 71
     0
 72
     0
 73
     0
 74
     0
 75
     1
 76
     1
 77
     1
 78
     8
170
     0
171
     2
172
     1
173
     1
174
     0
175
     0
176
   256
177
   256
178
     2
  0
DIMSTYLE
  2
BIGT$2
 70
     0
  3

  4

  5
OPEN
  6

  7

 40
1.0
 41
2.2299999999999991
 42
0.5
 43
7.0
 44
1.0
 45
0.0
 46
0.0
 47
0.0
 48
0.01
140
2.7999999999999989
141
0.0
142
0.0
143
25.399999999999999
144
1.0
145
0.0
146
1.0
147
1.0
 71
     0
 72
     0
 73
     0
 74
     0
 75
     0
 76
     0
 77
     3
 78
     9
170
     0
171
     2
172
     1
173
     0
174
     0
175
     0
176
   256
177
   256
178
    40
  0
DIMSTYLE
  2
BIGT$3
 70
     0
  3

  4

  5
OPEN
  6

  7

 40
1.0
 41
2.2299999999999991
 42
0.5
 43
2.5
 44
1.0
 45
0.0
 46
0.0
 47
0.0
 48
0.01
140
2.7999999999999989
141
0.0
142
0.0
143
25.399999999999999
144
1.0
145
0.0
146
1.0
147
1.0
 71
     0
 72
     0
 73
     0
 74
     0
 75
     0
 76
     0
 77
     3
 78
     9
170
     0
171
     2
172
     1
173
     0
174
     0
175
     0
176
   256
177
   256
178
    40
  0
DIMSTYLE
  2
BIGT$7
 70
     0
  3

  4

  5
OPEN
  6

  7

 40
0.0
 41
2.2299999999999991
 42
0.5
 43
7.0
 44
1.0
 45
0.0
 46
0.0
 47
0.0
 48
0.01
140
2.7999999999999989
141
0.0
142
0.0
143
25.399999999999999
144
1.0
145
0.0
146
1.0
147
1.0
 71
     0
 72
     0
 73
     0
 74
     0
 75
     0
 76
     0
 77
     3
 78
     9
170
     0
171
     2
172
     0
173
     0
174
     0
175
     0
176
   256
177
   256
178
    40
  0
DIMSTYLE
  2
BIGT$6
 70
     0
  3

  4

  5
OPEN
  6

  7

 40
1.0
 41
2.2299999999999991
 42
0.5
 43
2.5
 44
1.0
 45
0.0
 46
0.0
 47
0.0
 48
0.01
140
2.7999999999999989
141
0.0
142
0.0
143
25.399999999999999
144
1.0
145
0.0
146
1.0
147
1.0
 71
     0
 72
     0
 73
     0
 74
     0
 75
     0
 76
     0
 77
     3
 78
     9
170
     0
171
     2
172
     1
173
     0
174
     0
175
     0
176
   256
177
   256
178
    40
  0
DIMSTYLE
  2
BIGT$0
 70
     0
  3

  4

  5
OPEN
  6

  7

 40
1.0
 41
2.2299999999999991
 42
0.5
 43
7.0
 44
1.0
 45
0.0
 46
0.0
 47
0.0
 48
0.01
140
2.7999999999999989
141
0.0
142
0.0
143
25.399999999999999
144
1.0
145
0.0
146
1.0
147
1.0
 71
     0
 72
     0
 73
     0
 74
     0
 75
     0
 76
     0
 77
     3
 78
     9
170
     0
171
     2
172
     1
173
     0
174
     0
175
     0
176
   256
177
   256
178
    40
  0
DIMSTYLE
  2
BIGT$4
 70
     0
  3

  4

  5
OPEN
  6

  7

 40
1.0
 41
2.2299999999999991
 42
0.5
 43
2.5
 44
1.0
 45
0.0
 46
0.0
 47
0.0
 48
0.01
140
2.7999999999999989
141
0.0
142
0.0
143
25.399999999999999
144
1.0
145
0.0
146
1.0
147
1.0
 71
     0
 72
     0
 73
     0
 74
     0
 75
     0
 76
     0
 77
     3
 78
     9
170
     0
171
     2
172
     1
173
     0
174
     0
175
     0
176
   256
177
   256
178
    40
  0
DIMSTYLE
  2
BIGT$SH
 70
     0
  3

  4

  5
OPEN
  6

  7

 40
1.0
 41
2.2299999999999991
 42
0.5
 43
7.0
 44
1.0
 45
0.0
 46
0.0
 47
0.0
 48
0.0
140
2.7999999999999989
141
0.0
142
0.0
143
25.399999999999999
144
1.0
145
0.0
146
1.0
147
1.0
 71
     0
 72
     0
 73
     0
 74
     0
 75
     0
 76
     0
 77
     3
 78
     9
170
     0
171
     2
172
     1
173
     0
174
     0
175
     0
176
   256
177
   256
178
    40
  0
DIMSTYLE
  2
BIGT$SF
 70
     0
  3

  4

  5
OPEN
  6

  7

 40
1.0
 41
2.2299999999999991
 42
0.5
 43
7.0
 44
1.0
 45
0.0
 46
0.0
 47
0.0
 48
0.0
140
2.7999999999999989
141
0.0
142
0.0
143
25.399999999999999
144
1.0
145
0.0
146
1.0
147
1.0
 71
     0
 72
     0
 73
     0
 74
     0
 75
     0
 76
     0
 77
     3
 78
     9
170
     0
171
     2
172
     1
173
     0
174
     0
175
     0
176
   256
177
   256
178
    40
  0
DIMSTYLE
  2
TECHNICAL_OSAKA
 70
     0
  3

  4
"
  5
OPEN30
  6

  7

 40
1.0
 41
2.5
 42
1.0
 43
10.0
 44
1.0
 45
0.0
 46
0.0
 47
0.1
 48
0.1
140
2.7999999999999989
141
0.0
142
0.0
143
0.0393701
144
1.0
145
0.0
146
0.71
147
1.5
 71
     0
 72
     0
 73
     0
 74
     0
 75
     0
 76
     0
 77
     3
 78
     8
170
     0
171
     2
172
     1
173
     0
174
     0
175
     0
176
   256
177
   256
178
    40
  0
DIMSTYLE
  2
TECHNICAL_OSAKA$3
 70
     0
  3

  4
"
  5
OPEN30
  6

  7

 40
1.0
 41
2.5
 42
1.0
 43
10.0
 44
1.0
 45
0.0
 46
0.0
 47
0.1
 48
0.1
140
2.7999999999999989
141
0.0
142
0.0
143
0.0393701
144
1.0
145
0.0
146
0.71
147
1.5
 71
     0
 72
     0
 73
     0
 74
     1
 75
     0
 76
     0
 77
     3
 78
     8
170
     0
171
     2
172
     0
173
     0
174
     0
175
     0
176
   256
177
   256
178
    40
  0
DIMSTYLE
  2
TECHNICAL_OSAKA$4
 70
     0
  3

  4
"
  5
OPEN30
  6

  7

 40
1.0
 41
2.5
 42
1.0
 43
10.0
 44
1.0
 45
0.0
 46
0.0
 47
0.1
 48
0.1
140
2.7999999999999989
141
0.0
142
0.0
143
0.0393701
144
1.0
145
0.0
146
0.71
147
1.5
 71
     0
 72
     0
 73
     0
 74
     1
 75
     0
 76
     0
 77
     3
 78
     8
170
     0
171
     2
172
     0
173
     0
174
     0
175
     0
176
   256
177
   256
178
    40
  0
DIMSTYLE
  2
TECHNICAL_OSAKA$6
 70
     0
  3

  4
"
  5
OPEN30
  6

  7

 40
1.0
 41
2.5
 42
1.0
 43
10.0
 44
1.0
 45
0.0
 46
0.0
 47
0.1
 48
0.1
140
2.7999999999999989
141
0.0
142
0.0
143
0.0393701
144
1.0
145
0.0
146
0.71
147
1.5
 71
     0
 72
     0
 73
     0
 74
     0
 75
     0
 76
     0
 77
     0
 78
     8
170
     0
171
     2
172
     1
173
     0
174
     0
175
     0
176
   256
177
   256
178
    40
  0
DIMSTYLE
  2
TECHNICAL_OSAKA$7
 70
     0
  3

  4
"
  5
OPEN30
  6

  7

 40
1.0
 41
2.5
 42
1.0
 43
10.0
 44
1.0
 45
0.0
 46
0.0
 47
0.1
 48
0.1
140
2.7999999999999989
141
0.0
142
0.0
143
0.0393701
144
1.0
145
0.0
146
0.71
147
1.5
 71
     0
 72
     0
 73
     0
 74
     0
 75
     0
 76
     0
 77
     3
 78
     8
170
     0
171
     2
172
     1
173
     0
174
     0
175
     0
176
   256
177
   256
178
    40
  0
DIMSTYLE
  2
TECHNICAL_OSAKA$SF
 70
     0
  3

  4
"
  5
OPEN30
  6
OPEN30
  7
OPEN30
 40
1.0
 41
2.5
 42
1.0
 43
10.0
 44
1.0
 45
0.0
 46
0.0
 47
0.1
 48
0.1
140
3.5
141
0.0
142
0.0
143
0.0393701
144
1.0
145
0.0
146
0.71
147
1.5
 71
     0
 72
     0
 73
     0
 74
     0
 75
     1
 76
     1
 77
     3
 78
     8
170
     0
171
     2
172
     1
173
     0
174
     0
175
     0
176
   256
177
   256
178
    40
  0
DIMSTYLE
  2
TECHNICAL_OSAKA$SH
 70
     0
  3

  4
"
  5
OPEN30
  6
GENAXEH
  7
OPEN30
 40
1.0
 41
2.5
 42
1.0
 43
10.0
 44
1.0
 45
0.0
 46
0.0
 47
0.1
 48
0.1
140
3.5
141
0.0
142
0.0
143
0.0393701
144
2.0
145
0.0
146
0.71
147
1.5
 71
     0
 72
     0
 73
     0
 74
     0
 75
     1
 76
     1
 77
     3
 78
     8
170
     0
171
     2
172
     1
173
     1
174
     0
175
     0
176
   256
177
   256
178
    40
  0
ENDTAB
  0
ENDSEC
  0
SECTION
  2
BLOCKS
  0
BLOCK
  8
0
  2
$MODEL_SPACE
 70
     0
 10
0.0
 20
0.0
 30
0.0
  3
$MODEL_SPACE
  1

  0
ENDBLK
  5
1C
  8
0
  0
BLOCK
 67
     1
  8
0
  2
$PAPER_SPACE
 70
     0
 10
0.0
 20
0.0
 30
0.0
  3
$PAPER_SPACE
  1

  0
ENDBLK
  5
19
 67
     1
  8
0
  0
BLOCK
  8
0
  2
_OPEN
 70
     0
 10
0.0
 20
0.0
 30
0.0
  3
_OPEN
  1

  0
LINE
  5
18A6
  8
0
  6
BYBLOCK
 62
     0
 10
-1.0
 20
0.1666666666666666
 30
0.0
 11
0.0
 21
0.0
 31
0.0
  0
LINE
  5
18A7
  8
0
  6
BYBLOCK
 62
     0
 10
-1.0
 20
-0.1666666666666666
 30
0.0
 11
0.0
 21
0.0
 31
0.0
  0
LINE
  5
18A8
  8
0
  6
BYBLOCK
 62
     0
 10
0.0
 20
0.0
 30
0.0
 11
-1.0
 21
0.0
 31
0.0
  0
ENDBLK
  5
18A9
  8
0
  0
BLOCK
  8
0
  2
GENAXEH
 70
     0
 10
0.0
 20
0.0
 30
0.0
  3
GENAXEH
  1

  0
LINE
  5
18D1
  8
0
 10
-1.0
 20
0.0
 30
0.0
 11
1.0
 21
0.0
 31
0.0
  0
ENDBLK
  5
18D2
  8
0
  0
BLOCK
  8
0
  2
_OPEN30
 70
     0
 10
0.0
 20
0.0
 30
0.0
  3
_OPEN30
  1

  0
LINE
  5
18F6
  8
0
  6
BYBLOCK
 62
     0
 10
-1.0
 20
0.26794919
 30
0.0
 11
0.0
 21
0.0
 31
0.0
  0
LINE
  5
18F7
  8
0
  6
BYBLOCK
 62
     0
 10
0.0
 20
0.0
 30
0.0
 11
-1.0
 21
-0.26794919
 31
0.0
  0
LINE
  5
18F8
  8
0
  6
BYBLOCK
 62
     0
 10
0.0
 20
0.0
 30
0.0
 11
-1.0
 21
0.0
 31
0.0
  0
ENDBLK
  5
18F9
  8
0
  0
BLOCK
  8
0
  2
A$C187A1F95
 70
     0
 10
0.0
 20
0.0
 30
0.0
  3
A$C187A1F95
  1

  0
LINE
  5
1679
  8
247
 10
-1.977322221090559
 20
-4.6206927367445578
 30
0.0
 11
-3.13535869020876
 21
-3.462656267626357
 31
0.0
  0
LINE
  5
167A
  8
247
 10
-1.5930681041632491
 20
-4.6681872491318464
 30
0.0
 11
-1.945934160116449
 21
-4.3153211931786473
 31
0.0
  0
LINE
  5
167B
  8
247
 10
-2.8299871466427922
 20
-3.4312682066522471
 30
0.0
 11
-3.182853202595993
 21
-3.0784021506990462
 31
0.0
  0
LINE
  5
167C
  8
247
 10
-1.285909228951936
 20
-4.6385865198030842
 30
0.0
 11
-1.5598263861990631
 21
-4.3646693625558992
 31
0.0
  0
LINE
  5
167D
  8
247
 10
-2.8797229450412938
 20
-3.0447728037137249
 30
0.0
 11
-3.1828540485569188
 21
-2.7416417001980999
 31
0.0
  0
LINE
  5
167E
  8
247
 10
-1.024104307719085
 20
-4.5636318364957971
 30
0.0
 11
-1.264778152703399
 21
-4.32295799151143
 31
0.0
  0
LINE
  5
167F
  8
247
 10
-2.8797229450412938
 20
-2.7080131991735881
 30
0.0
 11
-3.1185360242286571
 21
-2.4692001199862261
 31
0.0
  0
LINE
  5
1680
  8
247
 10
-0.7958947460217019
 20
-4.4550817936531057
 30
0.0
 11
-1.019720746314817
 21
-4.231255793359991
 31
0.0
  0
LINE
  5
1681
  8
247
 10
-0.5958766478120765
 20
-4.318340287322596
 30
0.0
 11
-0.8118227762631136
 21
-4.1023941588715607
 31
0.0
  0
LINE
  5
1682
  8
247
 10
-0.4216677276632482
 20
-4.155789602931347
 30
0.0
 11
-0.6362292780136727
 21
-3.9412280525809811
 31
0.0
  0
LINE
  5
1683
  8
247
 10
-0.2728593971191913
 20
-3.967838328935386
 30
0.0
 11
-0.4921504254615459
 21
-3.7485473005929171
 31
0.0
  0
LINE
  5
1684
  8
247
 10
-0.1508597531703799
 20
-3.7530783683440632
 30
0.0
 11
-0.3823598840220939
 21
-3.5215782374923461
 31
0.0
  0
LINE
  5
1685
  8
247
 10
-0.0594621020085242
 20
-3.5077164149657829
 30
0.0
 11
-0.3151142378612803
 21
-3.2520642791130281
 31
0.0
  0
LINE
  5
1686
  8
247
 10
-0.0067916597444082
 20
-3.2236272526898802
 30
0.0
 11
-0.3031310957142068
 21
-2.9272878167200811
 31
0.0
  0
LINE
  5
1687
  8
247
 10
0.0
 20
-2.8936593078941528
 30
0.0
 11
-0.3031310957142068
 21
-2.5905282121799429
 31
0.0
  0
LINE
  5
1688
  8
247
 10
0.0
 20
-2.5568997033540191
 30
0.0
 11
-0.3031310957142068
 21
-2.2537686076398131
 31
0.0
  0
LINE
  5
1689
  8
247
 10
0.0
 20
-2.2201400988139981
 30
0.0
 11
-0.3031310957142068
 21
-1.917009003099678
 31
0.0
  0
LINE
  5
168A
  8
247
 10
0.0
 20
-1.883380494273865
 30
0.0
 11
-0.3031310957142068
 21
-1.580249398559658
 31
0.0
  0
LINE
  5
168B
  8
247
 10
0.0
 20
-1.546620889733729
 30
0.0
 11
-0.3031310957142068
 21
-1.243489794019524
 31
0.0
  0
LINE
  5
168C
  8
247
 10
0.0
 20
-1.2098612851937101
 30
0.0
 11
-0.3031310957142068
 21
-0.9067301894795035
 31
0.0
  0
LINE
  5
168D
  8
247
 10
0.0
 20
-0.8731016806535761
 30
0.0
 11
-0.3031310957142068
 21
-0.5699705849393695
 31
0.0
  0
LINE
  5
168E
  8
247
 10
0.0
 20
-0.5363420761134421
 30
0.0
 11
-0.3031310957142068
 21
-0.2332109803992353
 31
0.0
  0
LINE
  5
168F
  8
247
 10
0.0
 20
-0.1995824715734216
 30
0.0
 11
-0.3031310957142068
 21
0.1035486241407852
 31
0.0
  0
LINE
  5
1690
  8
247
 10
-2.932855779871657
 20
2.7332733082982941
 30
0.0
 11
-3.1799308926475169
 21
2.980348421074154
 31
0.0
  0
LINE
  5
1691
  8
247
 10
0.0
 20
0.1371771329667126
 30
0.0
 11
-0.3031310957142068
 21
0.4403082286809197
 31
0.0
  0
LINE
  5
1692
  8
247
 10
-2.8782627028439829
 20
3.0154398358106378
 30
0.0
 11
-3.1665816475214679
 21
3.303758780488236
 31
0.0
  0
LINE
  5
1693
  8
247
 10
0.0
 20
0.4739367375067334
 30
0.0
 11
-0.3031310957142068
 21
0.77706783322094
 31
0.0
  0
LINE
  5
1694
  8
247
 10
-2.8548341321414328
 20
3.3287708696482201
 30
0.0
 11
-3.1024062022968319
 21
3.5763429398036801
 31
0.0
  0
LINE
  5
1695
  8
247
 10
0.0
 20
0.8106963420468671
 30
0.0
 11
-0.3031310957142068
 21
1.1138274377610731
 31
0.0
  0
LINE
  5
1696
  8
247
 10
-2.7749546287429299
 20
3.5856509707898558
 30
0.0
 11
-3.0023082063022448
 21
3.8130045483491131
 31
0.0
  0
LINE
  5
1697
  8
247
 10
0.0
 20
1.147455946587
 30
0.0
 11
-0.3031310957142068
 21
1.4505870423012079
 31
0.0
  0
LINE
  5
1698
  8
247
 10
-2.6555268837903441
 20
3.8029828303773452
 30
0.0
 11
-2.8729215537842938
 21
4.0203775003712963
 31
0.0
  0
LINE
  5
1699
  8
247
 10
0.0
 20
1.484215551127021
 30
0.0
 11
-0.3031310957142068
 21
1.7873466468413399
 31
0.0
  0
LINE
  5
169A
  8
247
 10
-2.502948933296635
 20
3.9871644844237131
 30
0.0
 11
-2.7172950248791481
 21
4.2015105760061706
 31
0.0
  0
LINE
  5
169B
  8
247
 10
0.0
 20
1.8209751556671561
 30
0.0
 11
-0.3031310957142068
 21
2.1241062513813631
 31
0.0
  0
LINE
  5
169C
  8
247
 10
-2.3189776436271901
 20
4.1399527992944041
 30
0.0
 11
-2.5363312151759478
 21
4.3573063708431601
 31
0.0
  0
LINE
  5
169D
  8
247
 10
0.0
 20
2.15773476020729
 30
0.0
 11
-0.3031310957142068
 21
2.4608658559214951
 31
0.0
  0
LINE
  5
169E
  8
247
 10
-2.101880422311011
 20
4.259615182518246
 30
0.0
 11
-2.3291397943701782
 21
4.4868745545774109
 31
0.0
  0
LINE
  5
169F
  8
247
 10
0.0
 20
2.494494364747311
 30
0.0
 11
-0.3031310957142068
 21
2.7976254604615161
 31
0.0
  0
LINE
  5
16A0
  8
247
 10
-1.845300616400209
 20
4.33979498114752
 30
0.0
 11
-2.0926892600573961
 21
4.5871836248047622
 31
0.0
  0
LINE
  5
16A1
  8
247
 10
0.0
 20
2.831253969287443
 30
0.0
 11
-0.3044820142378626
 21
3.1357359835252501
 31
0.0
  0
LINE
  5
16A2
  8
247
 10
-1.5324524613939161
 20
4.3637064306814182
 30
0.0
 11
-1.8203788736346951
 21
4.6516328429221359
 31
0.0
  0
LINE
  5
16A3
  8
247
 10
-0.0027808648878249
 20
3.1707944387153462
 30
0.0
 11
-0.4008019269780334
 21
3.5688155008056111
 31
0.0
  0
LINE
  5
16A4
  8
247
 10
-1.0993729441136111
 20
4.2673865179411861
 30
0.0
 11
-1.4973940062038731
 21
4.6654075800313421
 31
0.0
  0
LINE
  5
16A5
  8
247
 10
-0.0849319226709895
 20
3.5897051010385872
 30
0.0
 11
-1.0784833438805741
 21
4.5832565222482327
 31
0.0
  0
LINE
  5
16A6
  8
247
 10
-3.151530330666048
 20
-0.078888581768183
 30
0.0
 11
-3.1828540485569188
 21
-0.0475648638773691
 31
0.0
  0
LINE
  5
16A7
  8
247
 10
-2.8341326316891
 20
-0.0595266762051097
 30
0.0
 11
-3.1828540485569188
 21
0.2891947406627651
 31
0.0
  0
LINE
  5
16A8
  8
247
 10
-2.3619864480280031
 20
-0.1949132553260142
 30
0.0
 11
-3.1828540485569188
 21
0.6259543452028993
 31
0.0
  0
LINE
  5
16A9
  8
247
 10
-1.889840264366909
 20
-0.3302998344470325
 30
0.0
 11
-2.8403967590846828
 21
0.6202566602706841
 31
0.0
  0
LINE
  5
16AA
  8
247
 10
-1.417694080705814
 20
-0.465686413568051
 30
0.0
 11
-2.368252423011425
 21
0.4848719287375616
 31
0.0
  0
LINE
  5
16AB
  8
247
 10
-0.9455478970447755
 20
-0.601072992689069
 30
0.0
 11
-1.896108086938225
 21
0.3494871972044393
 31
0.0
  0
LINE
  5
16AC
  8
247
 10
-0.4734017133836801
 20
-0.7364595718099736
 30
0.0
 11
-1.4239637508649701
 21
0.2141024656713171
 31
0.0
  0
LINE
  5
16AD
  8
247
 10
-0.4546966474720194
 20
-0.418405033181557
 30
0.0
 11
-0.9518194147917714
 21
0.0787177341381948
 31
0.0
  0
LINE
  5
16AE
  8
247
 10
-0.4546966474720194
 20
-0.0816454286414228
 30
0.0
 11
-0.4796750787185148
 21
-0.0566669973949274
 31
0.0
  0
LINE
  5
16AF
  8
247
 10
-3.1828540485569188
 20
0.7184543609619141
 30
0.0
 11
-3.1828540485569188
 21
-0.0699062347412109
 31
0.0
  0
LINE
  5
16B0
  8
247
 10
-0.4546966474720194
 20
-0.0638294219970703
 30
0.0
 11
-3.1828540485569188
 21
0.7184543609619141
 31
0.0
  0
LINE
  5
16B1
  8
247
 10
-0.4546966474720194
 20
-0.7418231964111329
 30
0.0
 11
-0.4546966474720194
 21
-0.0638294219970703
 31
0.0
  0
LINE
  5
16B2
  8
247
 10
-2.8494189899631688
 20
-0.0551433563232422
 30
0.0
 11
-0.4546966474720194
 21
-0.7418231964111329
 31
0.0
  0
LINE
  5
16B3
  8
247
 10
-2.8494189899631688
 20
-0.1655216217041016
 30
0.0
 11
-2.8494189899631688
 21
-0.0551433563232422
 31
0.0
  0
LINE
  5
16B4
  8
247
 10
-3.1828540485569188
 20
-0.0699062347412109
 30
0.0
 11
-2.8494189899631688
 21
-0.1655216217041016
 31
0.0
  0
LINE
  5
16B5
  8
247
 10
-3.1828540485569188
 20
0.7184543609619141
 30
0.0
 11
-3.1828540485569188
 21
-0.0699062347412109
 31
0.0
1001
HATCH_DISTANCE
1040
1.0
1001
HATCH_DISPLAY
1070
     0
1001
HATCH_TYPE
1070
     7
  0
LINE
  5
16B6
  8
247
 10
-0.4546966474720194
 20
-0.0638294219970703
 30
0.0
 11
-3.1828540485569188
 21
0.7184543609619141
 31
0.0
1001
HATCH_DISTANCE
1040
1.0
1001
HATCH_DISPLAY
1070
     0
1001
HATCH_TYPE
1070
     7
  0
LINE
  5
16B7
  8
247
 10
-0.4546966474720194
 20
-0.7418231964111329
 30
0.0
 11
-0.4546966474720194
 21
-0.0638294219970703
 31
0.0
1001
HATCH_DISTANCE
1040
1.0
1001
HATCH_DISPLAY
1070
     0
1001
HATCH_TYPE
1070
     7
  0
LINE
  5
16B8
  8
247
 10
-2.8494189899631688
 20
-0.0551433563232422
 30
0.0
 11
-0.4546966474720194
 21
-0.7418231964111329
 31
0.0
1001
HATCH_DISTANCE
1040
1.0
1001
HATCH_DISPLAY
1070
     0
1001
HATCH_TYPE
1070
     7
  0
LINE
  5
16B9
  8
247
 10
-2.8494189899631688
 20
-0.1655216217041016
 30
0.0
 11
-2.8494189899631688
 21
-0.0551433563232422
 31
0.0
1001
HATCH_DISTANCE
1040
1.0
1001
HATCH_DISPLAY
1070
     0
1001
HATCH_TYPE
1070
     7
  0
LINE
  5
16BA
  8
247
 10
-3.1828540485569188
 20
-0.0699062347412109
 30
0.0
 11
-2.8494189899631688
 21
-0.1655216217041016
 31
0.0
1001
HATCH_DISTANCE
1040
1.0
1001
HATCH_DISPLAY
1070
     0
1001
HATCH_TYPE
1070
     7
  0
LINE
  5
16BB
  8
247
 10
-2.8407672565647308
 20
2.7623119354248038
 30
0.0
 11
-2.8407672565647308
 21
2.7623119354248038
 31
0.0
  0
LINE
  5
16BC
  8
247
 10
-3.1302684467502782
 20
2.671022415161127
 30
0.0
 11
-2.8407672565647308
 21
2.7623119354248038
 31
0.0
  0
LINE
  5
16BD
  8
247
 10
-3.1302684467502782
 20
2.671022415161127
 30
0.0
 11
-3.1302684467502782
 21
2.671022415161127
 31
0.0
  0
LINE
  5
16BE
  8
247
 10
-2.8407672565647308
 20
2.7623119354248038
 30
0.0
 11
-3.1302684467502782
 21
2.671022415161127
 31
0.0
  0
LINE
  5
16BF
  8
247
 10
-2.8407672565647308
 20
2.7623119354248038
 30
0.0
 11
-2.8407672565647308
 21
2.7623119354248038
 31
0.0
1001
HATCH_DISTANCE
1040
1.0
1001
HATCH_DISPLAY
1070
     0
1001
HATCH_TYPE
1070
     7
  0
LINE
  5
16C0
  8
247
 10
-3.1302684467502782
 20
2.671022415161127
 30
0.0
 11
-2.8407672565647308
 21
2.7623119354248038
 31
0.0
1001
HATCH_DISTANCE
1040
1.0
1001
HATCH_DISPLAY
1070
     0
1001
HATCH_TYPE
1070
     7
  0
LINE
  5
16C1
  8
247
 10
-3.1302684467502782
 20
2.671022415161127
 30
0.0
 11
-3.1302684467502782
 21
2.671022415161127
 31
0.0
1001
HATCH_DISTANCE
1040
1.0
1001
HATCH_DISPLAY
1070
     0
1001
HATCH_TYPE
1070
     7
  0
LINE
  5
16C2
  8
247
 10
-2.8407672565647308
 20
2.7623119354248038
 30
0.0
 11
-3.1302684467502782
 21
2.671022415161127
 31
0.0
1001
HATCH_DISTANCE
1040
1.0
1001
HATCH_DISPLAY
1070
     0
1001
HATCH_TYPE
1070
     7
  0
LINE
  5
16C3
  8
247
 10
-2.8407672565647308
 20
2.7623119354248038
 30
0.0
 11
-2.8407672565647308
 21
2.7623119354248038
 31
0.0
  0
LINE
  5
16C4
  8
247
 10
-3.1302684467502782
 20
2.671022415161127
 30
0.0
 11
-2.8407672565647308
 21
2.7623119354248038
 31
0.0
  0
LINE
  5
16C5
  8
247
 10
-3.1302684467502782
 20
2.671022415161127
 30
0.0
 11
-3.1302684467502782
 21
2.671022415161127
 31
0.0
  0
LINE
  5
16C6
  8
247
 10
-2.8407672565647308
 20
2.7623119354248038
 30
0.0
 11
-3.1302684467502782
 21
2.671022415161127
 31
0.0
  0
LINE
  5
16C7
  8
247
 10
-2.8407672565647308
 20
2.7623119354248038
 30
0.0
 11
-2.8407672565647308
 21
2.7623119354248038
 31
0.0
1001
HATCH_DISTANCE
1040
1.0
1001
HATCH_DISPLAY
1070
     0
1001
HATCH_TYPE
1070
     7
  0
LINE
  5
16C8
  8
247
 10
-3.1302684467502782
 20
2.671022415161127
 30
0.0
 11
-2.8407672565647308
 21
2.7623119354248038
 31
0.0
1001
HATCH_DISTANCE
1040
1.0
1001
HATCH_DISPLAY
1070
     0
1001
HATCH_TYPE
1070
     7
  0
LINE
  5
16C9
  8
247
 10
-3.1302684467502782
 20
2.671022415161127
 30
0.0
 11
-3.1302684467502782
 21
2.671022415161127
 31
0.0
1001
HATCH_DISTANCE
1040
1.0
1001
HATCH_DISPLAY
1070
     0
1001
HATCH_TYPE
1070
     7
  0
LINE
  5
16CA
  8
247
 10
-2.8407672565647308
 20
2.7623119354248038
 30
0.0
 11
-3.1302684467502782
 21
2.671022415161127
 31
0.0
1001
HATCH_DISTANCE
1040
1.0
1001
HATCH_DISPLAY
1070
     0
1001
HATCH_TYPE
1070
     7
  0
LINE
  5
16CB
  8
247
 10
-2.233334179820019
 20
0.6867132900862316
 30
0.0
 11
-3.178021331903266
 21
1.6314004421694741
 31
0.0
  0
LINE
  5
16CC
  8
247
 10
-1.7847728039110951
 20
0.5749115187173857
 30
0.0
 11
-3.158118533680748
 21
1.948257248487036
 31
0.0
  0
LINE
  5
16CD
  8
247
 10
-1.4002961071881821
 20
0.5271944265346065
 30
0.0
 11
-2.388705980804501
 21
1.5156043001509261
 31
0.0
  0
LINE
  5
16CE
  8
247
 10
-2.8394947940194011
 20
1.966393113365823
 30
0.0
 11
-3.0664772985541018
 21
2.1933756179005282
 31
0.0
  0
LINE
  5
16CF
  8
247
 10
-1.117109927643354
 20
0.5807678515299131
 30
0.0
 11
-1.9165598751903301
 21
1.3802177990768301
 31
0.0
  0
LINE
  5
16D0
  8
247
 10
-2.696097987594384
 20
2.159755911480941
 30
0.0
 11
-3.0680578001760632
 21
2.5317157240625638
 31
0.0
  0
LINE
  5
16D1
  8
247
 10
-0.8922196998783532
 20
0.6926372283049888
 30
0.0
 11
-1.4444137695761581
 21
1.244831298002735
 31
0.0
  0
LINE
  5
16D2
  8
247
 10
-2.7804711669083382
 20
2.5808886953349202
 30
0.0
 11
-2.8120318424898301
 21
2.61244937091646
 31
0.0
  0
LINE
  5
16D3
  8
247
 10
-0.7112748006721859
 20
0.8484519336388983
 30
0.0
 11
-1.0323132020055821
 21
1.1694903349722381
 31
0.0
  0
LINE
  5
16D4
  8
247
 10
-1.697525374240511
 20
1.8347025072072241
 30
0.0
 11
-2.0006564777561371
 21
2.1378336107228502
 31
0.0
  0
LINE
  5
16D5
  8
247
 10
-0.5717868958495842
 20
1.045723633356372
 30
0.0
 11
-0.8364735707222051
 21
1.310410308228938
 31
0.0
  0
LINE
  5
16D6
  8
247
 10
-1.4285840781436701
 20
1.902520815650514
 30
0.0
 11
-2.0006564777561371
 21
2.4745932152628711
 31
0.0
  0
LINE
  5
16D7
  8
247
 10
-0.4798095364548658
 20
1.2905058785017891
 30
0.0
 11
-0.8356904142846133
 21
1.646386756331478
 31
0.0
  0
LINE
  5
16D8
  8
247
 10
-0.9390685342908682
 20
1.7497648763377349
 30
0.0
 11
-1.84068457102404
 21
2.6513809130708519
 31
0.0
  0
LINE
  5
16D9
  8
247
 10
-0.4592935072027445
 20
1.606749453789688
 30
0.0
 11
-1.3685389256061731
 21
2.5159948721931178
 31
0.0
  0
LINE
  5
16DA
  8
247
 10
-0.6122124459759563
 20
2.096427997102976
 30
0.0
 11
-0.896393280188363
 21
2.3806088313153841
 31
0.0
  0
LINE
  5
16DB
  8
247
 10
-3.1828540485569188
 20
-0.0699062347412109
 30
0.0
 11
-3.1828540485569188
 21
0.7184543609619141
 31
0.0
  0
ARC
  5
16DC
  8
247
 10
-1.3880656879612141
 20
3.122285842895506
 30
0.0
 40
2.5780792236328121
 50
245.20517736984081
 51
262.79482596205179
  0
LINE
  5
16DD
  8
247
 10
-0.4546966474720194
 20
-0.0638294219970703
 30
0.0
 11
-3.1828540485569188
 21
0.7184543609619141
 31
0.0
  0
LINE
  5
16DE
  8
247
 10
-2.8494189899631688
 20
-0.1655216217041016
 30
0.0
 11
-3.1828540485569188
 21
-0.0699062347412109
 31
0.0
  0
LINE
  5
16DF
  8
247
 10
-2.8494189899631688
 20
-0.1655216217041016
 30
0.0
 11
-2.8494189899631688
 21
-0.0551433563232422
 31
0.0
  0
LINE
  5
16E0
  8
247
 10
-1.1941569965549641
 20
1.1730709075927701
 30
0.0
 11
-2.618866316623325
 21
1.581602096557617
 31
0.0
  0
LINE
  5
16E1
  8
247
 10
-2.7951854389377782
 20
2.6177616119384761
 30
0.0
 11
-3.084686629123325
 21
2.5264720916748038
 31
0.0
  0
ARC
  5
16E2
  8
247
 10
-1.591427199191684
 20
3.0767612457275368
 30
0.0
 40
1.288299322128293
 50
200.87218340207721
 51
222.54194893738699
  0
ARC
  5
16E3
  8
247
 10
-2.5311244648166831
 20
1.8875598907470701
 30
0.0
 40
0.3182875066995621
 50
91.710121382062837
 51
253.99839835444871
  0
ARC
  5
16E4
  8
247
 10
-1.591427199191684
 20
3.0767612457275368
 30
0.0
 40
1.591427564620969
 50
200.22964506331709
 51
208.5716889237174
  0
LINE
  5
16E5
  8
247
 10
-2.8407672565647308
 20
2.7623119354248038
 30
0.0
 11
-3.1302684467502782
 21
2.671022415161127
 31
0.0
  0
LINE
  5
16E6
  8
247
 10
-2.0006564777561371
 20
1.8142833709716779
 30
0.0
 11
-2.0006564777561371
 21
2.6972522735595681
 31
0.0
  0
LINE
  5
16E7
  8
247
 10
-0.4546966474720194
 20
2.2539539337158181
 30
0.0
 11
-2.0006564777561371
 21
2.6972522735595681
 31
0.0
  0
LINE
  5
16E8
  8
247
 10
-0.6325035017200662
 20
2.0761356353759761
 30
0.0
 11
-0.4546966474720194
 21
2.2539539337158181
 31
0.0
  0
LINE
  5
16E9
  8
247
 10
-1.697525374240511
 20
1.7273654937744141
 30
0.0
 11
-2.0006564777561371
 21
1.8142833709716779
 31
0.0
  0
LINE
  5
16EA
  8
247
 10
-1.697525374240511
 20
1.7273654937744141
 30
0.0
 11
-1.697525374240511
 21
1.9796390533447239
 31
0.0
  0
LINE
  5
16EB
  8
247
 10
-1.018696181125277
 20
1.7849864959716779
 30
0.0
 11
-1.697525374240511
 21
1.9796390533447239
 31
0.0
  0
ARC
  5
16EC
  8
247
 10
-1.1064265888401219
 20
1.4790287017822239
 30
0.0
 40
0.3182872831821442
 50
254.00027305718419
 51
74.000273057184273
  0
ARC
  5
16ED
  8
247
 10
-1.4398616474338699
 20
1.5115756988525391
 30
0.0
 40
0.9851760864257813
 50
253.9997507017284
 51
34.963873291627223
  0
LINE
  5
16EE
  8
247
 10
-1.5591265997503561
 20
-1.6712923126838151
 30
0.0
 11
-2.6438748073500729
 21
-0.5865441050841583
 31
0.0
  0
LINE
  5
16EF
  8
247
 10
-2.3618882196755631
 20
-1.2052902972988011
 30
0.0
 11
-2.8691488572415551
 21
-0.6980296597328107
 31
0.0
  0
ARC
  5
16F0
  8
247
 10
-2.4553416889377782
 20
-1.650266647338867
 30
0.0
 40
0.4546839594841006
 50
351.66260168792593
 51
156.3381550951899
  0
LINE
  5
16F1
  8
247
 10
-1.672076319909364
 20
-2.5686214061450978
 30
0.0
 11
-2.733161055462118
 21
-1.5075366705923441
 31
0.0
  0
LINE
  5
16F2
  8
247
 10
-2.1442215461264
 20
-2.4332357844681378
 30
0.0
 11
-3.1828540485568051
 21
-1.39460328203779
 31
0.0
  0
LINE
  5
16F3
  8
247
 10
-2.8717998643828082
 20
-1.467783521770796
 30
0.0
 11
-2.0054630203574102
 21
-1.7161960532857841
 31
0.0
  0
LINE
  5
16F4
  8
247
 10
-0.4546966474720194
 20
-2.917699813842658
 30
0.0
 11
-2.879722945040383
 21
-2.2223339080813931
 31
0.0
  0
LINE
  5
16F5
  8
247
 10
-2.6597950232401191
 20
-1.2441430982743209
 30
0.0
 11
-3.0377771067831532
 21
-0.8661610147312329
 31
0.0
  0
LINE
  5
16F6
  8
247
 10
-3.1828540485569188
 20
-2.2930927276609041
 30
0.0
 11
-3.1828540485568051
 21
-1.3152058504763311
 31
0.0
  0
LINE
  5
16F7
  8
247
 10
-2.8797229450412369
 20
-2.3712535946335711
 30
0.0
 11
-3.182854048556861
 21
-2.0681224911179461
 31
0.0
  0
LINE
  5
16F8
  8
247
 10
-2.616366772343496
 20
-2.2978501627911778
 30
0.0
 11
-3.1828540485568051
 21
-1.731362886577811
 31
0.0
  0
LINE
  5
16F9
  8
247
 10
-3.1828540485569188
 20
-2.2930927276609041
 30
0.0
 11
-2.8797229450412938
 21
-2.3800106048587391
 31
0.0
  0
LINE
  5
16FA
  8
247
 10
-2.8797229450412938
 20
-2.3800106048587391
 30
0.0
 11
-2.879722945040383
 21
-2.2223339080813931
 31
0.0
  0
LINE
  5
16FB
  8
247
 10
-3.1828540485569188
 20
-3.0767612457275368
 30
0.0
 11
-3.1828540485569188
 21
-2.4507579803466788
 31
0.0
  0
LINE
  5
16FC
  8
247
 10
-2.8797229450412938
 20
-3.0767612457275368
 30
0.0
 11
-2.8797229450412938
 21
-2.5376758575439431
 31
0.0
  0
LINE
  5
16FD
  8
247
 10
-3.1828540485569188
 20
-2.4507579803466788
 30
0.0
 11
-2.8797229450412938
 21
-2.5376758575439431
 31
0.0
  0
LINE
  5
16FE
  8
247
 10
-2.837221341631901
 20
-1.4034763844225591
 30
0.0
 11
-3.1498488212662319
 21
-1.090848904788231
 31
0.0
  0
LINE
  5
16FF
  8
247
 10
-0.4546966474719625
 20
-1.7654434513419801
 30
0.0
 11
-1.311675364830988
 21
-0.9084647339828958
 31
0.0
  0
LINE
  5
1700
  8
247
 10
-1.339919845028759
 20
-1.553739462865336
 30
0.0
 11
-2.3338995209601872
 21
-0.5597597869339097
 31
0.0
  0
LINE
  5
1701
  8
247
 10
-0.4546966474720194
 20
-2.1022030558820002
 30
0.0
 11
-1.566953587329692
 21
-0.9899461160243843
 31
0.0
  0
ARC
  5
1702
  8
247
 10
-1.242828718967073
 20
-1.9979496002197239
 30
0.0
 40
0.4546969681978227
 50
351.66285421114878
 51
156.33819215911009
  0
LINE
  5
1703
  8
247
 10
-0.4546966474720194
 20
-2.775722264962269
 30
0.0
 11
-1.316729054155644
 21
-1.9136898582785291
 31
0.0
  0
LINE
  5
1704
  8
247
 10
-0.4546966474720194
 20
-2.917699813842658
 30
0.0
 11
-0.4546966474720194
 21
-1.659765243530273
 31
0.0
  0
LINE
  5
1705
  8
247
 10
-0.4546966474720194
 20
-2.4389626604221339
 30
0.0
 11
-0.8445908038436298
 21
-2.0490685040505241
 31
0.0
  0
LINE
  5
1706
  8
247
 10
-0.7277858674751772
 20
-2.8393926494991311
 30
0.0
 11
-2.010365338897655
 21
-1.556813178076595
 31
0.0
  0
LINE
  5
1707
  8
247
 10
-1.19993109369227
 20
-2.7040070278221711
 30
0.0
 11
-2.261020297952085
 21
-1.642917823562243
 31
0.0
  0
LINE
  5
1708
  8
247
 10
-1.659299511865524
 20
-1.8154628567264111
 30
0.0
 11
-0.7929369714238419
 21
-2.0638794749414711
 31
0.0
  0
LINE
  5
1709
  8
247
 10
-0.5115142049841666
 20
-1.3718662892896389
 30
0.0
 11
-0.9246143655565219
 21
-0.9587661287173432
 31
0.0
  0
ARC
  5
170A
  8
247
 10
-1.212513319797152
 20
-1.659765243530273
 30
0.0
 40
0.7578163146972659
 50
0.0
 51
130.32984065416969
  0
LINE
  5
170B
  8
247
 10
0.0
 20
-3.0767612457275368
 30
0.0
 11
0.0
 21
3.0767612457275368
 31
0.0
  0
LINE
  5
170C
  8
247
 10
-0.3031310957142068
 20
-3.0767612457275368
 30
0.0
 11
-0.3031310957142068
 21
3.0767612457275368
 31
0.0
  0
LINE
  5
170D
  8
247
 10
-0.4546966474720194
 20
-0.7418231964111329
 30
0.0
 11
-2.8494189899631688
 21
-0.0551433563232422
 31
0.0
  0
LINE
  5
170E
  8
247
 10
-0.4546966474720194
 20
-0.7418231964111329
 30
0.0
 11
-0.4546966474720194
 21
-0.0638294219970703
 31
0.0
  0
ARC
  5
170F
  8
247
 10
-1.591427199191684
 20
-3.0767612457275368
 30
0.0
 40
1.288295745849606
 50
180.0
 51
0.0
  0
ARC
  5
1710
  8
247
 10
-1.591427199191684
 20
-3.0767612457275368
 30
0.0
 40
1.591426849365233
 50
180.0
 51
0.0
  0
ARC
  5
1711
  8
247
 10
-2.4250377338596532
 20
-1.3120822906494141
 30
0.0
 40
0.7578227519989014
 50
17.669577547397669
 51
180.2361598426715
  0
ARC
  5
1712
  8
247
 10
-2.1976894062229331
 20
1.7288761138915989
 30
0.0
 40
0.9851660728454588
 50
143.4440121970604
 51
254.00018438768561
  0
ARC
  5
1713
  8
247
 10
-1.591427199191684
 20
3.0767612457275368
 30
0.0
 40
1.288295745849606
 50
0.0
 51
194.12743649640839
  0
ARC
  5
1714
  8
247
 10
-1.591427199191684
 20
3.0767612457275368
 30
0.0
 40
1.591426849365233
 50
0.0
 51
194.77079396609119
  0
ENDBLK
  5
1715
  8
0
  0
BLOCK
  8
0
  2
A$C09B1797C
 70
     0
 10
0.0
 20
0.0
 30
0.0
  3
A$C09B1797C
  1

  0
LINE
  5
1787
  8
245
  6
CENTER2
 10
28.999999999998181
 20
4.0
 30
0.0
 11
28.999999999998181
 21
-4.0
 31
0.0
  0
CIRCLE
  5
1788
  8
242
 10
28.999999999998181
 20
0.0
 30
0.0
 40
4.0000000000000284
  0
CIRCLE
  5
1789
  8
241
 10
28.999999999998181
 20
0.0
 30
0.0
 40
3.3749999999999432
  0
ARC
  5
178A
  8
240
 10
64.000000000001819
 20
18.499999999996358
 30
0.0
 40
1.0
 50
0.0
 51
90.0
1001
GENIUS_GENOBJ-N-FIL_13
1002
{
1000
OWNER
1000
GEN
1002
}
1001
GENIUS_GENODEF_13
1002
{
1000
HIER
1070
     0
1002
}
1002
{
1000
MANEDIT
1070
     0
1002
}
1002
{
1000
NOSEL
1070
     0
1002
}
1002
{
1000
BEHIND
1070
     0
1002
}
1002
{
1000
OTHER
1070
     0
1002
}
1002
{
1000
REACTOR
1002
}
  0
LINE
  5
178B
  8
240
 10
3.999999999998181
 20
19.399999999995991
 30
0.0
 11
4.1000000000003629
 21
19.499999999996358
 31
0.0
  0
LINE
  5
178C
  8
240
 10
3.999999999998181
 20
19.399999999995991
 30
0.0
 11
2.8037408504551422
 21
19.39999999999554
 31
0.0
  0
LINE
  5
178D
  8
245
  6
CENTER2
 10
-90.000000000001819
 20
0.0
 30
0.0
 11
67.178450232867704
 21
0.0
 31
0.0
  0
LINE
  5
178E
  8
240
 10
64.999999999987267
 20
-18.499999999995911
 30
0.0
 11
65.000000000001819
 21
18.499999999995911
 31
0.0
  0
LINE
  5
178F
  8
240
 10
4.1000000000040009
 20
19.500000000003642
 30
0.0
 11
41.399999999992353
 21
19.499999999999542
 31
0.0
  0
ARC
  5
1790
  8
240
 10
2.8037408504551422
 20
20.399999999995551
 30
0.0
 40
1.0
 50
194.9999999999944
 51
270.0
1001
GENIUS_GENOBJ-N-FIL_13
1002
{
1000
OWNER
1000
GEN
1002
}
1001
GENIUS_GENODEF_13
1002
{
1000
HIER
1070
     0
1002
}
1002
{
1000
MANEDIT
1070
     0
1002
}
1002
{
1000
NOSEL
1070
     0
1002
}
1002
{
1000
BEHIND
1070
     0
1002
}
1002
{
1000
OTHER
1070
     0
1002
}
1002
{
1000
REACTOR
1002
}
  0
LINE
  5
1791
  8
244
 10
18.999999999998181
 20
-7.5
 30
0.0
 11
36.999999999998181
 21
-7.5
 31
0.0
  0
LINE
  5
1792
  8
244
 10
18.999999999998181
 20
7.5
 30
0.0
 11
36.999999999998181
 21
7.5
 31
0.0
  0
LINE
  5
1793
  8
244
 10
18.999999999998181
 20
0.0
 30
0.0
 11
18.999999999998181
 21
-7.5
 31
0.0
  0
LINE
  5
1794
  8
244
 10
18.999999999998181
 20
0.0
 30
0.0
 11
18.999999999998181
 21
7.5
 31
0.0
  0
LINE
  5
1795
  8
244
 10
36.999999999998181
 20
-7.5
 30
0.0
 11
36.999999999998181
 21
0.0
 31
0.0
  0
LINE
  5
1796
  8
244
 10
36.999999999998181
 20
7.5
 30
0.0
 11
36.999999999998181
 21
0.0
 31
0.0
  0
LINE
  5
1797
  8
244
 10
38.999999999998181
 20
9.5
 30
0.0
 11
64.999999999998266
 21
9.5
 31
0.0
  0
LINE
  5
1798
  8
244
 10
36.999999999998181
 20
7.5
 30
0.0
 11
38.999999999998181
 21
9.5
 31
0.0
  0
LINE
  5
1799
  8
244
 10
36.999999999998181
 20
-7.5
 30
0.0
 11
38.999999999998181
 21
-9.5
 31
0.0
  0
LINE
  5
179A
  8
244
 10
38.999999999998181
 20
-9.5
 30
0.0
 11
64.999999999998266
 21
-9.5
 31
0.0
  0
LINE
  5
179B
  8
240
 10
45.999999999998181
 20
19.499999999998181
 30
0.0
 11
64.000000000001819
 21
19.499999999996358
 31
0.0
  0
POLYLINE
  5
179C
  8
242
 10
56.999999999998181
 20
13.495369576266061
 30
0.0
 66
     1
 70
     8
  0
VERTEX
  8
242
  5
1919
 10
57.0000
 20
13.4954
 30
0.000000
  70
    32
  0
VERTEX
  8
242
  5
191A
 10
56.9952
 20
13.6342
 30
0.000000
  70
    32
  0
VERTEX
  8
242
  5
191B
 10
56.9807
 20
13.7726
 30
0.000000
  70
    32
  0
VERTEX
  8
242
  5
191C
 10
56.9567
 20
13.9104
 30
0.000000
  70
    32
  0
VERTEX
  8
242
  5
191D
 10
56.9231
 20
14.0472
 30
0.000000
  70
    32
  0
VERTEX
  8
242
  5
191E
 10
56.8801
 20
14.1826
 30
0.000000
  70
    32
  0
VERTEX
  8
242
  5
191F
 10
56.8278
 20
14.3164
 30
0.000000
  70
    32
  0
VERTEX
  8
242
  5
1920
 10
56.7662
 20
14.4482
 30
0.000000
  70
    32
  0
VERTEX
  8
242
  5
1921
 10
56.6955
 20
14.5778
 30
0.000000
  70
    32
  0
VERTEX
  8
242
  5
1922
 10
56.6160
 20
14.7047
 30
0.000000
  70
    32
  0
VERTEX
  8
242
  5
1923
 10
56.5277
 20
14.8287
 30
0.000000
  70
    32
  0
VERTEX
  8
242
  5
1924
 10
56.4309
 20
14.9495
 30
0.000000
  70
    32
  0
VERTEX
  8
242
  5
1925
 10
56.3259
 20
15.0668
 30
0.000000
  70
    32
  0
VERTEX
  8
242
  5
1926
 10
56.2128
 20
15.1803
 30
0.000000
  70
    32
  0
VERTEX
  8
242
  5
1927
 10
56.0920
 20
15.2897
 30
0.000000
  70
    32
  0
VERTEX
  8
242
  5
1928
 10
55.9638
 20
15.3948
 30
0.000000
  70
    32
  0
VERTEX
  8
242
  5
1929
 10
55.8284
 20
15.4954
 30
0.000000
  70
    32
  0
VERTEX
  8
242
  5
192A
 10
55.6862
 20
15.5911
 30
0.000000
  70
    32
  0
VERTEX
  8
242
  5
192B
 10
55.5376
 20
15.6818
 30
0.000000
  70
    32
  0
VERTEX
  8
242
  5
192C
 10
55.3828
 20
15.7672
 30
0.000000
  70
    32
  0
VERTEX
  8
242
  5
192D
 10
55.2223
 20
15.8471
 30
0.000000
  70
    32
  0
VERTEX
  8
242
  5
192E
 10
55.0564
 20
15.9214
 30
0.000000
  70
    32
  0
VERTEX
  8
242
  5
192F
 10
54.8856
 20
15.9898
 30
0.000000
  70
    32
  0
VERTEX
  8
242
  5
1930
 10
54.7102
 20
16.0522
 30
0.000000
  70
    32
  0
VERTEX
  8
242
  5
1931
 10
54.5307
 20
16.1085
 30
0.000000
  70
    32
  0
VERTEX
  8
242
  5
1932
 10
54.3476
 20
16.1585
 30
0.000000
  70
    32
  0
VERTEX
  8
242
  5
1933
 10
54.1611
 20
16.2020
 30
0.000000
  70
    32
  0
VERTEX
  8
242
  5
1934
 10
53.9719
 20
16.2390
 30
0.000000
  70
    32
  0
VERTEX
  8
242
  5
1935
 10
53.7804
 20
16.2694
 30
0.000000
  70
    32
  0
VERTEX
  8
242
  5
1936
 10
53.5869
 20
16.2932
 30
0.000000
  70
    32
  0
VERTEX
  8
242
  5
1937
 10
53.3921
 20
16.3102
 30
0.000000
  70
    32
  0
VERTEX
  8
242
  5
1938
 10
53.1963
 20
16.3204
 30
0.000000
  70
    32
  0
VERTEX
  8
242
  5
1939
 10
53.0000
 20
16.3238
 30
0.000000
  70
    32
  0
VERTEX
  8
242
  5
193A
 10
52.8037
 20
16.3204
 30
0.000000
  70
    32
  0
VERTEX
  8
242
  5
193B
 10
52.6079
 20
16.3102
 30
0.000000
  70
    32
  0
VERTEX
  8
242
  5
193C
 10
52.4131
 20
16.2932
 30
0.000000
  70
    32
  0
VERTEX
  8
242
  5
193D
 10
52.2196
 20
16.2694
 30
0.000000
  70
    32
  0
VERTEX
  8
242
  5
193E
 10
52.0281
 20
16.2390
 30
0.000000
  70
    32
  0
VERTEX
  8
242
  5
193F
 10
51.8389
 20
16.2020
 30
0.000000
  70
    32
  0
VERTEX
  8
242
  5
1940
 10
51.6524
 20
16.1585
 30
0.000000
  70
    32
  0
VERTEX
  8
242
  5
1941
 10
51.4693
 20
16.1085
 30
0.000000
  70
    32
  0
VERTEX
  8
242
  5
1942
 10
51.2898
 20
16.0522
 30
0.000000
  70
    32
  0
VERTEX
  8
242
  5
1943
 10
51.1144
 20
15.9898
 30
0.000000
  70
    32
  0
VERTEX
  8
242
  5
1944
 10
50.9436
 20
15.9214
 30
0.000000
  70
    32
  0
VERTEX
  8
242
  5
1945
 10
50.7777
 20
15.8471
 30
0.000000
  70
    32
  0
VERTEX
  8
242
  5
1946
 10
50.6172
 20
15.7672
 30
0.000000
  70
    32
  0
VERTEX
  8
242
  5
1947
 10
50.4624
 20
15.6818
 30
0.000000
  70
    32
  0
VERTEX
  8
242
  5
1948
 10
50.3138
 20
15.5911
 30
0.000000
  70
    32
  0
VERTEX
  8
242
  5
1949
 10
50.1716
 20
15.4954
 30
0.000000
  70
    32
  0
VERTEX
  8
242
  5
194A
 10
50.0362
 20
15.3948
 30
0.000000
  70
    32
  0
VERTEX
  8
242
  5
194B
 10
49.9080
 20
15.2897
 30
0.000000
  70
    32
  0
VERTEX
  8
242
  5
194C
 10
49.7872
 20
15.1803
 30
0.000000
  70
    32
  0
VERTEX
  8
242
  5
194D
 10
49.6741
 20
15.0668
 30
0.000000
  70
    32
  0
VERTEX
  8
242
  5
194E
 10
49.5691
 20
14.9495
 30
0.000000
  70
    32
  0
VERTEX
  8
242
  5
194F
 10
49.4723
 20
14.8287
 30
0.000000
  70
    32
  0
VERTEX
  8
242
  5
1950
 10
49.3840
 20
14.7047
 30
0.000000
  70
    32
  0
VERTEX
  8
242
  5
1951
 10
49.3045
 20
14.5778
 30
0.000000
  70
    32
  0
VERTEX
  8
242
  5
1952
 10
49.2338
 20
14.4482
 30
0.000000
  70
    32
  0
VERTEX
  8
242
  5
1953
 10
49.1722
 20
14.3164
 30
0.000000
  70
    32
  0
VERTEX
  8
242
  5
1954
 10
49.1199
 20
14.1826
 30
0.000000
  70
    32
  0
VERTEX
  8
242
  5
1955
 10
49.0769
 20
14.0472
 30
0.000000
  70
    32
  0
VERTEX
  8
242
  5
1956
 10
49.0433
 20
13.9104
 30
0.000000
  70
    32
  0
VERTEX
  8
242
  5
1957
 10
49.0193
 20
13.7726
 30
0.000000
  70
    32
  0
VERTEX
  8
242
  5
1958
 10
49.0048
 20
13.6342
 30
0.000000
  70
    32
  0
VERTEX
  8
242
  5
1959
 10
49.0000
 20
13.4954
 30
0.000000
  70
    32
  0
VERTEX
  8
242
  5
195A
 10
49.0048
 20
13.3566
 30
0.000000
  70
    32
  0
VERTEX
  8
242
  5
195B
 10
49.0193
 20
13.2181
 30
0.000000
  70
    32
  0
VERTEX
  8
242
  5
195C
 10
49.0433
 20
13.0804
 30
0.000000
  70
    32
  0
VERTEX
  8
242
  5
195D
 10
49.0769
 20
12.9436
 30
0.000000
  70
    32
  0
VERTEX
  8
242
  5
195E
 10
49.1199
 20
12.8081
 30
0.000000
  70
    32
  0
VERTEX
  8
242
  5
195F
 10
49.1722
 20
12.6743
 30
0.000000
  70
    32
  0
VERTEX
  8
242
  5
1960
 10
49.2338
 20
12.5425
 30
0.000000
  70
    32
  0
VERTEX
  8
242
  5
1961
 10
49.3045
 20
12.4130
 30
0.000000
  70
    32
  0
VERTEX
  8
242
  5
1962
 10
49.3840
 20
12.2861
 30
0.000000
  70
    32
  0
VERTEX
  8
242
  5
1963
 10
49.4723
 20
12.1621
 30
0.000000
  70
    32
  0
VERTEX
  8
242
  5
1964
 10
49.5691
 20
12.0413
 30
0.000000
  70
    32
  0
VERTEX
  8
242
  5
1965
 10
49.6741
 20
11.9240
 30
0.000000
  70
    32
  0
VERTEX
  8
242
  5
1966
 10
49.7872
 20
11.8105
 30
0.000000
  70
    32
  0
VERTEX
  8
242
  5
1967
 10
49.9080
 20
11.7010
 30
0.000000
  70
    32
  0
VERTEX
  8
242
  5
1968
 10
50.0362
 20
11.5959
 30
0.000000
  70
    32
  0
VERTEX
  8
242
  5
1969
 10
50.1716
 20
11.4954
 30
0.000000
  70
    32
  0
VERTEX
  8
242
  5
196A
 10
50.3138
 20
11.3996
 30
0.000000
  70
    32
  0
VERTEX
  8
242
  5
196B
 10
50.4624
 20
11.3090
 30
0.000000
  70
    32
  0
VERTEX
  8
242
  5
196C
 10
50.6172
 20
11.2236
 30
0.000000
  70
    32
  0
VERTEX
  8
242
  5
196D
 10
50.7777
 20
11.1436
 30
0.000000
  70
    32
  0
VERTEX
  8
242
  5
196E
 10
50.9436
 20
11.0693
 30
0.000000
  70
    32
  0
VERTEX
  8
242
  5
196F
 10
51.1144
 20
11.0009
 30
0.000000
  70
    32
  0
VERTEX
  8
242
  5
1970
 10
51.2898
 20
10.9385
 30
0.000000
  70
    32
  0
VERTEX
  8
242
  5
1971
 10
51.4693
 20
10.8822
 30
0.000000
  70
    32
  0
VERTEX
  8
242
  5
1972
 10
51.6524
 20
10.8323
 30
0.000000
  70
    32
  0
VERTEX
  8
242
  5
1973
 10
51.8389
 20
10.7887
 30
0.000000
  70
    32
  0
VERTEX
  8
242
  5
1974
 10
52.0281
 20
10.7517
 30
0.000000
  70
    32
  0
VERTEX
  8
242
  5
1975
 10
52.2196
 20
10.7213
 30
0.000000
  70
    32
  0
VERTEX
  8
242
  5
1976
 10
52.4131
 20
10.6976
 30
0.000000
  70
    32
  0
VERTEX
  8
242
  5
1977
 10
52.6079
 20
10.6806
 30
0.000000
  70
    32
  0
VERTEX
  8
242
  5
1978
 10
52.8037
 20
10.6703
 30
0.000000
  70
    32
  0
VERTEX
  8
242
  5
1979
 10
53.0000
 20
10.6669
 30
0.000000
  70
    32
  0
VERTEX
  8
242
  5
197A
 10
53.1963
 20
10.6703
 30
0.000000
  70
    32
  0
VERTEX
  8
242
  5
197B
 10
53.3921
 20
10.6806
 30
0.000000
  70
    32
  0
VERTEX
  8
242
  5
197C
 10
53.5869
 20
10.6976
 30
0.000000
  70
    32
  0
VERTEX
  8
242
  5
197D
 10
53.7804
 20
10.7213
 30
0.000000
  70
    32
  0
VERTEX
  8
242
  5
197E
 10
53.9719
 20
10.7517
 30
0.000000
  70
    32
  0
VERTEX
  8
242
  5
197F
 10
54.1611
 20
10.7887
 30
0.000000
  70
    32
  0
VERTEX
  8
242
  5
1980
 10
54.3476
 20
10.8323
 30
0.000000
  70
    32
  0
VERTEX
  8
242
  5
1981
 10
54.5307
 20
10.8822
 30
0.000000
  70
    32
  0
VERTEX
  8
242
  5
1982
 10
54.7102
 20
10.9385
 30
0.000000
  70
    32
  0
VERTEX
  8
242
  5
1983
 10
54.8856
 20
11.0009
 30
0.000000
  70
    32
  0
VERTEX
  8
242
  5
1984
 10
55.0564
 20
11.0693
 30
0.000000
  70
    32
  0
VERTEX
  8
242
  5
1985
 10
55.2223
 20
11.1436
 30
0.000000
  70
    32
  0
VERTEX
  8
242
  5
1986
 10
55.3828
 20
11.2236
 30
0.000000
  70
    32
  0
VERTEX
  8
242
  5
1987
 10
55.5376
 20
11.3090
 30
0.000000
  70
    32
  0
VERTEX
  8
242
  5
1988
 10
55.6862
 20
11.3996
 30
0.000000
  70
    32
  0
VERTEX
  8
242
  5
1989
 10
55.8284
 20
11.4954
 30
0.000000
  70
    32
  0
VERTEX
  8
242
  5
198A
 10
55.9638
 20
11.5959
 30
0.000000
  70
    32
  0
VERTEX
  8
242
  5
198B
 10
56.0920
 20
11.7010
 30
0.000000
  70
    32
  0
VERTEX
  8
242
  5
198C
 10
56.2128
 20
11.8105
 30
0.000000
  70
    32
  0
VERTEX
  8
242
  5
198D
 10
56.3259
 20
11.9240
 30
0.000000
  70
    32
  0
VERTEX
  8
242
  5
198E
 10
56.4309
 20
12.0413
 30
0.000000
  70
    32
  0
VERTEX
  8
242
  5
198F
 10
56.5277
 20
12.1621
 30
0.000000
  70
    32
  0
VERTEX
  8
242
  5
1990
 10
56.6160
 20
12.2861
 30
0.000000
  70
    32
  0
VERTEX
  8
242
  5
1991
 10
56.6955
 20
12.4130
 30
0.000000
  70
    32
  0
VERTEX
  8
242
  5
1992
 10
56.7662
 20
12.5425
 30
0.000000
  70
    32
  0
VERTEX
  8
242
  5
1993
 10
56.8278
 20
12.6743
 30
0.000000
  70
    32
  0
VERTEX
  8
242
  5
1994
 10
56.8801
 20
12.8081
 30
0.000000
  70
    32
  0
VERTEX
  8
242
  5
1995
 10
56.9231
 20
12.9436
 30
0.000000
  70
    32
  0
VERTEX
  8
242
  5
1996
 10
56.9567
 20
13.0804
 30
0.000000
  70
    32
  0
VERTEX
  8
242
  5
1997
 10
56.9807
 20
13.2181
 30
0.000000
  70
    32
  0
VERTEX
  8
242
  5
1998
 10
56.9952
 20
13.3566
 30
0.000000
  70
    32
  0
VERTEX
  8
242
  5
1999
 10
57.0000
 20
13.4954
 30
0.000000
  70
    32
  0
SEQEND
  8
242
  5
199A
  0
POLYLINE
  5
179D
  8
241
 10
49.624999999998181
 20
13.58048922167472
 30
0.0
 66
     1
 70
     8
  0
VERTEX
  8
241
  5
199B
 10
49.6250
 20
13.5805
 30
0.000000
  70
    32
  0
VERTEX
  8
241
  5
199C
 10
49.6291
 20
13.4634
 30
0.000000
  70
    32
  0
VERTEX
  8
241
  5
199D
 10
49.6413
 20
13.3466
 30
0.000000
  70
    32
  0
VERTEX
  8
241
  5
199E
 10
49.6615
 20
13.2303
 30
0.000000
  70
    32
  0
VERTEX
  8
241
  5
199F
 10
49.6898
 20
13.1149
 30
0.000000
  70
    32
  0
VERTEX
  8
241
  5
19A0
 10
49.7261
 20
13.0006
 30
0.000000
  70
    32
  0
VERTEX
  8
241
  5
19A1
 10
49.7703
 20
12.8877
 30
0.000000
  70
    32
  0
VERTEX
  8
241
  5
19A2
 10
49.8223
 20
12.7765
 30
0.000000
  70
    32
  0
VERTEX
  8
241
  5
19A3
 10
49.8819
 20
12.6672
 30
0.000000
  70
    32
  0
VERTEX
  8
241
  5
19A4
 10
49.9490
 20
12.5601
 30
0.000000
  70
    32
  0
VERTEX
  8
241
  5
19A5
 10
50.0235
 20
12.4555
 30
0.000000
  70
    32
  0
VERTEX
  8
241
  5
19A6
 10
50.1052
 20
12.3536
 30
0.000000
  70
    32
  0
VERTEX
  8
241
  5
19A7
 10
50.1938
 20
12.2546
 30
0.000000
  70
    32
  0
VERTEX
  8
241
  5
19A8
 10
50.2892
 20
12.1589
 30
0.000000
  70
    32
  0
VERTEX
  8
241
  5
19A9
 10
50.3911
 20
12.0665
 30
0.000000
  70
    32
  0
VERTEX
  8
241
  5
19AA
 10
50.4993
 20
11.9778
 30
0.000000
  70
    32
  0
VERTEX
  8
241
  5
19AB
 10
50.6135
 20
11.8930
 30
0.000000
  70
    32
  0
VERTEX
  8
241
  5
19AC
 10
50.7335
 20
11.8122
 30
0.000000
  70
    32
  0
VERTEX
  8
241
  5
19AD
 10
50.8589
 20
11.7357
 30
0.000000
  70
    32
  0
VERTEX
  8
241
  5
19AE
 10
50.9895
 20
11.6636
 30
0.000000
  70
    32
  0
VERTEX
  8
241
  5
19AF
 10
51.1250
 20
11.5962
 30
0.000000
  70
    32
  0
VERTEX
  8
241
  5
19B0
 10
51.2649
 20
11.5335
 30
0.000000
  70
    32
  0
VERTEX
  8
241
  5
19B1
 10
51.4090
 20
11.4758
 30
0.000000
  70
    32
  0
VERTEX
  8
241
  5
19B2
 10
51.5570
 20
11.4231
 30
0.000000
  70
    32
  0
VERTEX
  8
241
  5
19B3
 10
51.7084
 20
11.3757
 30
0.000000
  70
    32
  0
VERTEX
  8
241
  5
19B4
 10
51.8630
 20
11.3335
 30
0.000000
  70
    32
  0
VERTEX
  8
241
  5
19B5
 10
52.0203
 20
11.2968
 30
0.000000
  70
    32
  0
VERTEX
  8
241
  5
19B6
 10
52.1799
 20
11.2655
 30
0.000000
  70
    32
  0
VERTEX
  8
241
  5
19B7
 10
52.3416
 20
11.2399
 30
0.000000
  70
    32
  0
VERTEX
  8
241
  5
19B8
 10
52.5048
 20
11.2198
 30
0.000000
  70
    32
  0
VERTEX
  8
241
  5
19B9
 10
52.6692
 20
11.2055
 30
0.000000
  70
    32
  0
VERTEX
  8
241
  5
19BA
 10
52.8344
 20
11.1969
 30
0.000000
  70
    32
  0
VERTEX
  8
241
  5
19BB
 10
53.0000
 20
11.1940
 30
0.000000
  70
    32
  0
VERTEX
  8
241
  5
19BC
 10
53.1656
 20
11.1969
 30
0.000000
  70
    32
  0
VERTEX
  8
241
  5
19BD
 10
53.3308
 20
11.2055
 30
0.000000
  70
    32
  0
VERTEX
  8
241
  5
19BE
 10
53.4952
 20
11.2198
 30
0.000000
  70
    32
  0
VERTEX
  8
241
  5
19BF
 10
53.6584
 20
11.2399
 30
0.000000
  70
    32
  0
VERTEX
  8
241
  5
19C0
 10
53.8201
 20
11.2655
 30
0.000000
  70
    32
  0
VERTEX
  8
241
  5
19C1
 10
53.9797
 20
11.2968
 30
0.000000
  70
    32
  0
VERTEX
  8
241
  5
19C2
 10
54.1370
 20
11.3335
 30
0.000000
  70
    32
  0
VERTEX
  8
241
  5
19C3
 10
54.2916
 20
11.3757
 30
0.000000
  70
    32
  0
VERTEX
  8
241
  5
19C4
 10
54.4430
 20
11.4231
 30
0.000000
  70
    32
  0
VERTEX
  8
241
  5
19C5
 10
54.5910
 20
11.4758
 30
0.000000
  70
    32
  0
VERTEX
  8
241
  5
19C6
 10
54.7351
 20
11.5335
 30
0.000000
  70
    32
  0
VERTEX
  8
241
  5
19C7
 10
54.8750
 20
11.5962
 30
0.000000
  70
    32
  0
VERTEX
  8
241
  5
19C8
 10
55.0105
 20
11.6636
 30
0.000000
  70
    32
  0
VERTEX
  8
241
  5
19C9
 10
55.1411
 20
11.7357
 30
0.000000
  70
    32
  0
VERTEX
  8
241
  5
19CA
 10
55.2665
 20
11.8122
 30
0.000000
  70
    32
  0
VERTEX
  8
241
  5
19CB
 10
55.3865
 20
11.8930
 30
0.000000
  70
    32
  0
VERTEX
  8
241
  5
19CC
 10
55.5007
 20
11.9778
 30
0.000000
  70
    32
  0
VERTEX
  8
241
  5
19CD
 10
55.6089
 20
12.0665
 30
0.000000
  70
    32
  0
VERTEX
  8
241
  5
19CE
 10
55.7108
 20
12.1589
 30
0.000000
  70
    32
  0
VERTEX
  8
241
  5
19CF
 10
55.8062
 20
12.2546
 30
0.000000
  70
    32
  0
VERTEX
  8
241
  5
19D0
 10
55.8948
 20
12.3536
 30
0.000000
  70
    32
  0
VERTEX
  8
241
  5
19D1
 10
55.9765
 20
12.4555
 30
0.000000
  70
    32
  0
VERTEX
  8
241
  5
19D2
 10
56.0510
 20
12.5601
 30
0.000000
  70
    32
  0
VERTEX
  8
241
  5
19D3
 10
56.1181
 20
12.6672
 30
0.000000
  70
    32
  0
VERTEX
  8
241
  5
19D4
 10
56.1777
 20
12.7765
 30
0.000000
  70
    32
  0
VERTEX
  8
241
  5
19D5
 10
56.2297
 20
12.8877
 30
0.000000
  70
    32
  0
VERTEX
  8
241
  5
19D6
 10
56.2739
 20
13.0006
 30
0.000000
  70
    32
  0
VERTEX
  8
241
  5
19D7
 10
56.3102
 20
13.1149
 30
0.000000
  70
    32
  0
VERTEX
  8
241
  5
19D8
 10
56.3385
 20
13.2303
 30
0.000000
  70
    32
  0
VERTEX
  8
241
  5
19D9
 10
56.3587
 20
13.3466
 30
0.000000
  70
    32
  0
VERTEX
  8
241
  5
19DA
 10
56.3709
 20
13.4634
 30
0.000000
  70
    32
  0
VERTEX
  8
241
  5
19DB
 10
56.3750
 20
13.5805
 30
0.000000
  70
    32
  0
VERTEX
  8
241
  5
19DC
 10
56.3709
 20
13.6976
 30
0.000000
  70
    32
  0
VERTEX
  8
241
  5
19DD
 10
56.3587
 20
13.8144
 30
0.000000
  70
    32
  0
VERTEX
  8
241
  5
19DE
 10
56.3385
 20
13.9307
 30
0.000000
  70
    32
  0
VERTEX
  8
241
  5
19DF
 10
56.3102
 20
14.0461
 30
0.000000
  70
    32
  0
VERTEX
  8
241
  5
19E0
 10
56.2739
 20
14.1604
 30
0.000000
  70
    32
  0
VERTEX
  8
241
  5
19E1
 10
56.2297
 20
14.2732
 30
0.000000
  70
    32
  0
VERTEX
  8
241
  5
19E2
 10
56.1777
 20
14.3845
 30
0.000000
  70
    32
  0
VERTEX
  8
241
  5
19E3
 10
56.1181
 20
14.4938
 30
0.000000
  70
    32
  0
VERTEX
  8
241
  5
19E4
 10
56.0510
 20
14.6008
 30
0.000000
  70
    32
  0
VERTEX
  8
241
  5
19E5
 10
55.9765
 20
14.7055
 30
0.000000
  70
    32
  0
VERTEX
  8
241
  5
19E6
 10
55.8948
 20
14.8074
 30
0.000000
  70
    32
  0
VERTEX
  8
241
  5
19E7
 10
55.8062
 20
14.9063
 30
0.000000
  70
    32
  0
VERTEX
  8
241
  5
19E8
 10
55.7108
 20
15.0021
 30
0.000000
  70
    32
  0
VERTEX
  8
241
  5
19E9
 10
55.6089
 20
15.0945
 30
0.000000
  70
    32
  0
VERTEX
  8
241
  5
19EA
 10
55.5007
 20
15.1832
 30
0.000000
  70
    32
  0
VERTEX
  8
241
  5
19EB
 10
55.3865
 20
15.2680
 30
0.000000
  70
    32
  0
VERTEX
  8
241
  5
19EC
 10
55.2665
 20
15.3488
 30
0.000000
  70
    32
  0
VERTEX
  8
241
  5
19ED
 10
55.1411
 20
15.4253
 30
0.000000
  70
    32
  0
VERTEX
  8
241
  5
19EE
 10
55.0105
 20
15.4973
 30
0.000000
  70
    32
  0
VERTEX
  8
241
  5
19EF
 10
54.8750
 20
15.5648
 30
0.000000
  70
    32
  0
VERTEX
  8
241
  5
19F0
 10
54.7351
 20
15.6274
 30
0.000000
  70
    32
  0
VERTEX
  8
241
  5
19F1
 10
54.5910
 20
15.6852
 30
0.000000
  70
    32
  0
VERTEX
  8
241
  5
19F2
 10
54.4430
 20
15.7378
 30
0.000000
  70
    32
  0
VERTEX
  8
241
  5
19F3
 10
54.2916
 20
15.7853
 30
0.000000
  70
    32
  0
VERTEX
  8
241
  5
19F4
 10
54.1370
 20
15.8275
 30
0.000000
  70
    32
  0
VERTEX
  8
241
  5
19F5
 10
53.9797
 20
15.8642
 30
0.000000
  70
    32
  0
VERTEX
  8
241
  5
19F6
 10
53.8201
 20
15.8955
 30
0.000000
  70
    32
  0
VERTEX
  8
241
  5
19F7
 10
53.6584
 20
15.9211
 30
0.000000
  70
    32
  0
VERTEX
  8
241
  5
19F8
 10
53.4952
 20
15.9411
 30
0.000000
  70
    32
  0
VERTEX
  8
241
  5
19F9
 10
53.3308
 20
15.9555
 30
0.000000
  70
    32
  0
VERTEX
  8
241
  5
19FA
 10
53.1656
 20
15.9641
 30
0.000000
  70
    32
  0
VERTEX
  8
241
  5
19FB
 10
53.0000
 20
15.9670
 30
0.000000
  70
    32
  0
VERTEX
  8
241
  5
19FC
 10
52.8344
 20
15.9641
 30
0.000000
  70
    32
  0
VERTEX
  8
241
  5
19FD
 10
52.6692
 20
15.9555
 30
0.000000
  70
    32
  0
VERTEX
  8
241
  5
19FE
 10
52.5048
 20
15.9411
 30
0.000000
  70
    32
  0
VERTEX
  8
241
  5
19FF
 10
52.3416
 20
15.9211
 30
0.000000
  70
    32
  0
VERTEX
  8
241
  5
1A00
 10
52.1799
 20
15.8955
 30
0.000000
  70
    32
  0
VERTEX
  8
241
  5
1A01
 10
52.0203
 20
15.8642
 30
0.000000
  70
    32
  0
VERTEX
  8
241
  5
1A02
 10
51.8630
 20
15.8275
 30
0.000000
  70
    32
  0
VERTEX
  8
241
  5
1A03
 10
51.7084
 20
15.7853
 30
0.000000
  70
    32
  0
VERTEX
  8
241
  5
1A04
 10
51.5570
 20
15.7378
 30
0.000000
  70
    32
  0
VERTEX
  8
241
  5
1A05
 10
51.4090
 20
15.6852
 30
0.000000
  70
    32
  0
VERTEX
  8
241
  5
1A06
 10
51.2649
 20
15.6274
 30
0.000000
  70
    32
  0
VERTEX
  8
241
  5
1A07
 10
51.1250
 20
15.5648
 30
0.000000
  70
    32
  0
VERTEX
  8
241
  5
1A08
 10
50.9895
 20
15.4973
 30
0.000000
  70
    32
  0
VERTEX
  8
241
  5
1A09
 10
50.8589
 20
15.4253
 30
0.000000
  70
    32
  0
VERTEX
  8
241
  5
1A0A
 10
50.7335
 20
15.3488
 30
0.000000
  70
    32
  0
VERTEX
  8
241
  5
1A0B
 10
50.6135
 20
15.2680
 30
0.000000
  70
    32
  0
VERTEX
  8
241
  5
1A0C
 10
50.4993
 20
15.1832
 30
0.000000
  70
    32
  0
VERTEX
  8
241
  5
1A0D
 10
50.3911
 20
15.0945
 30
0.000000
  70
    32
  0
VERTEX
  8
241
  5
1A0E
 10
50.2892
 20
15.0021
 30
0.000000
  70
    32
  0
VERTEX
  8
241
  5
1A0F
 10
50.1938
 20
14.9063
 30
0.000000
  70
    32
  0
VERTEX
  8
241
  5
1A10
 10
50.1052
 20
14.8074
 30
0.000000
  70
    32
  0
VERTEX
  8
241
  5
1A11
 10
50.0235
 20
14.7055
 30
0.000000
  70
    32
  0
VERTEX
  8
241
  5
1A12
 10
49.9490
 20
14.6008
 30
0.000000
  70
    32
  0
VERTEX
  8
241
  5
1A13
 10
49.8819
 20
14.4938
 30
0.000000
  70
    32
  0
VERTEX
  8
241
  5
1A14
 10
49.8223
 20
14.3845
 30
0.000000
  70
    32
  0
VERTEX
  8
241
  5
1A15
 10
49.7703
 20
14.2732
 30
0.000000
  70
    32
  0
VERTEX
  8
241
  5
1A16
 10
49.7261
 20
14.1604
 30
0.000000
  70
    32
  0
VERTEX
  8
241
  5
1A17
 10
49.6898
 20
14.0461
 30
0.000000
  70
    32
  0
VERTEX
  8
241
  5
1A18
 10
49.6615
 20
13.9307
 30
0.000000
  70
    32
  0
VERTEX
  8
241
  5
1A19
 10
49.6413
 20
13.8144
 30
0.000000
  70
    32
  0
VERTEX
  8
241
  5
1A1A
 10
49.6291
 20
13.6976
 30
0.000000
  70
    32
  0
VERTEX
  8
241
  5
1A1B
 10
49.6250
 20
13.5805
 30
0.000000
  70
    32
  0
SEQEND
  8
241
  5
1A1C
  0
LINE
  5
179E
  8
245
  6
CENTER2
 10
48.999999999998181
 20
13.788582233137729
 30
0.0
 11
56.999999999998181
 21
13.788582233137269
 31
0.0
  0
LINE
  5
179F
  8
245
  6
CENTER2
 10
52.999999999998181
 20
10.66694245151939
 30
0.0
 11
53.0
 21
16.32379670101227
 31
0.0
  0
ARC
  5
17A0
  8
240
 10
64.000000000001819
 20
-18.499999999996358
 30
0.0
 40
1.0
 50
270.0
 51
0.0
1001
GENIUS_GENOBJ-N-FIL_13
1002
{
1000
OWNER
1000
GEN
1002
}
1001
GENIUS_GENODEF_13
1002
{
1000
HIER
1070
     0
1002
}
1002
{
1000
MANEDIT
1070
     0
1002
}
1002
{
1000
NOSEL
1070
     0
1002
}
1002
{
1000
BEHIND
1070
     0
1002
}
1002
{
1000
OTHER
1070
     0
1002
}
1002
{
1000
REACTOR
1002
}
  0
LINE
  5
17A1
  8
240
 10
3.999999999998181
 20
-19.399999999995991
 30
0.0
 11
4.1000000000003629
 21
-19.499999999996358
 31
0.0
  0
LINE
  5
17A2
  8
240
 10
3.999999999998181
 20
-19.399999999995991
 30
0.0
 11
2.8037408504551422
 21
-19.39999999999554
 31
0.0
  0
LINE
  5
17A3
  8
240
 10
4.1000000000040009
 20
-19.500000000003642
 30
0.0
 11
41.399999999992353
 21
-19.499999999999542
 31
0.0
  0
ARC
  5
17A4
  8
240
 10
2.8037408504551422
 20
-20.399999999995551
 30
0.0
 40
1.0
 50
90.0
 51
165.00000000000551
1001
GENIUS_GENOBJ-N-FIL_13
1002
{
1000
OWNER
1000
GEN
1002
}
1001
GENIUS_GENODEF_13
1002
{
1000
HIER
1070
     0
1002
}
1002
{
1000
MANEDIT
1070
     0
1002
}
1002
{
1000
NOSEL
1070
     0
1002
}
1002
{
1000
BEHIND
1070
     0
1002
}
1002
{
1000
OTHER
1070
     0
1002
}
1002
{
1000
REACTOR
1002
}
  0
LINE
  5
17A5
  8
240
 10
45.999999999998181
 20
-19.499999999998181
 30
0.0
 11
64.000000000001819
 21
-19.499999999996358
 31
0.0
  0
LINE
  5
17A6
  8
241
 10
45.999999999998181
 20
19.499999999998629
 30
0.0
 11
46.000000000001812
 21
-19.499999999998629
 31
0.0
  0
LINE
  5
17A7
  8
245
  6
CENTER2
 10
-37.000000000001819
 20
2.9999999999845381
 30
0.0
 11
-37.000000000001819
 21
-3.00000000001728
 31
0.0
  0
LINE
  5
17A8
  8
245
  6
CENTER2
 10
-66.000000000001819
 20
19.999999999979991
 30
0.0
 11
-66.000000000005457
 21
-20.000000000012729
 31
0.0
1001
GENIUS_GENOREF_13
1005
1818
  0
ARC
  5
17A9
  8
240
 10
-9.0352653961472242
 20
26.6999999999789
 30
0.0
 40
0.2
 50
270.0
 51
289.9999999999892
1001
GENIUS_GENODEF_13
1002
{
1000
HIER
1070
     0
1002
}
1002
{
1000
MANEDIT
1070
     0
1002
}
1002
{
1000
NOSEL
1070
     0
1002
}
1002
{
1000
BEHIND
1070
     0
1002
}
1002
{
1000
OTHER
1070
     0
1002
}
1002
{
1000
REACTOR
1002
}
1001
GENIUS_GENOBJ-N-FIL_13
1002
{
1000
OWNER
1000
GEN
1002
}
  0
LINE
  5
17AA
  8
240
 10
-18.000000000005461
 20
25.999999999983629
 30
0.0
 11
-18.000000000005461
 21
20.999999999985452
 31
0.0
  0
ARC
  5
17AB
  8
240
 10
-17.500000000005461
 20
25.999999999983629
 30
0.0
 40
0.5
 50
90.0
 51
180.0
  0
LINE
  5
17AC
  8
240
 10
-9.0352653961472242
 20
26.499999999978169
 30
0.0
 11
-17.500000000005461
 21
26.499999999983629
 31
0.0
  0
LINE
  5
17AD
  8
241
 10
-9.0000000000018172
 20
-26.499999999998028
 30
0.0
 11
-9.0000000000018172
 21
26.499999999979991
 31
0.0
  0
LINE
  5
17AE
  8
241
 10
-9.0000000000018172
 20
20.199999999980719
 30
0.0
 11
-17.500000000005461
 21
20.199999999980719
 31
0.0
  0
LINE
  5
17AF
  8
240
 10
-8.9668613674821245
 20
26.512061475821611
 30
0.0
 11
-7.7919544528940596
 21
26.939692620764621
 31
0.0
  0
ARC
  5
17B0
  8
240
 10
-7.4499343095685608
 20
25.999999999978169
 30
0.0
 40
1.0
 50
90.0
 51
109.9999999999892
1001
GENIUS_GENODEF_13
1002
{
1000
HIER
1070
     0
1002
}
1002
{
1000
MANEDIT
1070
     0
1002
}
1002
{
1000
NOSEL
1070
     0
1002
}
1002
{
1000
BEHIND
1070
     0
1002
}
1002
{
1000
OTHER
1070
     0
1002
}
1002
{
1000
REACTOR
1002
}
1001
GENIUS_GENOBJ-N-FIL_13
1002
{
1000
OWNER
1000
GEN
1002
}
  0
LINE
  5
17B1
  8
240
 10
-0.635674490395104
 20
26.999999999978169
 30
0.0
 11
-7.4499343095685608
 21
26.999999999978169
 31
0.0
  0
LINE
  5
17B2
  8
240
 10
-0.5085079428808969
 20
26.965925826269089
 30
0.0
 11
-0.635674490395104
 21
26.999999999978169
 31
0.0
  0
ARC
  5
17B3
  8
240
 10
-0.7673269879833243
 20
25.999999999978169
 30
0.0
 40
1.0
 50
14.999999999994451
 51
75.000000000005556
1001
GENIUS_GENOBJ-N-FIL_13
1002
{
1000
OWNER
1000
GEN
1002
}
1001
GENIUS_GENODEF_13
1002
{
1000
HIER
1070
     0
1002
}
1002
{
1000
MANEDIT
1070
     0
1002
}
1002
{
1000
NOSEL
1070
     0
1002
}
1002
{
1000
BEHIND
1070
     0
1002
}
1002
{
1000
OTHER
1070
     0
1002
}
1002
{
1000
REACTOR
1002
}
  0
LINE
  5
17B4
  8
240
 10
0.1985988383075892
 20
26.258819045082419
 30
0.0
 11
1.8378150241642279
 21
20.14118095489221
 31
0.0
  0
LINE
  5
17B5
  8
240
 10
-18.000000000005461
 20
19.699999999986169
 30
0.0
 11
-19.700000000006181
 21
19.699999999986169
 31
0.0
  0
LINE
  5
17B6
  8
240
 10
-19.700000000006181
 20
19.699999999986169
 30
0.0
 11
-20.000000000005461
 21
19.999999999985452
 31
0.0
  0
ARC
  5
17B7
  8
240
 10
-18.000000000005461
 20
20.199999999986179
 30
0.0
 40
0.5
 50
270.0
 51
0.0
  0
LINE
  5
17B8
  8
240
 10
-17.500000000005461
 20
20.49999999998181
 30
0.0
 11
-17.500000000005461
 21
20.199999999986179
 31
0.0
  0
LINE
  5
17B9
  8
240
 10
-17.500000000005461
 20
20.49999999998181
 30
0.0
 11
-18.000000000005461
 21
20.999999999985452
 31
0.0
  0
LINE
  5
17BA
  8
240
 10
-51.500000000020009
 20
19.999999999983629
 30
0.0
 11
-45.199999999995271
 21
19.99999999998181
 31
0.0
  0
LINE
  5
17BB
  8
243
 10
-60.000000000021828
 20
16.499999999983629
 30
0.0
 11
-60.000000000010907
 21
-16.500000000016371
 31
0.0
  0
LINE
  5
17BC
  8
240
 10
-55.000000000020009
 20
16.499999999983629
 30
0.0
 11
-51.500000000020009
 21
19.999999999983629
 31
0.0
  0
LINE
  5
17BD
  8
240
 10
-55.000000000020009
 20
16.499999999983629
 30
0.0
 11
-66.000000000005457
 21
16.499999999983629
 31
0.0
  0
LINE
  5
17BE
  8
240
 10
-76.999999999987267
 20
16.49999999998181
 30
0.0
 11
-66.000000000001819
 21
16.499999999956341
 31
0.0
  0
LINE
  5
17BF
  8
240
 10
-76.999999999987267
 20
16.49999999998181
 30
0.0
 11
-80.499999999990905
 21
19.99999999998181
 31
0.0
  0
LINE
  5
17C0
  8
240
 10
-42.300000000008367
 20
19.999999999983629
 30
0.0
 11
-31.699999999998909
 21
19.999999999985452
 31
0.0
  0
LINE
  5
17C1
  8
240
 10
-28.800000000012009
 20
19.999999999985452
 30
0.0
 11
-20.000000000005461
 21
19.999999999985452
 31
0.0
  0
CIRCLE
  5
17C2
  8
241
 10
-37.000000000001819
 20
-0.0000000000163709
 30
0.0
 40
3.0000000000009091
  0
LINE
  5
17C3
  8
241
 10
-7.6262612902773981
 20
26.999999999978169
 30
0.0
 11
-7.6262612902773981
 21
-26.99999999999396
 31
0.0
  0
LINE
  5
17C4
  8
241
 10
3.999999999998181
 20
19.399999999995991
 30
0.0
 11
4.0000000000018181
 21
-19.399999999995991
 31
0.0
  0
LINE
  5
17C5
  8
240
 10
-18.000000000005461
 20
-26.000000000016371
 30
0.0
 11
-18.000000000005461
 21
-21.00000000001819
 31
0.0
  0
LINE
  5
17C6
  8
241
 10
-9.0000000000018172
 20
-20.200000000013461
 30
0.0
 11
-17.500000000005461
 21
-20.200000000013461
 31
0.0
  0
LINE
  5
17C7
  8
240
 10
0.1985988383075892
 20
-26.25881904511516
 30
0.0
 11
1.8378150241660469
 21
-20.141180954893571
 31
0.0
  0
LINE
  5
17C8
  8
240
 10
-18.000000000005461
 20
-19.700000000018921
 30
0.0
 11
-19.700000000006181
 21
-19.700000000018921
 31
0.0
  0
LINE
  5
17C9
  8
240
 10
-19.700000000006181
 20
-19.700000000018921
 30
0.0
 11
-20.000000000005461
 21
-20.00000000001819
 31
0.0
  0
ARC
  5
17CA
  8
240
 10
-18.000000000005461
 20
-20.200000000018921
 30
0.0
 40
0.5
 50
0.0
 51
90.0
  0
LINE
  5
17CB
  8
240
 10
-17.500000000005461
 20
-20.500000000014548
 30
0.0
 11
-17.500000000005461
 21
-20.200000000018921
 31
0.0
  0
LINE
  5
17CC
  8
240
 10
-17.500000000005461
 20
-20.500000000014548
 30
0.0
 11
-18.000000000005461
 21
-21.00000000001819
 31
0.0
  0
LINE
  5
17CD
  8
240
 10
-51.500000000020009
 20
-20.000000000016371
 30
0.0
 11
-45.199999999995271
 21
-20.000000000014548
 31
0.0
  0
LINE
  5
17CE
  8
243
 10
-72.000000000001819
 20
-16.500000000002728
 30
0.0
 11
-72.000000000001819
 21
16.499999999970441
 31
0.0
  0
LINE
  5
17CF
  8
240
 10
-55.000000000020009
 20
-16.500000000016371
 30
0.0
 11
-51.500000000020009
 21
-20.000000000016371
 31
0.0
  0
LINE
  5
17D0
  8
240
 10
-55.000000000020009
 20
-16.500000000016371
 30
0.0
 11
-66.000000000005457
 21
-16.500000000016371
 31
0.0
  0
LINE
  5
17D1
  8
240
 10
-76.999999999987267
 20
-16.500000000014548
 30
0.0
 11
-66.000000000001819
 21
-16.499999999989079
 31
0.0
  0
LINE
  5
17D2
  8
240
 10
-76.999999999987267
 20
-16.500000000014548
 30
0.0
 11
-80.499999999990905
 21
-20.000000000014548
 31
0.0
  0
LINE
  5
17D3
  8
240
 10
-42.300000000008367
 20
-20.000000000016371
 30
0.0
 11
-31.699999999998909
 21
-20.00000000001819
 31
0.0
  0
LINE
  5
17D4
  8
240
 10
-28.800000000012009
 20
-20.00000000001819
 30
0.0
 11
-20.000000000005461
 21
-20.00000000001819
 31
0.0
  0
LINE
  5
17D5
  8
241
 10
-20.000000000005461
 20
-20.00000000001819
 30
0.0
 11
-20.000000000005461
 21
19.999999999985452
 31
0.0
  0
LINE
  5
17D6
  8
241
 10
-18.000000000005461
 20
19.699999999986169
 30
0.0
 11
-18.000000000005461
 21
-19.700000000018459
 31
0.0
  0
LINE
  5
17D7
  8
241
 10
44.39999999999236
 20
-19.499999999999091
 30
0.0
 11
44.39999999999236
 21
19.499999999999091
 31
0.0
  0
LINE
  5
17D8
  8
241
 10
42.999999999998181
 20
-19.499999999998629
 30
0.0
 11
43.000000000005457
 21
19.499999999998629
 31
0.0
  0
LINE
  5
17D9
  8
241
 10
41.399999999992353
 20
-19.499999999999542
 30
0.0
 11
41.399999999992353
 21
19.499999999999542
 31
0.0
  0
LINE
  5
17DA
  8
241
 10
2.0364138624736361
 20
-19.399999999995089
 30
0.0
 11
2.0364138624736361
 21
19.39999999999554
 31
0.0
  0
POLYLINE
  5
17DB
  8
242
 10
56.999999999998181
 20
-13.495369576266089
 30
0.0
 66
     1
 70
     8
  0
VERTEX
  8
242
  5
1A1D
 10
57.0000
 20
-13.4954
 30
0.000000
  70
    32
  0
VERTEX
  8
242
  5
1A1E
 10
56.9952
 20
-13.6342
 30
0.000000
  70
    32
  0
VERTEX
  8
242
  5
1A1F
 10
56.9807
 20
-13.7726
 30
0.000000
  70
    32
  0
VERTEX
  8
242
  5
1A20
 10
56.9567
 20
-13.9104
 30
0.000000
  70
    32
  0
VERTEX
  8
242
  5
1A21
 10
56.9231
 20
-14.0472
 30
0.000000
  70
    32
  0
VERTEX
  8
242
  5
1A22
 10
56.8801
 20
-14.1826
 30
0.000000
  70
    32
  0
VERTEX
  8
242
  5
1A23
 10
56.8278
 20
-14.3164
 30
0.000000
  70
    32
  0
VERTEX
  8
242
  5
1A24
 10
56.7662
 20
-14.4482
 30
0.000000
  70
    32
  0
VERTEX
  8
242
  5
1A25
 10
56.6955
 20
-14.5778
 30
0.000000
  70
    32
  0
VERTEX
  8
242
  5
1A26
 10
56.6160
 20
-14.7047
 30
0.000000
  70
    32
  0
VERTEX
  8
242
  5
1A27
 10
56.5277
 20
-14.8287
 30
0.000000
  70
    32
  0
VERTEX
  8
242
  5
1A28
 10
56.4309
 20
-14.9495
 30
0.000000
  70
    32
  0
VERTEX
  8
242
  5
1A29
 10
56.3259
 20
-15.0668
 30
0.000000
  70
    32
  0
VERTEX
  8
242
  5
1A2A
 10
56.2128
 20
-15.1803
 30
0.000000
  70
    32
  0
VERTEX
  8
242
  5
1A2B
 10
56.0920
 20
-15.2897
 30
0.000000
  70
    32
  0
VERTEX
  8
242
  5
1A2C
 10
55.9638
 20
-15.3948
 30
0.000000
  70
    32
  0
VERTEX
  8
242
  5
1A2D
 10
55.8284
 20
-15.4954
 30
0.000000
  70
    32
  0
VERTEX
  8
242
  5
1A2E
 10
55.6862
 20
-15.5911
 30
0.000000
  70
    32
  0
VERTEX
  8
242
  5
1A2F
 10
55.5376
 20
-15.6818
 30
0.000000
  70
    32
  0
VERTEX
  8
242
  5
1A30
 10
55.3828
 20
-15.7672
 30
0.000000
  70
    32
  0
VERTEX
  8
242
  5
1A31
 10
55.2223
 20
-15.8471
 30
0.000000
  70
    32
  0
VERTEX
  8
242
  5
1A32
 10
55.0564
 20
-15.9214
 30
0.000000
  70
    32
  0
VERTEX
  8
242
  5
1A33
 10
54.8856
 20
-15.9898
 30
0.000000
  70
    32
  0
VERTEX
  8
242
  5
1A34
 10
54.7102
 20
-16.0522
 30
0.000000
  70
    32
  0
VERTEX
  8
242
  5
1A35
 10
54.5307
 20
-16.1085
 30
0.000000
  70
    32
  0
VERTEX
  8
242
  5
1A36
 10
54.3476
 20
-16.1585
 30
0.000000
  70
    32
  0
VERTEX
  8
242
  5
1A37
 10
54.1611
 20
-16.2020
 30
0.000000
  70
    32
  0
VERTEX
  8
242
  5
1A38
 10
53.9719
 20
-16.2390
 30
0.000000
  70
    32
  0
VERTEX
  8
242
  5
1A39
 10
53.7804
 20
-16.2694
 30
0.000000
  70
    32
  0
VERTEX
  8
242
  5
1A3A
 10
53.5869
 20
-16.2932
 30
0.000000
  70
    32
  0
VERTEX
  8
242
  5
1A3B
 10
53.3921
 20
-16.3102
 30
0.000000
  70
    32
  0
VERTEX
  8
242
  5
1A3C
 10
53.1963
 20
-16.3204
 30
0.000000
  70
    32
  0
VERTEX
  8
242
  5
1A3D
 10
53.0000
 20
-16.3238
 30
0.000000
  70
    32
  0
VERTEX
  8
242
  5
1A3E
 10
52.8037
 20
-16.3204
 30
0.000000
  70
    32
  0
VERTEX
  8
242
  5
1A3F
 10
52.6079
 20
-16.3102
 30
0.000000
  70
    32
  0
VERTEX
  8
242
  5
1A40
 10
52.4131
 20
-16.2932
 30
0.000000
  70
    32
  0
VERTEX
  8
242
  5
1A41
 10
52.2196
 20
-16.2694
 30
0.000000
  70
    32
  0
VERTEX
  8
242
  5
1A42
 10
52.0281
 20
-16.2390
 30
0.000000
  70
    32
  0
VERTEX
  8
242
  5
1A43
 10
51.8389
 20
-16.2020
 30
0.000000
  70
    32
  0
VERTEX
  8
242
  5
1A44
 10
51.6524
 20
-16.1585
 30
0.000000
  70
    32
  0
VERTEX
  8
242
  5
1A45
 10
51.4693
 20
-16.1085
 30
0.000000
  70
    32
  0
VERTEX
  8
242
  5
1A46
 10
51.2898
 20
-16.0522
 30
0.000000
  70
    32
  0
VERTEX
  8
242
  5
1A47
 10
51.1144
 20
-15.9898
 30
0.000000
  70
    32
  0
VERTEX
  8
242
  5
1A48
 10
50.9436
 20
-15.9214
 30
0.000000
  70
    32
  0
VERTEX
  8
242
  5
1A49
 10
50.7777
 20
-15.8471
 30
0.000000
  70
    32
  0
VERTEX
  8
242
  5
1A4A
 10
50.6172
 20
-15.7672
 30
0.000000
  70
    32
  0
VERTEX
  8
242
  5
1A4B
 10
50.4624
 20
-15.6818
 30
0.000000
  70
    32
  0
VERTEX
  8
242
  5
1A4C
 10
50.3138
 20
-15.5911
 30
0.000000
  70
    32
  0
VERTEX
  8
242
  5
1A4D
 10
50.1716
 20
-15.4954
 30
0.000000
  70
    32
  0
VERTEX
  8
242
  5
1A4E
 10
50.0362
 20
-15.3948
 30
0.000000
  70
    32
  0
VERTEX
  8
242
  5
1A4F
 10
49.9080
 20
-15.2897
 30
0.000000
  70
    32
  0
VERTEX
  8
242
  5
1A50
 10
49.7872
 20
-15.1803
 30
0.000000
  70
    32
  0
VERTEX
  8
242
  5
1A51
 10
49.6741
 20
-15.0668
 30
0.000000
  70
    32
  0
VERTEX
  8
242
  5
1A52
 10
49.5691
 20
-14.9495
 30
0.000000
  70
    32
  0
VERTEX
  8
242
  5
1A53
 10
49.4723
 20
-14.8287
 30
0.000000
  70
    32
  0
VERTEX
  8
242
  5
1A54
 10
49.3840
 20
-14.7047
 30
0.000000
  70
    32
  0
VERTEX
  8
242
  5
1A55
 10
49.3045
 20
-14.5778
 30
0.000000
  70
    32
  0
VERTEX
  8
242
  5
1A56
 10
49.2338
 20
-14.4482
 30
0.000000
  70
    32
  0
VERTEX
  8
242
  5
1A57
 10
49.1722
 20
-14.3164
 30
0.000000
  70
    32
  0
VERTEX
  8
242
  5
1A58
 10
49.1199
 20
-14.1826
 30
0.000000
  70
    32
  0
VERTEX
  8
242
  5
1A59
 10
49.0769
 20
-14.0472
 30
0.000000
  70
    32
  0
VERTEX
  8
242
  5
1A5A
 10
49.0433
 20
-13.9104
 30
0.000000
  70
    32
  0
VERTEX
  8
242
  5
1A5B
 10
49.0193
 20
-13.7726
 30
0.000000
  70
    32
  0
VERTEX
  8
242
  5
1A5C
 10
49.0048
 20
-13.6342
 30
0.000000
  70
    32
  0
VERTEX
  8
242
  5
1A5D
 10
49.0000
 20
-13.4954
 30
0.000000
  70
    32
  0
VERTEX
  8
242
  5
1A5E
 10
49.0048
 20
-13.3566
 30
0.000000
  70
    32
  0
VERTEX
  8
242
  5
1A5F
 10
49.0193
 20
-13.2181
 30
0.000000
  70
    32
  0
VERTEX
  8
242
  5
1A60
 10
49.0433
 20
-13.0804
 30
0.000000
  70
    32
  0
VERTEX
  8
242
  5
1A61
 10
49.0769
 20
-12.9436
 30
0.000000
  70
    32
  0
VERTEX
  8
242
  5
1A62
 10
49.1199
 20
-12.8081
 30
0.000000
  70
    32
  0
VERTEX
  8
242
  5
1A63
 10
49.1722
 20
-12.6743
 30
0.000000
  70
    32
  0
VERTEX
  8
242
  5
1A64
 10
49.2338
 20
-12.5425
 30
0.000000
  70
    32
  0
VERTEX
  8
242
  5
1A65
 10
49.3045
 20
-12.4130
 30
0.000000
  70
    32
  0
VERTEX
  8
242
  5
1A66
 10
49.3840
 20
-12.2861
 30
0.000000
  70
    32
  0
VERTEX
  8
242
  5
1A67
 10
49.4723
 20
-12.1621
 30
0.000000
  70
    32
  0
VERTEX
  8
242
  5
1A68
 10
49.5691
 20
-12.0413
 30
0.000000
  70
    32
  0
VERTEX
  8
242
  5
1A69
 10
49.6741
 20
-11.9240
 30
0.000000
  70
    32
  0
VERTEX
  8
242
  5
1A6A
 10
49.7872
 20
-11.8105
 30
0.000000
  70
    32
  0
VERTEX
  8
242
  5
1A6B
 10
49.9080
 20
-11.7010
 30
0.000000
  70
    32
  0
VERTEX
  8
242
  5
1A6C
 10
50.0362
 20
-11.5959
 30
0.000000
  70
    32
  0
VERTEX
  8
242
  5
1A6D
 10
50.1716
 20
-11.4954
 30
0.000000
  70
    32
  0
VERTEX
  8
242
  5
1A6E
 10
50.3138
 20
-11.3996
 30
0.000000
  70
    32
  0
VERTEX
  8
242
  5
1A6F
 10
50.4624
 20
-11.3090
 30
0.000000
  70
    32
  0
VERTEX
  8
242
  5
1A70
 10
50.6172
 20
-11.2236
 30
0.000000
  70
    32
  0
VERTEX
  8
242
  5
1A71
 10
50.7777
 20
-11.1436
 30
0.000000
  70
    32
  0
VERTEX
  8
242
  5
1A72
 10
50.9436
 20
-11.0693
 30
0.000000
  70
    32
  0
VERTEX
  8
242
  5
1A73
 10
51.1144
 20
-11.0009
 30
0.000000
  70
    32
  0
VERTEX
  8
242
  5
1A74
 10
51.2898
 20
-10.9385
 30
0.000000
  70
    32
  0
VERTEX
  8
242
  5
1A75
 10
51.4693
 20
-10.8822
 30
0.000000
  70
    32
  0
VERTEX
  8
242
  5
1A76
 10
51.6524
 20
-10.8323
 30
0.000000
  70
    32
  0
VERTEX
  8
242
  5
1A77
 10
51.8389
 20
-10.7887
 30
0.000000
  70
    32
  0
VERTEX
  8
242
  5
1A78
 10
52.0281
 20
-10.7517
 30
0.000000
  70
    32
  0
VERTEX
  8
242
  5
1A79
 10
52.2196
 20
-10.7213
 30
0.000000
  70
    32
  0
VERTEX
  8
242
  5
1A7A
 10
52.4131
 20
-10.6976
 30
0.000000
  70
    32
  0
VERTEX
  8
242
  5
1A7B
 10
52.6079
 20
-10.6806
 30
0.000000
  70
    32
  0
VERTEX
  8
242
  5
1A7C
 10
52.8037
 20
-10.6703
 30
0.000000
  70
    32
  0
VERTEX
  8
242
  5
1A7D
 10
53.0000
 20
-10.6669
 30
0.000000
  70
    32
  0
VERTEX
  8
242
  5
1A7E
 10
53.1963
 20
-10.6703
 30
0.000000
  70
    32
  0
VERTEX
  8
242
  5
1A7F
 10
53.3921
 20
-10.6806
 30
0.000000
  70
    32
  0
VERTEX
  8
242
  5
1A80
 10
53.5869
 20
-10.6976
 30
0.000000
  70
    32
  0
VERTEX
  8
242
  5
1A81
 10
53.7804
 20
-10.7213
 30
0.000000
  70
    32
  0
VERTEX
  8
242
  5
1A82
 10
53.9719
 20
-10.7517
 30
0.000000
  70
    32
  0
VERTEX
  8
242
  5
1A83
 10
54.1611
 20
-10.7887
 30
0.000000
  70
    32
  0
VERTEX
  8
242
  5
1A84
 10
54.3476
 20
-10.8323
 30
0.000000
  70
    32
  0
VERTEX
  8
242
  5
1A85
 10
54.5307
 20
-10.8822
 30
0.000000
  70
    32
  0
VERTEX
  8
242
  5
1A86
 10
54.7102
 20
-10.9385
 30
0.000000
  70
    32
  0
VERTEX
  8
242
  5
1A87
 10
54.8856
 20
-11.0009
 30
0.000000
  70
    32
  0
VERTEX
  8
242
  5
1A88
 10
55.0564
 20
-11.0693
 30
0.000000
  70
    32
  0
VERTEX
  8
242
  5
1A89
 10
55.2223
 20
-11.1436
 30
0.000000
  70
    32
  0
VERTEX
  8
242
  5
1A8A
 10
55.3828
 20
-11.2236
 30
0.000000
  70
    32
  0
VERTEX
  8
242
  5
1A8B
 10
55.5376
 20
-11.3090
 30
0.000000
  70
    32
  0
VERTEX
  8
242
  5
1A8C
 10
55.6862
 20
-11.3996
 30
0.000000
  70
    32
  0
VERTEX
  8
242
  5
1A8D
 10
55.8284
 20
-11.4954
 30
0.000000
  70
    32
  0
VERTEX
  8
242
  5
1A8E
 10
55.9638
 20
-11.5959
 30
0.000000
  70
    32
  0
VERTEX
  8
242
  5
1A8F
 10
56.0920
 20
-11.7010
 30
0.000000
  70
    32
  0
VERTEX
  8
242
  5
1A90
 10
56.2128
 20
-11.8105
 30
0.000000
  70
    32
  0
VERTEX
  8
242
  5
1A91
 10
56.3259
 20
-11.9240
 30
0.000000
  70
    32
  0
VERTEX
  8
242
  5
1A92
 10
56.4309
 20
-12.0413
 30
0.000000
  70
    32
  0
VERTEX
  8
242
  5
1A93
 10
56.5277
 20
-12.1621
 30
0.000000
  70
    32
  0
VERTEX
  8
242
  5
1A94
 10
56.6160
 20
-12.2861
 30
0.000000
  70
    32
  0
VERTEX
  8
242
  5
1A95
 10
56.6955
 20
-12.4130
 30
0.000000
  70
    32
  0
VERTEX
  8
242
  5
1A96
 10
56.7662
 20
-12.5425
 30
0.000000
  70
    32
  0
VERTEX
  8
242
  5
1A97
 10
56.8278
 20
-12.6743
 30
0.000000
  70
    32
  0
VERTEX
  8
242
  5
1A98
 10
56.8801
 20
-12.8081
 30
0.000000
  70
    32
  0
VERTEX
  8
242
  5
1A99
 10
56.9231
 20
-12.9436
 30
0.000000
  70
    32
  0
VERTEX
  8
242
  5
1A9A
 10
56.9567
 20
-13.0804
 30
0.000000
  70
    32
  0
VERTEX
  8
242
  5
1A9B
 10
56.9807
 20
-13.2181
 30
0.000000
  70
    32
  0
VERTEX
  8
242
  5
1A9C
 10
56.9952
 20
-13.3566
 30
0.000000
  70
    32
  0
VERTEX
  8
242
  5
1A9D
 10
57.0000
 20
-13.4954
 30
0.000000
  70
    32
  0
SEQEND
  8
242
  5
1A9E
  0
POLYLINE
  5
17DC
  8
241
 10
49.624999999998181
 20
-13.580489221674695
 30
0.0
 66
     1
 70
     8
  0
VERTEX
  8
241
  5
1A9F
 10
49.6250
 20
-13.5805
 30
0.000000
  70
    32
  0
VERTEX
  8
241
  5
1AA0
 10
49.6291
 20
-13.4634
 30
0.000000
  70
    32
  0
VERTEX
  8
241
  5
1AA1
 10
49.6413
 20
-13.3466
 30
0.000000
  70
    32
  0
VERTEX
  8
241
  5
1AA2
 10
49.6615
 20
-13.2303
 30
0.000000
  70
    32
  0
VERTEX
  8
241
  5
1AA3
 10
49.6898
 20
-13.1149
 30
0.000000
  70
    32
  0
VERTEX
  8
241
  5
1AA4
 10
49.7261
 20
-13.0006
 30
0.000000
  70
    32
  0
VERTEX
  8
241
  5
1AA5
 10
49.7703
 20
-12.8877
 30
0.000000
  70
    32
  0
VERTEX
  8
241
  5
1AA6
 10
49.8223
 20
-12.7765
 30
0.000000
  70
    32
  0
VERTEX
  8
241
  5
1AA7
 10
49.8819
 20
-12.6672
 30
0.000000
  70
    32
  0
VERTEX
  8
241
  5
1AA8
 10
49.9490
 20
-12.5601
 30
0.000000
  70
    32
  0
VERTEX
  8
241
  5
1AA9
 10
50.0235
 20
-12.4555
 30
0.000000
  70
    32
  0
VERTEX
  8
241
  5
1AAA
 10
50.1052
 20
-12.3536
 30
0.000000
  70
    32
  0
VERTEX
  8
241
  5
1AAB
 10
50.1938
 20
-12.2546
 30
0.000000
  70
    32
  0
VERTEX
  8
241
  5
1AAC
 10
50.2892
 20
-12.1589
 30
0.000000
  70
    32
  0
VERTEX
  8
241
  5
1AAD
 10
50.3911
 20
-12.0665
 30
0.000000
  70
    32
  0
VERTEX
  8
241
  5
1AAE
 10
50.4993
 20
-11.9778
 30
0.000000
  70
    32
  0
VERTEX
  8
241
  5
1AAF
 10
50.6135
 20
-11.8930
 30
0.000000
  70
    32
  0
VERTEX
  8
241
  5
1AB0
 10
50.7335
 20
-11.8122
 30
0.000000
  70
    32
  0
VERTEX
  8
241
  5
1AB1
 10
50.8589
 20
-11.7357
 30
0.000000
  70
    32
  0
VERTEX
  8
241
  5
1AB2
 10
50.9895
 20
-11.6636
 30
0.000000
  70
    32
  0
VERTEX
  8
241
  5
1AB3
 10
51.1250
 20
-11.5962
 30
0.000000
  70
    32
  0
VERTEX
  8
241
  5
1AB4
 10
51.2649
 20
-11.5335
 30
0.000000
  70
    32
  0
VERTEX
  8
241
  5
1AB5
 10
51.4090
 20
-11.4758
 30
0.000000
  70
    32
  0
VERTEX
  8
241
  5
1AB6
 10
51.5570
 20
-11.4231
 30
0.000000
  70
    32
  0
VERTEX
  8
241
  5
1AB7
 10
51.7084
 20
-11.3757
 30
0.000000
  70
    32
  0
VERTEX
  8
241
  5
1AB8
 10
51.8630
 20
-11.3335
 30
0.000000
  70
    32
  0
VERTEX
  8
241
  5
1AB9
 10
52.0203
 20
-11.2968
 30
0.000000
  70
    32
  0
VERTEX
  8
241
  5
1ABA
 10
52.1799
 20
-11.2655
 30
0.000000
  70
    32
  0
VERTEX
  8
241
  5
1ABB
 10
52.3416
 20
-11.2399
 30
0.000000
  70
    32
  0
VERTEX
  8
241
  5
1ABC
 10
52.5048
 20
-11.2198
 30
0.000000
  70
    32
  0
VERTEX
  8
241
  5
1ABD
 10
52.6692
 20
-11.2055
 30
0.000000
  70
    32
  0
VERTEX
  8
241
  5
1ABE
 10
52.8344
 20
-11.1969
 30
0.000000
  70
    32
  0
VERTEX
  8
241
  5
1ABF
 10
53.0000
 20
-11.1940
 30
0.000000
  70
    32
  0
VERTEX
  8
241
  5
1AC0
 10
53.1656
 20
-11.1969
 30
0.000000
  70
    32
  0
VERTEX
  8
241
  5
1AC1
 10
53.3308
 20
-11.2055
 30
0.000000
  70
    32
  0
VERTEX
  8
241
  5
1AC2
 10
53.4952
 20
-11.2198
 30
0.000000
  70
    32
  0
VERTEX
  8
241
  5
1AC3
 10
53.6584
 20
-11.2399
 30
0.000000
  70
    32
  0
VERTEX
  8
241
  5
1AC4
 10
53.8201
 20
-11.2655
 30
0.000000
  70
    32
  0
VERTEX
  8
241
  5
1AC5
 10
53.9797
 20
-11.2968
 30
0.000000
  70
    32
  0
VERTEX
  8
241
  5
1AC6
 10
54.1370
 20
-11.3335
 30
0.000000
  70
    32
  0
VERTEX
  8
241
  5
1AC7
 10
54.2916
 20
-11.3757
 30
0.000000
  70
    32
  0
VERTEX
  8
241
  5
1AC8
 10
54.4430
 20
-11.4231
 30
0.000000
  70
    32
  0
VERTEX
  8
241
  5
1AC9
 10
54.5910
 20
-11.4758
 30
0.000000
  70
    32
  0
VERTEX
  8
241
  5
1ACA
 10
54.7351
 20
-11.5335
 30
0.000000
  70
    32
  0
VERTEX
  8
241
  5
1ACB
 10
54.8750
 20
-11.5962
 30
0.000000
  70
    32
  0
VERTEX
  8
241
  5
1ACC
 10
55.0105
 20
-11.6636
 30
0.000000
  70
    32
  0
VERTEX
  8
241
  5
1ACD
 10
55.1411
 20
-11.7357
 30
0.000000
  70
    32
  0
VERTEX
  8
241
  5
1ACE
 10
55.2665
 20
-11.8122
 30
0.000000
  70
    32
  0
VERTEX
  8
241
  5
1ACF
 10
55.3865
 20
-11.8930
 30
0.000000
  70
    32
  0
VERTEX
  8
241
  5
1AD0
 10
55.5007
 20
-11.9778
 30
0.000000
  70
    32
  0
VERTEX
  8
241
  5
1AD1
 10
55.6089
 20
-12.0665
 30
0.000000
  70
    32
  0
VERTEX
  8
241
  5
1AD2
 10
55.7108
 20
-12.1589
 30
0.000000
  70
    32
  0
VERTEX
  8
241
  5
1AD3
 10
55.8062
 20
-12.2546
 30
0.000000
  70
    32
  0
VERTEX
  8
241
  5
1AD4
 10
55.8948
 20
-12.3536
 30
0.000000
  70
    32
  0
VERTEX
  8
241
  5
1AD5
 10
55.9765
 20
-12.4555
 30
0.000000
  70
    32
  0
VERTEX
  8
241
  5
1AD6
 10
56.0510
 20
-12.5601
 30
0.000000
  70
    32
  0
VERTEX
  8
241
  5
1AD7
 10
56.1181
 20
-12.6672
 30
0.000000
  70
    32
  0
VERTEX
  8
241
  5
1AD8
 10
56.1777
 20
-12.7765
 30
0.000000
  70
    32
  0
VERTEX
  8
241
  5
1AD9
 10
56.2297
 20
-12.8877
 30
0.000000
  70
    32
  0
VERTEX
  8
241
  5
1ADA
 10
56.2739
 20
-13.0006
 30
0.000000
  70
    32
  0
VERTEX
  8
241
  5
1ADB
 10
56.3102
 20
-13.1149
 30
0.000000
  70
    32
  0
VERTEX
  8
241
  5
1ADC
 10
56.3385
 20
-13.2303
 30
0.000000
  70
    32
  0
VERTEX
  8
241
  5
1ADD
 10
56.3587
 20
-13.3466
 30
0.000000
  70
    32
  0
VERTEX
  8
241
  5
1ADE
 10
56.3709
 20
-13.4634
 30
0.000000
  70
    32
  0
VERTEX
  8
241
  5
1ADF
 10
56.3750
 20
-13.5805
 30
0.000000
  70
    32
  0
VERTEX
  8
241
  5
1AE0
 10
56.3709
 20
-13.6976
 30
0.000000
  70
    32
  0
VERTEX
  8
241
  5
1AE1
 10
56.3587
 20
-13.8144
 30
0.000000
  70
    32
  0
VERTEX
  8
241
  5
1AE2
 10
56.3385
 20
-13.9307
 30
0.000000
  70
    32
  0
VERTEX
  8
241
  5
1AE3
 10
56.3102
 20
-14.0461
 30
0.000000
  70
    32
  0
VERTEX
  8
241
  5
1AE4
 10
56.2739
 20
-14.1604
 30
0.000000
  70
    32
  0
VERTEX
  8
241
  5
1AE5
 10
56.2297
 20
-14.2732
 30
0.000000
  70
    32
  0
VERTEX
  8
241
  5
1AE6
 10
56.1777
 20
-14.3845
 30
0.000000
  70
    32
  0
VERTEX
  8
241
  5
1AE7
 10
56.1181
 20
-14.4938
 30
0.000000
  70
    32
  0
VERTEX
  8
241
  5
1AE8
 10
56.0510
 20
-14.6008
 30
0.000000
  70
    32
  0
VERTEX
  8
241
  5
1AE9
 10
55.9765
 20
-14.7055
 30
0.000000
  70
    32
  0
VERTEX
  8
241
  5
1AEA
 10
55.8948
 20
-14.8074
 30
0.000000
  70
    32
  0
VERTEX
  8
241
  5
1AEB
 10
55.8062
 20
-14.9063
 30
0.000000
  70
    32
  0
VERTEX
  8
241
  5
1AEC
 10
55.7108
 20
-15.0021
 30
0.000000
  70
    32
  0
VERTEX
  8
241
  5
1AED
 10
55.6089
 20
-15.0945
 30
0.000000
  70
    32
  0
VERTEX
  8
241
  5
1AEE
 10
55.5007
 20
-15.1832
 30
0.000000
  70
    32
  0
VERTEX
  8
241
  5
1AEF
 10
55.3865
 20
-15.2680
 30
0.000000
  70
    32
  0
VERTEX
  8
241
  5
1AF0
 10
55.2665
 20
-15.3488
 30
0.000000
  70
    32
  0
VERTEX
  8
241
  5
1AF1
 10
55.1411
 20
-15.4253
 30
0.000000
  70
    32
  0
VERTEX
  8
241
  5
1AF2
 10
55.0105
 20
-15.4973
 30
0.000000
  70
    32
  0
VERTEX
  8
241
  5
1AF3
 10
54.8750
 20
-15.5648
 30
0.000000
  70
    32
  0
VERTEX
  8
241
  5
1AF4
 10
54.7351
 20
-15.6274
 30
0.000000
  70
    32
  0
VERTEX
  8
241
  5
1AF5
 10
54.5910
 20
-15.6852
 30
0.000000
  70
    32
  0
VERTEX
  8
241
  5
1AF6
 10
54.4430
 20
-15.7378
 30
0.000000
  70
    32
  0
VERTEX
  8
241
  5
1AF7
 10
54.2916
 20
-15.7853
 30
0.000000
  70
    32
  0
VERTEX
  8
241
  5
1AF8
 10
54.1370
 20
-15.8275
 30
0.000000
  70
    32
  0
VERTEX
  8
241
  5
1AF9
 10
53.9797
 20
-15.8642
 30
0.000000
  70
    32
  0
VERTEX
  8
241
  5
1AFA
 10
53.8201
 20
-15.8955
 30
0.000000
  70
    32
  0
VERTEX
  8
241
  5
1AFB
 10
53.6584
 20
-15.9211
 30
0.000000
  70
    32
  0
VERTEX
  8
241
  5
1AFC
 10
53.4952
 20
-15.9411
 30
0.000000
  70
    32
  0
VERTEX
  8
241
  5
1AFD
 10
53.3308
 20
-15.9555
 30
0.000000
  70
    32
  0
VERTEX
  8
241
  5
1AFE
 10
53.1656
 20
-15.9641
 30
0.000000
  70
    32
  0
VERTEX
  8
241
  5
1AFF
 10
53.0000
 20
-15.9670
 30
0.000000
  70
    32
  0
VERTEX
  8
241
  5
1B00
 10
52.8344
 20
-15.9641
 30
0.000000
  70
    32
  0
VERTEX
  8
241
  5
1B01
 10
52.6692
 20
-15.9555
 30
0.000000
  70
    32
  0
VERTEX
  8
241
  5
1B02
 10
52.5048
 20
-15.9411
 30
0.000000
  70
    32
  0
VERTEX
  8
241
  5
1B03
 10
52.3416
 20
-15.9211
 30
0.000000
  70
    32
  0
VERTEX
  8
241
  5
1B04
 10
52.1799
 20
-15.8955
 30
0.000000
  70
    32
  0
VERTEX
  8
241
  5
1B05
 10
52.0203
 20
-15.8642
 30
0.000000
  70
    32
  0
VERTEX
  8
241
  5
1B06
 10
51.8630
 20
-15.8275
 30
0.000000
  70
    32
  0
VERTEX
  8
241
  5
1B07
 10
51.7084
 20
-15.7853
 30
0.000000
  70
    32
  0
VERTEX
  8
241
  5
1B08
 10
51.5570
 20
-15.7378
 30
0.000000
  70
    32
  0
VERTEX
  8
241
  5
1B09
 10
51.4090
 20
-15.6852
 30
0.000000
  70
    32
  0
VERTEX
  8
241
  5
1B0A
 10
51.2649
 20
-15.6274
 30
0.000000
  70
    32
  0
VERTEX
  8
241
  5
1B0B
 10
51.1250
 20
-15.5648
 30
0.000000
  70
    32
  0
VERTEX
  8
241
  5
1B0C
 10
50.9895
 20
-15.4973
 30
0.000000
  70
    32
  0
VERTEX
  8
241
  5
1B0D
 10
50.8589
 20
-15.4253
 30
0.000000
  70
    32
  0
VERTEX
  8
241
  5
1B0E
 10
50.7335
 20
-15.3488
 30
0.000000
  70
    32
  0
VERTEX
  8
241
  5
1B0F
 10
50.6135
 20
-15.2680
 30
0.000000
  70
    32
  0
VERTEX
  8
241
  5
1B10
 10
50.4993
 20
-15.1832
 30
0.000000
  70
    32
  0
VERTEX
  8
241
  5
1B11
 10
50.3911
 20
-15.0945
 30
0.000000
  70
    32
  0
VERTEX
  8
241
  5
1B12
 10
50.2892
 20
-15.0021
 30
0.000000
  70
    32
  0
VERTEX
  8
241
  5
1B13
 10
50.1938
 20
-14.9063
 30
0.000000
  70
    32
  0
VERTEX
  8
241
  5
1B14
 10
50.1052
 20
-14.8074
 30
0.000000
  70
    32
  0
VERTEX
  8
241
  5
1B15
 10
50.0235
 20
-14.7055
 30
0.000000
  70
    32
  0
VERTEX
  8
241
  5
1B16
 10
49.9490
 20
-14.6008
 30
0.000000
  70
    32
  0
VERTEX
  8
241
  5
1B17
 10
49.8819
 20
-14.4938
 30
0.000000
  70
    32
  0
VERTEX
  8
241
  5
1B18
 10
49.8223
 20
-14.3845
 30
0.000000
  70
    32
  0
VERTEX
  8
241
  5
1B19
 10
49.7703
 20
-14.2732
 30
0.000000
  70
    32
  0
VERTEX
  8
241
  5
1B1A
 10
49.7261
 20
-14.1604
 30
0.000000
  70
    32
  0
VERTEX
  8
241
  5
1B1B
 10
49.6898
 20
-14.0461
 30
0.000000
  70
    32
  0
VERTEX
  8
241
  5
1B1C
 10
49.6615
 20
-13.9307
 30
0.000000
  70
    32
  0
VERTEX
  8
241
  5
1B1D
 10
49.6413
 20
-13.8144
 30
0.000000
  70
    32
  0
VERTEX
  8
241
  5
1B1E
 10
49.6291
 20
-13.6976
 30
0.000000
  70
    32
  0
VERTEX
  8
241
  5
1B1F
 10
49.6250
 20
-13.5805
 30
0.000000
  70
    32
  0
SEQEND
  8
241
  5
1B20
  0
LINE
  5
17DD
  8
245
  6
CENTER2
 10
48.999999999998181
 20
-13.788582233138181
 30
0.0
 11
56.999999999998181
 21
-13.788582233137269
 31
0.0
  0
LINE
  5
17DE
  8
245
  6
CENTER2
 10
52.999999999998181
 20
-10.666942451519841
 30
0.0
 11
53.0
 21
-16.323796701012721
 31
0.0
  0
LINE
  5
17DF
  8
240
 10
-90.000000000000895
 20
19.136539030918811
 30
0.0
 11
-90.000000000002728
 21
-19.136539030931999
 31
0.0
  0
ARC
  5
17E0
  8
240
 10
-88.800000000001987
 20
18.815000000000051
 30
0.0
 40
1.1999999999999991
 50
99.068721546943138
 51
149.99999999998971
1001
GENIUS_GENOBJ-N-FIL_13
1002
{
1000
OWNER
1000
GEN
1002
}
1001
GENIUS_GENODEF_13
1002
{
1000
HIER
1070
     0
1002
}
1002
{
1000
MANEDIT
1070
     0
1002
}
1002
{
1000
NOSEL
1070
     0
1002
}
1002
{
1000
BEHIND
1070
     0
1002
}
1002
{
1000
OTHER
1070
     0
1002
}
1002
{
1000
REACTOR
1002
}
  0
LINE
  5
17E1
  8
240
 10
-89.839230484542895
 20
19.41499999999996
 30
0.0
 11
-90.000000000000895
 21
19.136539030918811
 31
0.0
  0
ARC
  5
17E2
  8
240
 10
-88.800000000001987
 20
18.815000000000051
 30
0.0
 40
1.1999999999999991
 50
79.999999999996106
 51
80.931278453056876
1001
GENIUS_GENOBJ-N-FIL_13
1002
{
1000
OWNER
1000
GEN
1002
}
1001
GENIUS_GENODEF_13
1002
{
1000
HIER
1070
     0
1002
}
1002
{
1000
MANEDIT
1070
     0
1002
}
1002
{
1000
NOSEL
1070
     0
1002
}
1002
{
1000
BEHIND
1070
     0
1002
}
1002
{
1000
OTHER
1070
     0
1002
}
1002
{
1000
REACTOR
1002
}
  0
LINE
  5
17E3
  8
240
 10
-88.591622186801956
 20
19.996769303614649
 30
0.0
 11
-86.612627514929954
 21
19.64781914828518
 31
0.0
  0
LINE
  5
17E4
  8
240
 10
-86.612627514929954
 20
19.64781914828518
 30
0.0
 11
-84.106730545855484
 21
19.999999999997272
 31
0.0
  0
LINE
  5
17E5
  8
240
 10
-88.989142803214236
 20
19.99999999999682
 30
0.0
 11
-88.610857196789766
 21
19.99999999999682
 31
0.0
  0
LINE
  5
17E6
  8
240
 10
-84.106730545868231
 20
19.999999999995449
 30
0.0
 11
-80.499999999995453
 21
19.999999999995449
 31
0.0
  0
LINE
  5
17E7
  8
241
 10
-84.106730545855484
 20
19.999999999997272
 30
0.0
 11
-84.106730545853679
 21
-20.000000000010459
 31
0.0
  0
ARC
  5
17E8
  8
240
 10
-88.800000000001987
 20
-18.815000000013239
 30
0.0
 40
1.1999999999999991
 50
210.00000000001029
 51
260.9312784530569
1001
GENIUS_GENOBJ-N-FIL_13
1002
{
1000
OWNER
1000
GEN
1002
}
1001
GENIUS_GENODEF_13
1002
{
1000
HIER
1070
     0
1002
}
1002
{
1000
MANEDIT
1070
     0
1002
}
1002
{
1000
NOSEL
1070
     0
1002
}
1002
{
1000
BEHIND
1070
     0
1002
}
1002
{
1000
OTHER
1070
     0
1002
}
1002
{
1000
REACTOR
1002
}
  0
LINE
  5
17E9
  8
240
 10
-89.839230484542895
 20
-19.415000000013151
 30
0.0
 11
-90.000000000000895
 21
-19.136539030931999
 31
0.0
  0
ARC
  5
17EA
  8
240
 10
-88.800000000001987
 20
-18.815000000013239
 30
0.0
 40
1.1999999999999991
 50
279.06872154694321
 51
280.00000000000392
1001
GENIUS_GENOBJ-N-FIL_13
1002
{
1000
OWNER
1000
GEN
1002
}
1001
GENIUS_GENODEF_13
1002
{
1000
HIER
1070
     0
1002
}
1002
{
1000
MANEDIT
1070
     0
1002
}
1002
{
1000
NOSEL
1070
     0
1002
}
1002
{
1000
BEHIND
1070
     0
1002
}
1002
{
1000
OTHER
1070
     0
1002
}
1002
{
1000
REACTOR
1002
}
  0
LINE
  5
17EB
  8
240
 10
-88.591622186801956
 20
-19.99676930362784
 30
0.0
 11
-86.612627514929954
 21
-19.647819148298371
 31
0.0
  0
LINE
  5
17EC
  8
240
 10
-86.612627514929954
 20
-19.647819148298371
 30
0.0
 11
-84.106730545855484
 21
-20.000000000010459
 31
0.0
  0
LINE
  5
17ED
  8
240
 10
-88.989142803214236
 20
-20.000000000010001
 30
0.0
 11
-88.610857196789766
 21
-20.000000000010001
 31
0.0
  0
LINE
  5
17EE
  8
240
 10
-84.106730545868231
 20
-20.00000000000864
 30
0.0
 11
-80.499999999995453
 21
-20.00000000000864
 31
0.0
  0
LINE
  5
17EF
  8
241
 10
-86.612627514929954
 20
-19.647819148298371
 30
0.0
 11
-86.612627514929954
 21
19.64781914828518
 31
0.0
  0
LINE
  5
17F0
  8
240
 10
44.39999999999236
 20
19.499999999999542
 30
0.0
 11
44.999999999995453
 21
19.153589838484091
 31
0.0
  0
LINE
  5
17F1
  8
240
 10
45.999999999998181
 20
19.499999999999542
 30
0.0
 11
45.399999999995998
 21
19.153589838484091
 31
0.0
  0
ARC
  5
17F2
  8
240
 10
45.199999999995271
 20
19.499999999997719
 30
0.0
 40
0.4
 50
240.0000000000027
 51
299.99999999999733
1001
GENIUS_GENODEF_13
1002
{
1000
HIER
1070
     0
1002
}
1002
{
1000
MANEDIT
1070
     0
1002
}
1002
{
1000
NOSEL
1070
     0
1002
}
1002
{
1000
BEHIND
1070
     0
1002
}
1002
{
1000
OTHER
1070
     0
1002
}
1002
{
1000
REACTOR
1002
}
1001
GENIUS_GENOBJ-N-FIL_13
1002
{
1000
OWNER
1000
GEN
1002
}
  0
ARC
  5
17F3
  8
240
 10
42.199999999995271
 20
19.499999999997719
 30
0.0
 40
0.4
 50
240.0000000000027
 51
299.99999999999733
1001
GENIUS_GENODEF_13
1002
{
1000
HIER
1070
     0
1002
}
1002
{
1000
MANEDIT
1070
     0
1002
}
1002
{
1000
NOSEL
1070
     0
1002
}
1002
{
1000
BEHIND
1070
     0
1002
}
1002
{
1000
OTHER
1070
     0
1002
}
1002
{
1000
REACTOR
1002
}
1001
GENIUS_GENOBJ-N-FIL_13
1002
{
1000
OWNER
1000
GEN
1002
}
  0
LINE
  5
17F4
  8
240
 10
42.999999999998181
 20
19.499999999999542
 30
0.0
 11
42.399999999995991
 21
19.153589838484091
 31
0.0
  0
LINE
  5
17F5
  8
240
 10
41.399999999992353
 20
19.499999999999542
 30
0.0
 11
41.999999999995453
 21
19.153589838484091
 31
0.0
  0
LINE
  5
17F6
  8
240
 10
42.999999999998181
 20
19.499999999999542
 30
0.0
 11
44.39999999999236
 21
19.499999999999542
 31
0.0
  0
LINE
  5
17F7
  8
240
 10
44.399999999990541
 20
-19.499999999998629
 30
0.0
 11
44.999999999993634
 21
-19.153589838483182
 31
0.0
  0
LINE
  5
17F8
  8
240
 10
45.999999999996362
 20
-19.499999999998629
 30
0.0
 11
45.399999999994179
 21
-19.153589838483182
 31
0.0
  0
ARC
  5
17F9
  8
240
 10
45.199999999993437
 20
-19.49999999999682
 30
0.0
 40
0.4
 50
60.000000000002721
 51
119.9999999999973
1001
GENIUS_GENODEF_13
1002
{
1000
HIER
1070
     0
1002
}
1002
{
1000
MANEDIT
1070
     0
1002
}
1002
{
1000
NOSEL
1070
     0
1002
}
1002
{
1000
BEHIND
1070
     0
1002
}
1002
{
1000
OTHER
1070
     0
1002
}
1002
{
1000
REACTOR
1002
}
1001
GENIUS_GENOBJ-N-FIL_13
1002
{
1000
OWNER
1000
GEN
1002
}
  0
ARC
  5
17FA
  8
240
 10
42.199999999993452
 20
-19.499999999996358
 30
0.0
 40
0.4
 50
60.000000000002721
 51
119.9999999999973
1001
GENIUS_GENODEF_13
1002
{
1000
HIER
1070
     0
1002
}
1002
{
1000
MANEDIT
1070
     0
1002
}
1002
{
1000
NOSEL
1070
     0
1002
}
1002
{
1000
BEHIND
1070
     0
1002
}
1002
{
1000
OTHER
1070
     0
1002
}
1002
{
1000
REACTOR
1002
}
1001
GENIUS_GENOBJ-N-FIL_13
1002
{
1000
OWNER
1000
GEN
1002
}
  0
LINE
  5
17FB
  8
240
 10
42.999999999996362
 20
-19.499999999998629
 30
0.0
 11
42.399999999994179
 21
-19.153589838482731
 31
0.0
  0
LINE
  5
17FC
  8
240
 10
41.399999999990541
 20
-19.499999999998181
 30
0.0
 11
41.999999999993634
 21
-19.153589838482731
 31
0.0
  0
LINE
  5
17FD
  8
240
 10
42.999999999996362
 20
-19.499999999998629
 30
0.0
 11
44.399999999990541
 21
-19.499999999998629
 31
0.0
  0
ARC
  5
17FE
  8
240
 10
-9.0352653961035934
 20
-26.699999999997001
 30
0.0
 40
0.2
 50
70.000000000104393
 51
90.000000000093635
1001
GENIUS_GENODEF_13
1002
{
1000
HIER
1070
     0
1002
}
1002
{
1000
MANEDIT
1070
     0
1002
}
1002
{
1000
NOSEL
1070
     0
1002
}
1002
{
1000
BEHIND
1070
     0
1002
}
1002
{
1000
OTHER
1070
     0
1002
}
1002
{
1000
REACTOR
1002
}
1001
GENIUS_GENOBJ-N-FIL_13
1002
{
1000
OWNER
1000
GEN
1002
}
  0
LINE
  5
17FF
  8
240
 10
-9.0352653961039202
 20
-26.49999999999627
 30
0.0
 11
-17.499999999962149
 21
-26.50000000001555
 31
0.0
  0
LINE
  5
1800
  8
240
 10
-8.9668613674387991
 20
-26.512061475839591
 30
0.0
 11
-7.7919544528500371
 21
-26.939692620780679
 31
0.0
  0
ARC
  5
1801
  8
240
 10
-7.4499343095260739
 20
-25.99999999999368
 30
0.0
 40
1.0
 50
250.00000000010439
 51
270.00000000009362
1001
GENIUS_GENODEF_13
1002
{
1000
HIER
1070
     0
1002
}
1002
{
1000
MANEDIT
1070
     0
1002
}
1002
{
1000
NOSEL
1070
     0
1002
}
1002
{
1000
BEHIND
1070
     0
1002
}
1002
{
1000
OTHER
1070
     0
1002
}
1002
{
1000
REACTOR
1002
}
1001
GENIUS_GENOBJ-N-FIL_13
1002
{
1000
OWNER
1000
GEN
1002
}
  0
LINE
  5
1802
  8
240
 10
-0.6356744903509828
 20
-26.999999999982538
 30
0.0
 11
-7.4499343095244397
 21
-26.99999999999368
 31
0.0
  0
LINE
  5
1803
  8
241
 10
0.0000000000417159
 20
-26.641256028035659
 30
0.0
 11
-0.0000000000417159
 21
26.641256028032331
 31
0.0
  0
ARC
  5
1804
  8
240
 10
-17.500000000006128
 20
-25.999999999983121
 30
0.0
 40
0.5
 50
179.99999999999849
 51
269.99999999999852
  0
ARC
  5
1805
  8
240
 10
-0.7673269879840036
 20
-25.999999999978101
 30
0.0
 40
1.0
 50
284.99999999999301
 51
345.00000000000409
1001
GENIUS_GENOBJ-N-FIL_13
1002
{
1000
OWNER
1000
GEN
1002
}
1001
GENIUS_GENODEF_13
1002
{
1000
HIER
1070
     0
1002
}
1002
{
1000
MANEDIT
1070
     0
1002
}
1002
{
1000
NOSEL
1070
     0
1002
}
1002
{
1000
BEHIND
1070
     0
1002
}
1002
{
1000
OTHER
1070
     0
1002
}
1002
{
1000
REACTOR
1002
}
  0
ARC
  5
1806
  8
240
 10
-45.199999999995271
 20
19.800000000001091
 30
0.0
 40
0.2
 50
0.0
 51
90.0
1001
GENIUS_GENODEF_13
1002
{
1000
HIER
1070
     0
1002
}
1002
{
1000
MANEDIT
1070
     0
1002
}
1002
{
1000
NOSEL
1070
     0
1002
}
1002
{
1000
BEHIND
1070
     0
1002
}
1002
{
1000
OTHER
1070
     0
1002
}
1002
{
1000
REACTOR
1002
}
1001
GENIUS_GENOBJ-N-FIL_13
1002
{
1000
OWNER
1000
GEN
1002
}
  0
ARC
  5
1807
  8
240
 10
-42.300000000008367
 20
19.800000000001091
 30
0.0
 40
0.2
 50
90.0
 51
180.0
1001
GENIUS_GENOBJ-N-FIL_13
1002
{
1000
OWNER
1000
GEN
1002
}
1001
GENIUS_GENODEF_13
1002
{
1000
HIER
1070
     0
1002
}
1002
{
1000
MANEDIT
1070
     0
1002
}
1002
{
1000
NOSEL
1070
     0
1002
}
1002
{
1000
BEHIND
1070
     0
1002
}
1002
{
1000
OTHER
1070
     0
1002
}
1002
{
1000
REACTOR
1002
}
  0
LINE
  5
1808
  8
241
 10
-45.000000000005457
 20
-19.800000000011998
 30
0.0
 11
-45.000000000001819
 21
19.799999999997461
 31
0.0
  0
ARC
  5
1809
  8
240
 10
-31.699999999995271
 20
19.80000000000064
 30
0.0
 40
0.2
 50
0.0
 51
90.0
1001
GENIUS_GENODEF_13
1002
{
1000
HIER
1070
     0
1002
}
1002
{
1000
MANEDIT
1070
     0
1002
}
1002
{
1000
NOSEL
1070
     0
1002
}
1002
{
1000
BEHIND
1070
     0
1002
}
1002
{
1000
OTHER
1070
     0
1002
}
1002
{
1000
REACTOR
1002
}
1001
GENIUS_GENOBJ-N-FIL_13
1002
{
1000
OWNER
1000
GEN
1002
}
  0
ARC
  5
180A
  8
240
 10
-28.800000000008371
 20
19.80000000000064
 30
0.0
 40
0.2
 50
90.0
 51
180.0
1001
GENIUS_GENOBJ-N-FIL_13
1002
{
1000
OWNER
1000
GEN
1002
}
1001
GENIUS_GENODEF_13
1002
{
1000
HIER
1070
     0
1002
}
1002
{
1000
MANEDIT
1070
     0
1002
}
1002
{
1000
NOSEL
1070
     0
1002
}
1002
{
1000
BEHIND
1070
     0
1002
}
1002
{
1000
OTHER
1070
     0
1002
}
1002
{
1000
REACTOR
1002
}
  0
LINE
  5
180B
  8
241
 10
-29.000000000005461
 20
-19.800000000011089
 30
0.0
 11
-29.000000000005461
 21
19.799999999996999
 31
0.0
  0
ARC
  5
180C
  8
240
 10
-45.199999999995271
 20
-19.80000000001564
 30
0.0
 40
0.2
 50
270.0
 51
0.0
1001
GENIUS_GENODEF_13
1002
{
1000
HIER
1070
     0
1002
}
1002
{
1000
MANEDIT
1070
     0
1002
}
1002
{
1000
NOSEL
1070
     0
1002
}
1002
{
1000
BEHIND
1070
     0
1002
}
1002
{
1000
OTHER
1070
     0
1002
}
1002
{
1000
REACTOR
1002
}
1001
GENIUS_GENOBJ-N-FIL_13
1002
{
1000
OWNER
1000
GEN
1002
}
  0
ARC
  5
180D
  8
240
 10
-42.300000000008367
 20
-19.80000000001564
 30
0.0
 40
0.2
 50
180.0
 51
270.0
1001
GENIUS_GENOBJ-N-FIL_13
1002
{
1000
OWNER
1000
GEN
1002
}
1001
GENIUS_GENODEF_13
1002
{
1000
HIER
1070
     0
1002
}
1002
{
1000
MANEDIT
1070
     0
1002
}
1002
{
1000
NOSEL
1070
     0
1002
}
1002
{
1000
BEHIND
1070
     0
1002
}
1002
{
1000
OTHER
1070
     0
1002
}
1002
{
1000
REACTOR
1002
}
  0
LINE
  5
180E
  8
241
 10
-42.500000000005457
 20
19.79999999999745
 30
0.0
 11
-42.500000000005457
 21
-19.800000000011998
 31
0.0
  0
ARC
  5
180F
  8
240
 10
-31.699999999995271
 20
-19.80000000001473
 30
0.0
 40
0.2
 50
270.0
 51
0.0
1001
GENIUS_GENODEF_13
1002
{
1000
HIER
1070
     0
1002
}
1002
{
1000
MANEDIT
1070
     0
1002
}
1002
{
1000
NOSEL
1070
     0
1002
}
1002
{
1000
BEHIND
1070
     0
1002
}
1002
{
1000
OTHER
1070
     0
1002
}
1002
{
1000
REACTOR
1002
}
1001
GENIUS_GENOBJ-N-FIL_13
1002
{
1000
OWNER
1000
GEN
1002
}
  0
ARC
  5
1810
  8
240
 10
-28.800000000008371
 20
-19.80000000001473
 30
0.0
 40
0.2
 50
180.0
 51
270.0
1001
GENIUS_GENOBJ-N-FIL_13
1002
{
1000
OWNER
1000
GEN
1002
}
1001
GENIUS_GENODEF_13
1002
{
1000
HIER
1070
     0
1002
}
1002
{
1000
MANEDIT
1070
     0
1002
}
1002
{
1000
NOSEL
1070
     0
1002
}
1002
{
1000
BEHIND
1070
     0
1002
}
1002
{
1000
OTHER
1070
     0
1002
}
1002
{
1000
REACTOR
1002
}
  0
LINE
  5
1811
  8
241
 10
-31.500000000001819
 20
19.799999999996992
 30
0.0
 11
-31.500000000001819
 21
-19.800000000011099
 31
0.0
  0
ARC
  5
1812
  8
240
 10
-43.750000000001819
 20
17.742857142846599
 30
0.0
 40
2.4071428571493918
 50
58.715507085859173
 51
121.2844929141399
  0
ARC
  5
1813
  8
240
 10
-30.249999999995271
 20
17.742857142850131
 30
0.0
 40
2.4071428571493918
 50
58.715507085859173
 51
121.2844929141399
  0
ARC
  5
1814
  8
240
 10
-43.750000000008257
 20
-17.742857142853971
 30
0.0
 40
2.4071428571493918
 50
238.71550708583911
 51
301.28449291411982
  0
ARC
  5
1815
  8
240
 10
-30.25000000000173
 20
-17.742857142862409
 30
0.0
 40
2.4071428571493918
 50
238.71550708583911
 51
301.28449291411982
  0
TEXT
  5
1816
  8
247
 10
10.36702187650576
 20
-11.82908255673879
 30
0.0
 40
1.9999999999999949
  1
MGT36-M24-65
 50
90.0
  7
YOKO
  0
INSERT
  5
1817
  8
247
  2
A$C187A1F95
 10
7.3018994380372533
 20
0.2666738499652492
 30
0.0
 41
0.7999999999999546
 42
0.8000000000001817
 43
0.8
  0
POINT
  5
1818
  8
0
 10
-15041.480041667361
 20
9982.2519074072497
 30
0.0
1001
GENIUS_GENOLIS_13
1002
{
1000
ENT
1005
0
1005
0
1005
17A8
1005
0
1002
}
1001
GENIUS_GENOENT_13
1002
{
1000
MYREF
1005
1818
1002
}
1002
{
1000
GRP
1005
0
1002
}
1001
GENIUS_GENOBJ-N-CRS_13
1002
{
1000
OWNER
1000
GEN
1002
}
1001
GENIUS_GENODEF_13
1002
{
1000
HIER
1070
    10
1002
}
1002
{
1000
MANEDIT
1070
     1
1002
}
1002
{
1000
NOSEL
1070
     0
1002
}
1002
{
1000
BEHIND
1070
     0
1002
}
1002
{
1000
OTHER
1070
     0
1002
}
1002
{
1000
REACTOR
1002
}
  0
ENDBLK
  5
181C
  8
0
  0
BLOCK
  8
0
  2
*U6
 70
     1
 10
0.0
 20
0.0
 30
0.0
  3
*U6
  1

  0
TEXT
  5
1911
  8
250
 10
76.0
 20
-8.0000000000013536
 30
0.0
 40
6.0
  1
\U+220519
 50
90.0
  0
ENDBLK
  5
1913
  8
0
  0
BLOCK
  8
0
  2
*U7
 70
     1
 10
0.0
 20
0.0
 30
0.0
  3
*U7
  1

  0
TEXT
  5
1915
  8
250
 10
14.02805043293392
 20
-41.91577972970051
 30
0.0
 40
6.0
  1
o
 50
90.0
  0
TEXT
  5
1916
  8
250
 10
14.02805043293392
 20
-34.772922586843379
 30
0.0
 40
6.0
  1
15
 50
90.0
  0
ENDBLK
  5
1918
  8
0
  0
ENDSEC
  0
SECTION
  2
ENTITIES
  0
TEXT
  5
1505
  8
241
 10
-91.0
 20
56.0
 30
0.0
 40
7.5
  1
MGT36-M24-65
  7
YOKO
  0
LINE
  5
174B
  8
250
 10
-0.000000000001819
 20
27.49999999997636
 30
0.0
 11
-0.000000000001818
 21
43.0
 31
0.0
  0
LINE
  5
174C
  8
250
 10
65.000000000001819
 20
18.999999999996358
 30
0.0
 11
65.000000000001819
 21
43.0
 31
0.0
  0
LINE
  5
174D
  8
250
 10
2.229999999998181
 20
42.0
 30
0.0
 11
62.770000000001822
 21
42.0
 31
0.0
  0
LINE
  5
1752
  8
250
 10
64.500000000001819
 20
19.499999999995001
 30
0.0
 11
92.0
 21
19.499999999994991
 31
0.0
  0
LINE
  5
1753
  8
250
 10
64.500000000001819
 20
-19.499999999997719
 30
0.0
 11
92.0
 21
-19.49999999999773
 31
0.0
  0
LINE
  5
1754
  8
250
 10
91.0
 20
17.26999999999499
 30
0.0
 11
91.0
 21
-17.269999999997729
 31
0.0
  0
LINE
  5
1758
  8
250
 10
65.49999999999828
 20
9.4999999999977884
 30
0.0
 11
78.0
 21
9.4999999999977849
 31
0.0
  0
LINE
  5
1759
  8
250
 10
65.49999999999828
 20
-9.5000000000005151
 30
0.0
 11
78.0
 21
-9.5000000000005205
 31
0.0
  0
LINE
  5
175A
  8
250
 10
77.0
 20
7.2699999999977853
 30
0.0
 11
77.0
 21
-7.2700000000005192
 31
0.0
  0
INSERT
  5
175D
  8
240
  2
*U6
 10
0.0
 20
0.0
 30
0.0
  0
LINE
  5
175E
  8
250
 10
18.499999999998181
 20
7.4999999999986349
 30
0.0
 11
14.02805043293392
 21
7.4999999999986358
 31
0.0
  0
LINE
  5
175F
  8
250
 10
18.499999999998181
 20
-7.5000000000013642
 30
0.0
 11
14.02805043293392
 21
-7.5000000000013634
 31
0.0
  0
LINE
  5
1760
  8
250
 10
15.02805043293392
 20
5.2699999999986371
 30
0.0
 11
15.02805043293392
 21
-5.2700000000013629
 31
0.0
  0
LINE
  5
1761
  8
250
 10
15.02805043293391
 20
-42.344351158271948
 30
0.0
 11
15.02805043293392
 21
-7.5000000000013634
 31
0.0
  0
INSERT
  5
1762
  8
240
  2
*U7
 10
0.0
 20
0.0
 30
0.0
  0
TEXT
  5
1765
  8
250
 10
26.642857142857149
 20
43.0
 30
0.0
 40
6.0
  1
65
  0
LINE
  5
1766
  8
250
 10
62.770000000001822
 20
42.371666666666663
 30
0.0
 11
65.000000000001819
 21
42.0
 31
0.0
  0
LINE
  5
1767
  8
250
 10
62.770000000001822
 20
41.62833333333333
 30
0.0
 11
65.000000000001819
 21
42.0
 31
0.0
  0
LINE
  5
1768
  8
250
 10
65.000000000001819
 20
42.0
 30
0.0
 11
62.770000000001822
 21
42.0
 31
0.0
  0
LINE
  5
1769
  8
250
 10
2.229999999998181
 20
41.62833333333333
 30
0.0
 11
-0.0000000000018181
 21
42.0
 31
0.0
  0
LINE
  5
176A
  8
250
 10
2.229999999998181
 20
42.371666666666663
 30
0.0
 11
-0.0000000000018181
 21
42.0
 31
0.0
  0
LINE
  5
176B
  8
250
 10
-0.0000000000018181
 20
42.0
 30
0.0
 11
2.229999999998181
 21
42.0
 31
0.0
  0
TEXT
  5
176C
  8
250
 10
90.0
 20
-8.0000000000013571
 30
0.0
 40
6.0
  1
\U+220539
 50
90.0
  0
LINE
  5
176D
  8
250
 10
91.37166666666667
 20
-17.269999999997729
 30
0.0
 11
91.0
 21
-19.49999999999773
 31
0.0
  0
LINE
  5
176E
  8
250
 10
90.62833333333333
 20
-17.269999999997729
 30
0.0
 11
91.0
 21
-19.49999999999773
 31
0.0
  0
LINE
  5
176F
  8
250
 10
91.0
 20
-19.49999999999773
 30
0.0
 11
91.0
 21
-17.269999999997729
 31
0.0
  0
LINE
  5
1770
  8
250
 10
90.62833333333333
 20
17.26999999999499
 30
0.0
 11
91.0
 21
19.499999999994991
 31
0.0
  0
LINE
  5
1771
  8
250
 10
91.37166666666667
 20
17.26999999999499
 30
0.0
 11
91.0
 21
19.499999999994991
 31
0.0
  0
LINE
  5
1772
  8
250
 10
91.0
 20
19.499999999994991
 30
0.0
 11
91.0
 21
17.26999999999499
 31
0.0
  0
LINE
  5
1773
  8
250
 10
77.371666666666655
 20
-7.27000000000052
 30
0.0
 11
77.0
 21
-9.5000000000005205
 31
0.0
  0
LINE
  5
1774
  8
250
 10
76.62833333333333
 20
-7.27000000000052
 30
0.0
 11
77.0
 21
-9.5000000000005205
 31
0.0
  0
LINE
  5
1775
  8
250
 10
77.0
 20
-9.5000000000005205
 30
0.0
 11
77.0
 21
-7.27000000000052
 31
0.0
  0
LINE
  5
1776
  8
250
 10
76.62833333333333
 20
7.2699999999977836
 30
0.0
 11
77.0
 21
9.4999999999977849
 31
0.0
  0
LINE
  5
1777
  8
250
 10
77.371666666666655
 20
7.2699999999977836
 30
0.0
 11
77.0
 21
9.4999999999977849
 31
0.0
  0
LINE
  5
1778
  8
250
 10
77.0
 20
9.4999999999977849
 30
0.0
 11
77.0
 21
7.2699999999977836
 31
0.0
  0
LINE
  5
1779
  8
250
 10
14.656383766267259
 20
5.2699999999986371
 30
0.0
 11
15.02805043293392
 21
7.4999999999986358
 31
0.0
  0
LINE
  5
177A
  8
250
 10
15.39971709960059
 20
5.2699999999986371
 30
0.0
 11
15.02805043293392
 21
7.4999999999986358
 31
0.0
  0
LINE
  5
177B
  8
250
 10
15.02805043293392
 20
7.4999999999986358
 30
0.0
 11
15.02805043293392
 21
5.2699999999986371
 31
0.0
  0
LINE
  5
177C
  8
250
 10
15.39971709960059
 20
-5.2700000000013629
 30
0.0
 11
15.02805043293392
 21
-7.5000000000013634
 31
0.0
  0
LINE
  5
177D
  8
250
 10
14.65638376626725
 20
-5.2700000000013629
 30
0.0
 11
15.02805043293392
 21
-7.5000000000013634
 31
0.0
  0
LINE
  5
177E
  8
250
 10
15.02805043293392
 20
-7.5000000000013634
 30
0.0
 11
15.02805043293392
 21
-5.2700000000013629
 31
0.0
  0
INSERT
  5
181E
  8
240
  2
A$C09B1797C
 10
0.0
 20
0.0
 30
0.0
  0
VIEWPORT
  5
22
 67
     1
  8
0
 10
261.51769911504419
 20
148.5
 30
0.0
 40
523.0353982300885
 41
297.0
 68
     1
 69
     1
1001
ACAD
1000
MVIEW
1002
{
1070
    16
1010
0.0
1020
0.0
1030
0.0
1010
0.0
1020
0.0
1030
1.0
1040
0.0
1040
297.0
1040
261.51769911504419
1040
148.5
1040
50.0
1040
0.0
1040
0.0
1070
     0
1070
   100
1070
     1
1070
     1
1070
     0
1070
     0
1070
     0
1070
     0
1040
0.0
1040
0.0
1040
0.0
1040
1.0
1040
1.0
1040
10.0
1040
10.0
1070
     0
1002
{
1002
}
1002
}
1001
GENIUS_GENODEF_13
1002
{
1000
HIER
1070
     0
1002
}
1002
{
1000
MANEDIT
1070
     0
1002
}
1002
{
1000
NOSEL
1070
     0
1002
}
1002
{
1000
BEHIND
1070
     0
1002
}
1002
{
1000
OTHER
1070
     0
1002
}
1002
{
1000
REACTOR
1002
}
1001
GENIUS_GENOBJ-N-SDF_13
1002
{
1000
OWNER
1000
GEN
1002
}
1001
GENIUS_GENSCREG_15
1000
PF
1040
1.0
1000
DF
1040
1.0
1000
MIN
1011
0.0
1021
0.0
1031
0.0
1021
0.0
1031
0.0
1000
MAX
1011
523.0353982300885
1021
0.0
1031
0.0
1021
297.0
1031
0.0
1000
FLAGS
1070
     2
  0
ENDSEC
  0
EOF
