  0
SECTION
  2
HEADER
  9
$ACADVER
  1
AC1009
  9
$INSBASE
 10
0.0
 20
0.0
 30
0.0
  9
$EXTMIN
 10
-90.000000000001819
 20
-39.136982186025563
 30
0.0
  9
$EXTMAX
 10
92.0
 20
66.707299286452553
 30
0.0
  9
$LIMMIN
 10
0.0
 20
0.0
  9
$LIMMAX
 10
297.0
 20
210.0
  9
$ORTHOMODE
 70
     1
  9
$REGENMODE
 70
     1
  9
$FILLMODE
 70
     1
  9
$QTEXTMODE
 70
     0
  9
$MIRRTEXT
 70
     1
  9
$DRAGMODE
 70
     2
  9
$LTSCALE
 40
10.0
  9
$OSMODE
 70
  3071
  9
$ATTMODE
 70
     1
  9
$TEXTSIZE
 40
3.0
  9
$TRACEWID
 40
1.0
  9
$TEXTSTYLE
  7
YOKO
  9
$CLAYER
  8
240
  9
$CELTYPE
  6
BYLAYER
  9
$CECOLOR
 62
   256
  9
$DIMSCALE
 40
1.0
  9
$DIMASZ
 40
2.2299999999999991
  9
$DIMEXO
 40
0.5
  9
$DIMDLI
 40
7.0
  9
$DIMRND
 40
0.0
  9
$DIMDLE
 40
0.0
  9
$DIMEXE
 40
1.0
  9
$DIMTP
 40
0.0
  9
$DIMTM
 40
0.01
  9
$DIMTXT
 40
2.7999999999999989
  9
$DIMCEN
 40
0.0
  9
$DIMTSZ
 40
0.0
  9
$DIMTOL
 70
     0
  9
$DIMLIM
 70
     0
  9
$DIMTIH
 70
     0
  9
$DIMTOH
 70
     0
  9
$DIMSE1
 70
     0
  9
$DIMSE2
 70
     0
  9
$DIMTAD
 70
     3
  9
$DIMZIN
 70
     9
  9
$DIMBLK
  1
OPEN
  9
$DIMASO
 70
     1
  9
$DIMSHO
 70
     1
  9
$DIMPOST
  1

  9
$DIMAPOST
  1

  9
$DIMALT
 70
     0
  9
$DIMALTD
 70
     2
  9
$DIMALTF
 40
25.399999999999999
  9
$DIMLFAC
 40
1.0
  9
$DIMTOFL
 70
     1
  9
$DIMTVP
 40
0.0
  9
$DIMTIX
 70
     1
  9
$DIMSOXD
 70
     0
  9
$DIMSAH
 70
     0
  9
$DIMBLK1
  1

  9
$DIMBLK2
  1

  9
$DIMSTYLE
  2
BIGT
  9
$DIMCLRD
 70
   256
  9
$DIMCLRE
 70
   256
  9
$DIMCLRT
 70
    40
  9
$DIMTFAC
 40
1.0
  9
$DIMGAP
 40
1.0
  9
$LUNITS
 70
     2
  9
$LUPREC
 70
     3
  9
$SKETCHINC
 40
1.0
  9
$FILLETRAD
 40
0.0
  9
$AUNITS
 70
     0
  9
$AUPREC
 70
     3
  9
$MENU
  1
.
  9
$ELEVATION
 40
0.0
  9
$PELEVATION
 40
0.0
  9
$THICKNESS
 40
0.0
  9
$LIMCHECK
 70
     0
  9
$BLIPMODE
 70
     0
  9
$CHAMFERA
 40
0.25
  9
$CHAMFERB
 40
0.25
  9
$SKPOLY
 70
     0
  9
$TDCREATE
 40
2455799.6430202778
  9
$TDUPDATE
 40
2455799.6515872232
  9
$TDINDWG
 40
0.0084434375
  9
$TDUSRTIMER
 40
0.0084434375
  9
$USRTIMER
 70
     1
  9
$ANGBASE
 50
0.0
  9
$ANGDIR
 70
     0
  9
$PDMODE
 70
     1
  9
$PDSIZE
 40
0.0
  9
$PLINEWID
 40
0.0
  9
$COORDS
 70
     0
  9
$SPLFRAME
 70
     0
  9
$SPLINETYPE
 70
     6
  9
$SPLINESEGS
 70
     4
  9
$ATTDIA
 70
     1
  9
$ATTREQ
 70
     1
  9
$HANDLING
 70
     1
  9
$HANDSEED
  5
1AB0
  9
$SURFTAB1
 70
     6
  9
$SURFTAB2
 70
     6
  9
$SURFTYPE
 70
     6
  9
$SURFU
 70
     6
  9
$SURFV
 70
     6
  9
$UCSNAME
  2

  9
$UCSORG
 10
0.0
 20
0.0
 30
0.0
  9
$UCSXDIR
 10
1.0
 20
0.0
 30
0.0
  9
$UCSYDIR
 10
0.0
 20
1.0
 30
0.0
  9
$PUCSNAME
  2

  9
$PUCSORG
 10
0.0
 20
0.0
 30
0.0
  9
$PUCSXDIR
 10
1.0
 20
0.0
 30
0.0
  9
$PUCSYDIR
 10
0.0
 20
1.0
 30
0.0
  9
$USERI1
 70
     1
  9
$USERI2
 70
     0
  9
$USERI3
 70
     0
  9
$USERI4
 70
     0
  9
$USERI5
 70
     0
  9
$USERR1
 40
0.0
  9
$USERR2
 40
0.0
  9
$USERR3
 40
0.0
  9
$USERR4
 40
0.0
  9
$USERR5
 40
0.0
  9
$WORLDVIEW
 70
     1
  9
$SHADEDGE
 70
     3
  9
$SHADEDIF
 70
    70
  9
$TILEMODE
 70
     1
  9
$MAXACTVP
 70
    16
  9
$PLIMCHECK
 70
     0
  9
$PEXTMIN
 10
1.0000000000000000E+020
 20
1.0000000000000000E+020
 30
1.0000000000000000E+020
  9
$PEXTMAX
 10
-1.0000000000000000E+020
 20
-1.0000000000000000E+020
 30
-1.0000000000000000E+020
  9
$PLIMMIN
 10
0.0
 20
0.0
  9
$PLIMMAX
 10
420.0
 20
297.0
  9
$UNITMODE
 70
     0
  9
$VISRETAIN
 70
     1
  9
$PLINEGEN
 70
     0
  9
$PSLTSCALE
 70
     1
  0
ENDSEC
  0
SECTION
  2
TABLES
  0
TABLE
  2
VPORT
 70
     3
  0
VPORT
  2
*ACTIVE
 70
     0
 10
0.0
 20
0.0
 11
1.0
 21
1.0
 12
-6.864444073258297
 22
15.599645391744019
 13
0.0
 23
0.0
 14
7.0
 24
7.0
 15
7.0
 25
7.0
 16
0.0
 26
0.0
 36
1.0
 17
0.0
 27
0.0
 37
0.0
 40
143.5903478453728
 41
1.5857487922705309
 42
50.0
 43
0.0
 44
0.0
 50
0.0
 51
0.0
 71
     0
 72
  2000
 73
     1
 74
     0
 75
     0
 76
     0
 77
     0
 78
     0
  0
ENDTAB
  0
TABLE
  2
LTYPE
 70
    13
  0
LTYPE
  2
CONTINUOUS
 70
     0
  3
Solid line
 72
    65
 73
     0
 40
0.0
  0
LTYPE
  2
CENTER2
 70
     0
  3
___ _ ___ _ ___ _ ___ _ ___ _ ___ _ ___ _ ___ _
 72
    65
 73
     4
 40
1.125
 49
0.75
 49
-0.125
 49
0.125
 49
-0.125
  0
LTYPE
  2
HIDDEN2
 70
     0
  3
_ _ _ _ _ _ _ _ _ _ _ _ _ _ _ _ _ _ _ _ _ _ _ _
 72
    65
 73
     2
 40
0.1875
 49
0.125
 49
-0.0625
  0
LTYPE
  2
PHANTOM2
 70
     0
  3
___ _ _ ___ _ _ ___ _ _ ___ _ _ ___ _ _ ___ _ _
 72
    65
 73
     6
 40
1.25
 49
0.625
 49
-0.125
 49
0.125
 49
-0.125
 49
0.125
 49
-0.125
  0
LTYPE
  2
CENTER
 70
     0
  3
____ _ ____ _ ____ _ ____ _ ____ _ ____ _ ____ 
 72
    65
 73
     4
 40
2.0
 49
1.25
 49
-0.25
 49
0.25
 49
-0.25
  0
LTYPE
  2
AM_ISO02W050
 70
     0
  3
__ __ __ __ __ __ __ __ __ __ __ __ __ __ __
 72
    65
 73
     2
 40
7.5
 49
6.0
 49
-1.5
  0
LTYPE
  2
AMCONSTR
 70
     0
  3
_______________________
 72
    65
 73
     2
 40
9999.0
 49
9999.0
 49
0.0
  0
LTYPE
  2
ACISOWELD
 70
     0
  3
_ _ _ _ _
 72
    65
 73
     2
 40
2.0
 49
2.0
 49
-1.0
  0
LTYPE
  2
ACISOTGB
 70
     0
  3
__ . . __ . .
 72
    65
 73
     6
 40
9.0
 49
4.0
 49
-1.0
 49
1.0
 49
-1.0
 49
1.0
 49
-1.0
  0
LTYPE
  2
ACISOTGL
 70
     0
  3
_ _ _ _ _
 72
    65
 73
     2
 40
3.0
 49
2.0
 49
-1.0
  0
LTYPE
  2
ACJISTGB
 70
     0
  3
__ . . __ . .
 72
    65
 73
     6
 40
9.0
 49
4.0
 49
-1.0
 49
1.0
 49
-1.0
 49
1.0
 49
-1.0
  0
LTYPE
  2
ACJISTGL
 70
     0
  3
_ _ _ _ _
 72
    65
 73
     2
 40
3.0
 49
2.0
 49
-1.0
  0
LTYPE
  2
HIDDEN
 70
     0
  3
Hidden __ __ __ __ __ __ __ __ __ __ __ __ __ _
 72
    65
 73
     2
 40
9.5249999999999986
 49
6.3499999999999988
 49
-3.1749999999999989
  0
ENDTAB
  0
TABLE
  2
LAYER
 70
    10
  0
LAYER
  2
0
 70
     0
 62
     7
  6
CONTINUOUS
  0
LAYER
  2
DEFPOINTS
 70
     0
 62
     7
  6
CONTINUOUS
  0
LAYER
  2
245
 70
     0
 62
     2
  6
CENTER2
  0
LAYER
  2
240
 70
     0
 62
     4
  6
CONTINUOUS
  0
LAYER
  2
241
 70
     0
 62
   211
  6
CONTINUOUS
  0
LAYER
  2
242
 70
     0
 62
     3
  6
CONTINUOUS
  0
LAYER
  2
243
 70
     0
 62
   211
  6
HIDDEN2
  0
LAYER
  2
244
 70
     0
 62
     3
  6
HIDDEN2
  0
LAYER
  2
247
 70
     0
 62
    60
  6
CONTINUOUS
  0
LAYER
  2
250
 70
     0
 62
     3
  6
CONTINUOUS
  0
ENDTAB
  0
TABLE
  2
STYLE
 70
     6
  0
STYLE
  2
STANDARD
 70
     0
 40
0.0
 41
1.0
 50
0.0
 71
     0
 42
3.0
  3
romans.shx
  4
extfont.shx
  0
STYLE
  2
ACISOTS
 70
     0
 40
1.0
 41
1.0
 50
0.0
 71
     0
 42
3.0
  3
amgdt.shx
  4
extfont.shx
  0
STYLE
  2
ACISOGDT
 70
     0
 40
0.0
 41
1.0
 50
0.0
 71
     0
 42
3.0
  3
amgdt.shx
  4
extfont.shx
  0
STYLE
  2
ACJISTS
 70
     0
 40
1.0
 41
1.0
 50
0.0
 71
     0
 42
3.0
  3
amgdt.shx
  4
extfont.shx
  0
STYLE
  2
ACJISGDT
 70
     0
 40
0.0
 41
1.0
 50
0.0
 71
     0
 42
3.0
  3
amgdt.shx
  4
extfont.shx
  0
STYLE
  2
YOKO
 70
     0
 40
0.0
 41
1.0
 50
0.0
 71
     0
 42
3.0
  3
romans.shx
  4
extfont.shx
  0
ENDTAB
  0
TABLE
  2
VIEW
 70
     0
  0
ENDTAB
  0
TABLE
  2
UCS
 70
     0
  0
ENDTAB
  0
TABLE
  2
APPID
 70
    34
  0
APPID
  2
ACAD
 70
     0
  0
APPID
  2
GLOBAL
 70
     0
  0
APPID
  2
DETAIL
 70
     0
  0
APPID
  2
GRPNAME
 70
     0
  0
APPID
  2
GPARA
 70
     0
  0
APPID
  2
MCAD_NO_VIS
 70
     0
  0
APPID
  2
ACAD_TEMP_GRAPHIC
 70
     0
  0
APPID
  2
ACATTRIBSERVICES
 70
     0
  0
APPID
  2
GENIUS_GENSCREG_15
 70
     0
  0
APPID
  2
GENIUS_GENODEF_13
 70
     0
  0
APPID
  2
GENIUS_GENOBJ-N-SDF_13
 70
     0
  0
APPID
  2
GENIUS_GENREC_14
 70
     0
  0
APPID
  2
GENIUS_GENOBJ-N-REC_13
 70
     0
  0
APPID
  2
GENIUS_GENDIMSH_14
 70
     0
  0
APPID
  2
GENIUS_GENOBJ-N-DIM_13
 70
     0
  0
APPID
  2
GENIUS_GENDIM_13
 70
     0
  0
APPID
  2
GENIUS_GENDTOL_13
 70
     0
  0
APPID
  2
GENIUS_GENOLIS_13
 70
     0
  0
APPID
  2
GENIUS_GENOENT_13
 70
     0
  0
APPID
  2
GENIUS_GENOBJ-F-FEM_13
 70
     0
  0
APPID
  2
GENIUS_GENOREF_13
 70
     0
  0
APPID
  2
GENIUS_GEFFEM_13
 70
     0
  0
APPID
  2
GENIUS_GEFFEMP_13
 70
     0
  0
APPID
  2
AD_DRAW
 70
     0
  0
APPID
  2
DESIGNERASSEMBLIES
 70
     0
  0
APPID
  2
ACADM_DIM_EDIT
 70
     0
  0
APPID
  2
AMDT_DM_ADJ
 70
     0
  0
APPID
  2
GENIUS_GENOBJ-N-FIL_13
 70
     0
  0
APPID
  2
GENIUS_GENFIL_13
 70
     0
  0
APPID
  2
GENIUS_GENOBJ-N-CHA_13
 70
     0
  0
APPID
  2
GENIUS_GENOBJ-N-CRS_13
 70
     0
  0
APPID
  2
HATCH_TYPE
 70
     0
  0
APPID
  2
HATCH_DISPLAY
 70
     0
  0
APPID
  2
HATCH_DISTANCE
 70
     0
  0
ENDTAB
  0
TABLE
  2
DIMSTYLE
 70
    23
  0
DIMSTYLE
  2
BIGT
 70
     0
  3

  4

  5
OPEN
  6

  7

 40
1.0
 41
2.2299999999999991
 42
0.5
 43
7.0
 44
1.0
 45
0.0
 46
0.0
 47
0.0
 48
0.01
140
2.7999999999999989
141
0.0
142
0.0
143
25.399999999999999
144
1.0
145
0.0
146
1.0
147
1.0
 71
     0
 72
     0
 73
     0
 74
     0
 75
     0
 76
     0
 77
     3
 78
     9
170
     0
171
     2
172
     1
173
     0
174
     1
175
     0
176
   256
177
   256
178
    40
  0
DIMSTYLE
  2
AM_ISO
 70
     0
  3

  4
"
  5

  6

  7

 40
1.0
 41
2.5
 42
1.0
 43
10.0
 44
1.0
 45
0.0
 46
0.0
 47
0.1
 48
0.1
140
3.5
141
0.0
142
0.0
143
0.0393701
144
1.0
145
0.0
146
0.71
147
1.5
 71
     0
 72
     0
 73
     0
 74
     0
 75
     0
 76
     0
 77
     1
 78
     8
170
     0
171
     2
172
     1
173
     0
174
     0
175
     0
176
   256
177
   256
178
     2
  0
DIMSTYLE
  2
AM_ISO$3
 70
     0
  3

  4
"
  5

  6

  7

 40
1.0
 41
2.5
 42
1.0
 43
10.0
 44
1.0
 45
0.0
 46
0.0
 47
0.1
 48
0.1
140
3.5
141
0.0
142
0.0
143
0.0393701
144
1.0
145
0.0
146
0.71
147
1.5
 71
     0
 72
     0
 73
     0
 74
     1
 75
     0
 76
     0
 77
     1
 78
     8
170
     0
171
     2
172
     0
173
     0
174
     0
175
     0
176
   256
177
   256
178
     2
  0
DIMSTYLE
  2
AM_ISO$4
 70
     0
  3

  4
"
  5

  6

  7

 40
1.0
 41
2.5
 42
1.0
 43
10.0
 44
1.0
 45
0.0
 46
0.0
 47
0.1
 48
0.1
140
3.5
141
0.0
142
0.0
143
0.0393701
144
1.0
145
0.0
146
0.71
147
1.5
 71
     0
 72
     0
 73
     0
 74
     1
 75
     0
 76
     0
 77
     1
 78
     8
170
     0
171
     2
172
     0
173
     0
174
     0
175
     0
176
   256
177
   256
178
     2
  0
DIMSTYLE
  2
AM_ISO$6
 70
     0
  3

  4
"
  5

  6

  7

 40
1.0
 41
2.5
 42
1.0
 43
10.0
 44
1.0
 45
0.0
 46
0.0
 47
0.1
 48
0.1
140
3.5
141
0.0
142
0.0
143
0.0393701
144
1.0
145
0.0
146
0.71
147
1.5
 71
     0
 72
     0
 73
     0
 74
     0
 75
     0
 76
     0
 77
     0
 78
     8
170
     0
171
     2
172
     1
173
     0
174
     0
175
     0
176
   256
177
   256
178
     2
  0
DIMSTYLE
  2
AM_ISO$7
 70
     0
  3

  4
"
  5

  6

  7

 40
1.0
 41
2.5
 42
1.0
 43
10.0
 44
1.0
 45
0.0
 46
0.0
 47
0.1
 48
0.1
140
5.0
141
0.0
142
0.0
143
0.0393701
144
1.0
145
0.0
146
0.71
147
1.5
 71
     0
 72
     0
 73
     0
 74
     0
 75
     0
 76
     0
 77
     1
 78
     8
170
     0
171
     2
172
     1
173
     0
174
     0
175
     0
176
   256
177
   256
178
     2
  0
DIMSTYLE
  2
AM_ISO$SF
 70
     0
  3

  4
"
  5

  6

  7

 40
1.0
 41
2.5
 42
1.0
 43
10.0
 44
1.0
 45
0.0
 46
0.0
 47
0.1
 48
0.1
140
3.5
141
0.0
142
0.0
143
0.0393701
144
1.0
145
0.0
146
0.71
147
1.5
 71
     0
 72
     0
 73
     0
 74
     0
 75
     1
 76
     1
 77
     1
 78
     8
170
     0
171
     2
172
     1
173
     0
174
     0
175
     0
176
   256
177
   256
178
     2
  0
DIMSTYLE
  2
AM_ISO$SH
 70
     0
  3

  4
"
  5

  6
GENAXEH
  7

 40
1.0
 41
2.5
 42
1.0
 43
10.0
 44
1.0
 45
0.0
 46
0.0
 47
0.1
 48
0.1
140
3.5
141
0.0
142
0.0
143
0.0393701
144
2.0
145
0.0
146
0.71
147
1.5
 71
     0
 72
     0
 73
     0
 74
     0
 75
     1
 76
     1
 77
     1
 78
     8
170
     0
171
     2
172
     1
173
     1
174
     0
175
     0
176
   256
177
   256
178
     2
  0
DIMSTYLE
  2
BIGT$2
 70
     0
  3

  4

  5
OPEN
  6

  7

 40
1.0
 41
2.2299999999999991
 42
0.5
 43
7.0
 44
1.0
 45
0.0
 46
0.0
 47
0.0
 48
0.01
140
2.7999999999999989
141
0.0
142
0.0
143
25.399999999999999
144
1.0
145
0.0
146
1.0
147
1.0
 71
     0
 72
     0
 73
     0
 74
     0
 75
     0
 76
     0
 77
     3
 78
     9
170
     0
171
     2
172
     1
173
     0
174
     0
175
     0
176
   256
177
   256
178
    40
  0
DIMSTYLE
  2
BIGT$3
 70
     0
  3

  4

  5
OPEN
  6

  7

 40
1.0
 41
2.2299999999999991
 42
0.5
 43
2.5
 44
1.0
 45
0.0
 46
0.0
 47
0.0
 48
0.01
140
2.7999999999999989
141
0.0
142
0.0
143
25.399999999999999
144
1.0
145
0.0
146
1.0
147
1.0
 71
     0
 72
     0
 73
     0
 74
     0
 75
     0
 76
     0
 77
     3
 78
     9
170
     0
171
     2
172
     1
173
     0
174
     0
175
     0
176
   256
177
   256
178
    40
  0
DIMSTYLE
  2
BIGT$7
 70
     0
  3

  4

  5
OPEN
  6

  7

 40
0.0
 41
2.2299999999999991
 42
0.5
 43
7.0
 44
1.0
 45
0.0
 46
0.0
 47
0.0
 48
0.01
140
2.7999999999999989
141
0.0
142
0.0
143
25.399999999999999
144
1.0
145
0.0
146
1.0
147
1.0
 71
     0
 72
     0
 73
     0
 74
     0
 75
     0
 76
     0
 77
     3
 78
     9
170
     0
171
     2
172
     0
173
     0
174
     0
175
     0
176
   256
177
   256
178
    40
  0
DIMSTYLE
  2
BIGT$6
 70
     0
  3

  4

  5
OPEN
  6

  7

 40
1.0
 41
2.2299999999999991
 42
0.5
 43
2.5
 44
1.0
 45
0.0
 46
0.0
 47
0.0
 48
0.01
140
2.7999999999999989
141
0.0
142
0.0
143
25.399999999999999
144
1.0
145
0.0
146
1.0
147
1.0
 71
     0
 72
     0
 73
     0
 74
     0
 75
     0
 76
     0
 77
     3
 78
     9
170
     0
171
     2
172
     1
173
     0
174
     0
175
     0
176
   256
177
   256
178
    40
  0
DIMSTYLE
  2
BIGT$0
 70
     0
  3

  4

  5
OPEN
  6

  7

 40
1.0
 41
2.2299999999999991
 42
0.5
 43
7.0
 44
1.0
 45
0.0
 46
0.0
 47
0.0
 48
0.01
140
2.7999999999999989
141
0.0
142
0.0
143
25.399999999999999
144
1.0
145
0.0
146
1.0
147
1.0
 71
     0
 72
     0
 73
     0
 74
     0
 75
     0
 76
     0
 77
     3
 78
     9
170
     0
171
     2
172
     1
173
     0
174
     0
175
     0
176
   256
177
   256
178
    40
  0
DIMSTYLE
  2
BIGT$4
 70
     0
  3

  4

  5
OPEN
  6

  7

 40
1.0
 41
2.2299999999999991
 42
0.5
 43
2.5
 44
1.0
 45
0.0
 46
0.0
 47
0.0
 48
0.01
140
2.7999999999999989
141
0.0
142
0.0
143
25.399999999999999
144
1.0
145
0.0
146
1.0
147
1.0
 71
     0
 72
     0
 73
     0
 74
     0
 75
     0
 76
     0
 77
     3
 78
     9
170
     0
171
     2
172
     1
173
     0
174
     0
175
     0
176
   256
177
   256
178
    40
  0
DIMSTYLE
  2
BIGT$SH
 70
     0
  3

  4

  5
OPEN
  6

  7

 40
1.0
 41
2.2299999999999991
 42
0.5
 43
7.0
 44
1.0
 45
0.0
 46
0.0
 47
0.0
 48
0.0
140
2.7999999999999989
141
0.0
142
0.0
143
25.399999999999999
144
1.0
145
0.0
146
1.0
147
1.0
 71
     0
 72
     0
 73
     0
 74
     0
 75
     0
 76
     0
 77
     3
 78
     9
170
     0
171
     2
172
     1
173
     0
174
     0
175
     0
176
   256
177
   256
178
    40
  0
DIMSTYLE
  2
BIGT$SF
 70
     0
  3

  4

  5
OPEN
  6

  7

 40
1.0
 41
2.2299999999999991
 42
0.5
 43
7.0
 44
1.0
 45
0.0
 46
0.0
 47
0.0
 48
0.0
140
2.7999999999999989
141
0.0
142
0.0
143
25.399999999999999
144
1.0
145
0.0
146
1.0
147
1.0
 71
     0
 72
     0
 73
     0
 74
     0
 75
     0
 76
     0
 77
     3
 78
     9
170
     0
171
     2
172
     1
173
     0
174
     0
175
     0
176
   256
177
   256
178
    40
  0
DIMSTYLE
  2
TECHNICAL_OSAKA
 70
     0
  3

  4
"
  5
OPEN30
  6

  7

 40
1.0
 41
2.5
 42
1.0
 43
10.0
 44
1.0
 45
0.0
 46
0.0
 47
0.1
 48
0.1
140
2.7999999999999989
141
0.0
142
0.0
143
0.0393701
144
1.0
145
0.0
146
0.71
147
1.5
 71
     0
 72
     0
 73
     0
 74
     0
 75
     0
 76
     0
 77
     3
 78
     8
170
     0
171
     2
172
     1
173
     0
174
     0
175
     0
176
   256
177
   256
178
    40
  0
DIMSTYLE
  2
TECHNICAL_OSAKA$3
 70
     0
  3

  4
"
  5
OPEN30
  6

  7

 40
1.0
 41
2.5
 42
1.0
 43
10.0
 44
1.0
 45
0.0
 46
0.0
 47
0.1
 48
0.1
140
2.7999999999999989
141
0.0
142
0.0
143
0.0393701
144
1.0
145
0.0
146
0.71
147
1.5
 71
     0
 72
     0
 73
     0
 74
     1
 75
     0
 76
     0
 77
     3
 78
     8
170
     0
171
     2
172
     0
173
     0
174
     0
175
     0
176
   256
177
   256
178
    40
  0
DIMSTYLE
  2
TECHNICAL_OSAKA$4
 70
     0
  3

  4
"
  5
OPEN30
  6

  7

 40
1.0
 41
2.5
 42
1.0
 43
10.0
 44
1.0
 45
0.0
 46
0.0
 47
0.1
 48
0.1
140
2.7999999999999989
141
0.0
142
0.0
143
0.0393701
144
1.0
145
0.0
146
0.71
147
1.5
 71
     0
 72
     0
 73
     0
 74
     1
 75
     0
 76
     0
 77
     3
 78
     8
170
     0
171
     2
172
     0
173
     0
174
     0
175
     0
176
   256
177
   256
178
    40
  0
DIMSTYLE
  2
TECHNICAL_OSAKA$6
 70
     0
  3

  4
"
  5
OPEN30
  6

  7

 40
1.0
 41
2.5
 42
1.0
 43
10.0
 44
1.0
 45
0.0
 46
0.0
 47
0.1
 48
0.1
140
2.7999999999999989
141
0.0
142
0.0
143
0.0393701
144
1.0
145
0.0
146
0.71
147
1.5
 71
     0
 72
     0
 73
     0
 74
     0
 75
     0
 76
     0
 77
     0
 78
     8
170
     0
171
     2
172
     1
173
     0
174
     0
175
     0
176
   256
177
   256
178
    40
  0
DIMSTYLE
  2
TECHNICAL_OSAKA$7
 70
     0
  3

  4
"
  5
OPEN30
  6

  7

 40
1.0
 41
2.5
 42
1.0
 43
10.0
 44
1.0
 45
0.0
 46
0.0
 47
0.1
 48
0.1
140
2.7999999999999989
141
0.0
142
0.0
143
0.0393701
144
1.0
145
0.0
146
0.71
147
1.5
 71
     0
 72
     0
 73
     0
 74
     0
 75
     0
 76
     0
 77
     3
 78
     8
170
     0
171
     2
172
     1
173
     0
174
     0
175
     0
176
   256
177
   256
178
    40
  0
DIMSTYLE
  2
TECHNICAL_OSAKA$SF
 70
     0
  3

  4
"
  5
OPEN30
  6
OPEN30
  7
OPEN30
 40
1.0
 41
2.5
 42
1.0
 43
10.0
 44
1.0
 45
0.0
 46
0.0
 47
0.1
 48
0.1
140
3.5
141
0.0
142
0.0
143
0.0393701
144
1.0
145
0.0
146
0.71
147
1.5
 71
     0
 72
     0
 73
     0
 74
     0
 75
     1
 76
     1
 77
     3
 78
     8
170
     0
171
     2
172
     1
173
     0
174
     0
175
     0
176
   256
177
   256
178
    40
  0
DIMSTYLE
  2
TECHNICAL_OSAKA$SH
 70
     0
  3

  4
"
  5
OPEN30
  6
GENAXEH
  7
OPEN30
 40
1.0
 41
2.5
 42
1.0
 43
10.0
 44
1.0
 45
0.0
 46
0.0
 47
0.1
 48
0.1
140
3.5
141
0.0
142
0.0
143
0.0393701
144
2.0
145
0.0
146
0.71
147
1.5
 71
     0
 72
     0
 73
     0
 74
     0
 75
     1
 76
     1
 77
     3
 78
     8
170
     0
171
     2
172
     1
173
     1
174
     0
175
     0
176
   256
177
   256
178
    40
  0
ENDTAB
  0
ENDSEC
  0
SECTION
  2
BLOCKS
  0
BLOCK
  8
0
  2
$MODEL_SPACE
 70
     0
 10
0.0
 20
0.0
 30
0.0
  3
$MODEL_SPACE
  1

  0
ENDBLK
  5
1C
  8
0
  0
BLOCK
 67
     1
  8
0
  2
$PAPER_SPACE
 70
     0
 10
0.0
 20
0.0
 30
0.0
  3
$PAPER_SPACE
  1

  0
ENDBLK
  5
19
 67
     1
  8
0
  0
BLOCK
  8
0
  2
_OPEN
 70
     0
 10
0.0
 20
0.0
 30
0.0
  3
_OPEN
  1

  0
LINE
  5
1835
  8
0
  6
BYBLOCK
 62
     0
 10
-1.0
 20
0.1666666666666666
 30
0.0
 11
0.0
 21
0.0
 31
0.0
  0
LINE
  5
1836
  8
0
  6
BYBLOCK
 62
     0
 10
-1.0
 20
-0.1666666666666666
 30
0.0
 11
0.0
 21
0.0
 31
0.0
  0
LINE
  5
1837
  8
0
  6
BYBLOCK
 62
     0
 10
0.0
 20
0.0
 30
0.0
 11
-1.0
 21
0.0
 31
0.0
  0
ENDBLK
  5
1838
  8
0
  0
BLOCK
  8
0
  2
GENAXEH
 70
     0
 10
0.0
 20
0.0
 30
0.0
  3
GENAXEH
  1

  0
LINE
  5
1860
  8
0
 10
-1.0
 20
0.0
 30
0.0
 11
1.0
 21
0.0
 31
0.0
  0
ENDBLK
  5
1861
  8
0
  0
BLOCK
  8
0
  2
_OPEN30
 70
     0
 10
0.0
 20
0.0
 30
0.0
  3
_OPEN30
  1

  0
LINE
  5
1885
  8
0
  6
BYBLOCK
 62
     0
 10
-1.0
 20
0.26794919
 30
0.0
 11
0.0
 21
0.0
 31
0.0
  0
LINE
  5
1886
  8
0
  6
BYBLOCK
 62
     0
 10
0.0
 20
0.0
 30
0.0
 11
-1.0
 21
-0.26794919
 31
0.0
  0
LINE
  5
1887
  8
0
  6
BYBLOCK
 62
     0
 10
0.0
 20
0.0
 30
0.0
 11
-1.0
 21
0.0
 31
0.0
  0
ENDBLK
  5
1888
  8
0
  0
BLOCK
  8
0
  2
A$C187A1F95
 70
     0
 10
0.0
 20
0.0
 30
0.0
  3
A$C187A1F95
  1

  0
LINE
  5
161B
  8
247
 10
-1.977322221090559
 20
-4.6206927367445578
 30
0.0
 11
-3.13535869020876
 21
-3.462656267626357
 31
0.0
  0
LINE
  5
161C
  8
247
 10
-1.5930681041632491
 20
-4.6681872491318464
 30
0.0
 11
-1.945934160116449
 21
-4.3153211931786473
 31
0.0
  0
LINE
  5
161D
  8
247
 10
-2.8299871466427922
 20
-3.4312682066522471
 30
0.0
 11
-3.182853202595993
 21
-3.0784021506990462
 31
0.0
  0
LINE
  5
161E
  8
247
 10
-1.285909228951936
 20
-4.6385865198030842
 30
0.0
 11
-1.5598263861990631
 21
-4.3646693625558992
 31
0.0
  0
LINE
  5
161F
  8
247
 10
-2.8797229450412938
 20
-3.0447728037137249
 30
0.0
 11
-3.1828540485569188
 21
-2.7416417001980999
 31
0.0
  0
LINE
  5
1620
  8
247
 10
-1.024104307719085
 20
-4.5636318364957971
 30
0.0
 11
-1.264778152703399
 21
-4.32295799151143
 31
0.0
  0
LINE
  5
1621
  8
247
 10
-2.8797229450412938
 20
-2.7080131991735881
 30
0.0
 11
-3.1185360242286571
 21
-2.4692001199862261
 31
0.0
  0
LINE
  5
1622
  8
247
 10
-0.7958947460217019
 20
-4.4550817936531057
 30
0.0
 11
-1.019720746314817
 21
-4.231255793359991
 31
0.0
  0
LINE
  5
1623
  8
247
 10
-0.5958766478120765
 20
-4.318340287322596
 30
0.0
 11
-0.8118227762631136
 21
-4.1023941588715607
 31
0.0
  0
LINE
  5
1624
  8
247
 10
-0.4216677276632482
 20
-4.155789602931347
 30
0.0
 11
-0.6362292780136727
 21
-3.9412280525809811
 31
0.0
  0
LINE
  5
1625
  8
247
 10
-0.2728593971191913
 20
-3.967838328935386
 30
0.0
 11
-0.4921504254615459
 21
-3.7485473005929171
 31
0.0
  0
LINE
  5
1626
  8
247
 10
-0.1508597531703799
 20
-3.7530783683440632
 30
0.0
 11
-0.3823598840220939
 21
-3.5215782374923461
 31
0.0
  0
LINE
  5
1627
  8
247
 10
-0.0594621020085242
 20
-3.5077164149657829
 30
0.0
 11
-0.3151142378612803
 21
-3.2520642791130281
 31
0.0
  0
LINE
  5
1628
  8
247
 10
-0.0067916597444082
 20
-3.2236272526898802
 30
0.0
 11
-0.3031310957142068
 21
-2.9272878167200811
 31
0.0
  0
LINE
  5
1629
  8
247
 10
0.0
 20
-2.8936593078941528
 30
0.0
 11
-0.3031310957142068
 21
-2.5905282121799429
 31
0.0
  0
LINE
  5
162A
  8
247
 10
0.0
 20
-2.5568997033540191
 30
0.0
 11
-0.3031310957142068
 21
-2.2537686076398131
 31
0.0
  0
LINE
  5
162B
  8
247
 10
0.0
 20
-2.2201400988139981
 30
0.0
 11
-0.3031310957142068
 21
-1.917009003099678
 31
0.0
  0
LINE
  5
162C
  8
247
 10
0.0
 20
-1.883380494273865
 30
0.0
 11
-0.3031310957142068
 21
-1.580249398559658
 31
0.0
  0
LINE
  5
162D
  8
247
 10
0.0
 20
-1.546620889733729
 30
0.0
 11
-0.3031310957142068
 21
-1.243489794019524
 31
0.0
  0
LINE
  5
162E
  8
247
 10
0.0
 20
-1.2098612851937101
 30
0.0
 11
-0.3031310957142068
 21
-0.9067301894795035
 31
0.0
  0
LINE
  5
162F
  8
247
 10
0.0
 20
-0.8731016806535761
 30
0.0
 11
-0.3031310957142068
 21
-0.5699705849393695
 31
0.0
  0
LINE
  5
1630
  8
247
 10
0.0
 20
-0.5363420761134421
 30
0.0
 11
-0.3031310957142068
 21
-0.2332109803992353
 31
0.0
  0
LINE
  5
1631
  8
247
 10
0.0
 20
-0.1995824715734216
 30
0.0
 11
-0.3031310957142068
 21
0.1035486241407852
 31
0.0
  0
LINE
  5
1632
  8
247
 10
-2.932855779871657
 20
2.7332733082982941
 30
0.0
 11
-3.1799308926475169
 21
2.980348421074154
 31
0.0
  0
LINE
  5
1633
  8
247
 10
0.0
 20
0.1371771329667126
 30
0.0
 11
-0.3031310957142068
 21
0.4403082286809197
 31
0.0
  0
LINE
  5
1634
  8
247
 10
-2.8782627028439829
 20
3.0154398358106378
 30
0.0
 11
-3.1665816475214679
 21
3.303758780488236
 31
0.0
  0
LINE
  5
1635
  8
247
 10
0.0
 20
0.4739367375067334
 30
0.0
 11
-0.3031310957142068
 21
0.77706783322094
 31
0.0
  0
LINE
  5
1636
  8
247
 10
-2.8548341321414328
 20
3.3287708696482201
 30
0.0
 11
-3.1024062022968319
 21
3.5763429398036801
 31
0.0
  0
LINE
  5
1637
  8
247
 10
0.0
 20
0.8106963420468671
 30
0.0
 11
-0.3031310957142068
 21
1.1138274377610731
 31
0.0
  0
LINE
  5
1638
  8
247
 10
-2.7749546287429299
 20
3.5856509707898558
 30
0.0
 11
-3.0023082063022448
 21
3.8130045483491131
 31
0.0
  0
LINE
  5
1639
  8
247
 10
0.0
 20
1.147455946587
 30
0.0
 11
-0.3031310957142068
 21
1.4505870423012079
 31
0.0
  0
LINE
  5
163A
  8
247
 10
-2.6555268837903441
 20
3.8029828303773452
 30
0.0
 11
-2.8729215537842938
 21
4.0203775003712963
 31
0.0
  0
LINE
  5
163B
  8
247
 10
0.0
 20
1.484215551127021
 30
0.0
 11
-0.3031310957142068
 21
1.7873466468413399
 31
0.0
  0
LINE
  5
163C
  8
247
 10
-2.502948933296635
 20
3.9871644844237131
 30
0.0
 11
-2.7172950248791481
 21
4.2015105760061706
 31
0.0
  0
LINE
  5
163D
  8
247
 10
0.0
 20
1.8209751556671561
 30
0.0
 11
-0.3031310957142068
 21
2.1241062513813631
 31
0.0
  0
LINE
  5
163E
  8
247
 10
-2.3189776436271901
 20
4.1399527992944041
 30
0.0
 11
-2.5363312151759478
 21
4.3573063708431601
 31
0.0
  0
LINE
  5
163F
  8
247
 10
0.0
 20
2.15773476020729
 30
0.0
 11
-0.3031310957142068
 21
2.4608658559214951
 31
0.0
  0
LINE
  5
1640
  8
247
 10
-2.101880422311011
 20
4.259615182518246
 30
0.0
 11
-2.3291397943701782
 21
4.4868745545774109
 31
0.0
  0
LINE
  5
1641
  8
247
 10
0.0
 20
2.494494364747311
 30
0.0
 11
-0.3031310957142068
 21
2.7976254604615161
 31
0.0
  0
LINE
  5
1642
  8
247
 10
-1.845300616400209
 20
4.33979498114752
 30
0.0
 11
-2.0926892600573961
 21
4.5871836248047622
 31
0.0
  0
LINE
  5
1643
  8
247
 10
0.0
 20
2.831253969287443
 30
0.0
 11
-0.3044820142378626
 21
3.1357359835252501
 31
0.0
  0
LINE
  5
1644
  8
247
 10
-1.5324524613939161
 20
4.3637064306814182
 30
0.0
 11
-1.8203788736346951
 21
4.6516328429221359
 31
0.0
  0
LINE
  5
1645
  8
247
 10
-0.0027808648878249
 20
3.1707944387153462
 30
0.0
 11
-0.4008019269780334
 21
3.5688155008056111
 31
0.0
  0
LINE
  5
1646
  8
247
 10
-1.0993729441136111
 20
4.2673865179411861
 30
0.0
 11
-1.4973940062038731
 21
4.6654075800313421
 31
0.0
  0
LINE
  5
1647
  8
247
 10
-0.0849319226709895
 20
3.5897051010385872
 30
0.0
 11
-1.0784833438805741
 21
4.5832565222482327
 31
0.0
  0
LINE
  5
1648
  8
247
 10
-3.151530330666048
 20
-0.078888581768183
 30
0.0
 11
-3.1828540485569188
 21
-0.0475648638773691
 31
0.0
  0
LINE
  5
1649
  8
247
 10
-2.8341326316891
 20
-0.0595266762051097
 30
0.0
 11
-3.1828540485569188
 21
0.2891947406627651
 31
0.0
  0
LINE
  5
164A
  8
247
 10
-2.3619864480280031
 20
-0.1949132553260142
 30
0.0
 11
-3.1828540485569188
 21
0.6259543452028993
 31
0.0
  0
LINE
  5
164B
  8
247
 10
-1.889840264366909
 20
-0.3302998344470325
 30
0.0
 11
-2.8403967590846828
 21
0.6202566602706841
 31
0.0
  0
LINE
  5
164C
  8
247
 10
-1.417694080705814
 20
-0.465686413568051
 30
0.0
 11
-2.368252423011425
 21
0.4848719287375616
 31
0.0
  0
LINE
  5
164D
  8
247
 10
-0.9455478970447755
 20
-0.601072992689069
 30
0.0
 11
-1.896108086938225
 21
0.3494871972044393
 31
0.0
  0
LINE
  5
164E
  8
247
 10
-0.4734017133836801
 20
-0.7364595718099736
 30
0.0
 11
-1.4239637508649701
 21
0.2141024656713171
 31
0.0
  0
LINE
  5
164F
  8
247
 10
-0.4546966474720194
 20
-0.418405033181557
 30
0.0
 11
-0.9518194147917714
 21
0.0787177341381948
 31
0.0
  0
LINE
  5
1650
  8
247
 10
-0.4546966474720194
 20
-0.0816454286414228
 30
0.0
 11
-0.4796750787185148
 21
-0.0566669973949274
 31
0.0
  0
LINE
  5
1651
  8
247
 10
-3.1828540485569188
 20
0.7184543609619141
 30
0.0
 11
-3.1828540485569188
 21
-0.0699062347412109
 31
0.0
  0
LINE
  5
1652
  8
247
 10
-0.4546966474720194
 20
-0.0638294219970703
 30
0.0
 11
-3.1828540485569188
 21
0.7184543609619141
 31
0.0
  0
LINE
  5
1653
  8
247
 10
-0.4546966474720194
 20
-0.7418231964111329
 30
0.0
 11
-0.4546966474720194
 21
-0.0638294219970703
 31
0.0
  0
LINE
  5
1654
  8
247
 10
-2.8494189899631688
 20
-0.0551433563232422
 30
0.0
 11
-0.4546966474720194
 21
-0.7418231964111329
 31
0.0
  0
LINE
  5
1655
  8
247
 10
-2.8494189899631688
 20
-0.1655216217041016
 30
0.0
 11
-2.8494189899631688
 21
-0.0551433563232422
 31
0.0
  0
LINE
  5
1656
  8
247
 10
-3.1828540485569188
 20
-0.0699062347412109
 30
0.0
 11
-2.8494189899631688
 21
-0.1655216217041016
 31
0.0
  0
LINE
  5
1657
  8
247
 10
-3.1828540485569188
 20
0.7184543609619141
 30
0.0
 11
-3.1828540485569188
 21
-0.0699062347412109
 31
0.0
1001
HATCH_DISTANCE
1040
1.0
1001
HATCH_DISPLAY
1070
     0
1001
HATCH_TYPE
1070
     7
  0
LINE
  5
1658
  8
247
 10
-0.4546966474720194
 20
-0.0638294219970703
 30
0.0
 11
-3.1828540485569188
 21
0.7184543609619141
 31
0.0
1001
HATCH_DISTANCE
1040
1.0
1001
HATCH_DISPLAY
1070
     0
1001
HATCH_TYPE
1070
     7
  0
LINE
  5
1659
  8
247
 10
-0.4546966474720194
 20
-0.7418231964111329
 30
0.0
 11
-0.4546966474720194
 21
-0.0638294219970703
 31
0.0
1001
HATCH_DISTANCE
1040
1.0
1001
HATCH_DISPLAY
1070
     0
1001
HATCH_TYPE
1070
     7
  0
LINE
  5
165A
  8
247
 10
-2.8494189899631688
 20
-0.0551433563232422
 30
0.0
 11
-0.4546966474720194
 21
-0.7418231964111329
 31
0.0
1001
HATCH_DISTANCE
1040
1.0
1001
HATCH_DISPLAY
1070
     0
1001
HATCH_TYPE
1070
     7
  0
LINE
  5
165B
  8
247
 10
-2.8494189899631688
 20
-0.1655216217041016
 30
0.0
 11
-2.8494189899631688
 21
-0.0551433563232422
 31
0.0
1001
HATCH_DISTANCE
1040
1.0
1001
HATCH_DISPLAY
1070
     0
1001
HATCH_TYPE
1070
     7
  0
LINE
  5
165C
  8
247
 10
-3.1828540485569188
 20
-0.0699062347412109
 30
0.0
 11
-2.8494189899631688
 21
-0.1655216217041016
 31
0.0
1001
HATCH_DISTANCE
1040
1.0
1001
HATCH_DISPLAY
1070
     0
1001
HATCH_TYPE
1070
     7
  0
LINE
  5
165D
  8
247
 10
-2.8407672565647308
 20
2.7623119354248038
 30
0.0
 11
-2.8407672565647308
 21
2.7623119354248038
 31
0.0
  0
LINE
  5
165E
  8
247
 10
-3.1302684467502782
 20
2.671022415161127
 30
0.0
 11
-2.8407672565647308
 21
2.7623119354248038
 31
0.0
  0
LINE
  5
165F
  8
247
 10
-3.1302684467502782
 20
2.671022415161127
 30
0.0
 11
-3.1302684467502782
 21
2.671022415161127
 31
0.0
  0
LINE
  5
1660
  8
247
 10
-2.8407672565647308
 20
2.7623119354248038
 30
0.0
 11
-3.1302684467502782
 21
2.671022415161127
 31
0.0
  0
LINE
  5
1661
  8
247
 10
-2.8407672565647308
 20
2.7623119354248038
 30
0.0
 11
-2.8407672565647308
 21
2.7623119354248038
 31
0.0
1001
HATCH_DISTANCE
1040
1.0
1001
HATCH_DISPLAY
1070
     0
1001
HATCH_TYPE
1070
     7
  0
LINE
  5
1662
  8
247
 10
-3.1302684467502782
 20
2.671022415161127
 30
0.0
 11
-2.8407672565647308
 21
2.7623119354248038
 31
0.0
1001
HATCH_DISTANCE
1040
1.0
1001
HATCH_DISPLAY
1070
     0
1001
HATCH_TYPE
1070
     7
  0
LINE
  5
1663
  8
247
 10
-3.1302684467502782
 20
2.671022415161127
 30
0.0
 11
-3.1302684467502782
 21
2.671022415161127
 31
0.0
1001
HATCH_DISTANCE
1040
1.0
1001
HATCH_DISPLAY
1070
     0
1001
HATCH_TYPE
1070
     7
  0
LINE
  5
1664
  8
247
 10
-2.8407672565647308
 20
2.7623119354248038
 30
0.0
 11
-3.1302684467502782
 21
2.671022415161127
 31
0.0
1001
HATCH_DISTANCE
1040
1.0
1001
HATCH_DISPLAY
1070
     0
1001
HATCH_TYPE
1070
     7
  0
LINE
  5
1665
  8
247
 10
-2.8407672565647308
 20
2.7623119354248038
 30
0.0
 11
-2.8407672565647308
 21
2.7623119354248038
 31
0.0
  0
LINE
  5
1666
  8
247
 10
-3.1302684467502782
 20
2.671022415161127
 30
0.0
 11
-2.8407672565647308
 21
2.7623119354248038
 31
0.0
  0
LINE
  5
1667
  8
247
 10
-3.1302684467502782
 20
2.671022415161127
 30
0.0
 11
-3.1302684467502782
 21
2.671022415161127
 31
0.0
  0
LINE
  5
1668
  8
247
 10
-2.8407672565647308
 20
2.7623119354248038
 30
0.0
 11
-3.1302684467502782
 21
2.671022415161127
 31
0.0
  0
LINE
  5
1669
  8
247
 10
-2.8407672565647308
 20
2.7623119354248038
 30
0.0
 11
-2.8407672565647308
 21
2.7623119354248038
 31
0.0
1001
HATCH_DISTANCE
1040
1.0
1001
HATCH_DISPLAY
1070
     0
1001
HATCH_TYPE
1070
     7
  0
LINE
  5
166A
  8
247
 10
-3.1302684467502782
 20
2.671022415161127
 30
0.0
 11
-2.8407672565647308
 21
2.7623119354248038
 31
0.0
1001
HATCH_DISTANCE
1040
1.0
1001
HATCH_DISPLAY
1070
     0
1001
HATCH_TYPE
1070
     7
  0
LINE
  5
166B
  8
247
 10
-3.1302684467502782
 20
2.671022415161127
 30
0.0
 11
-3.1302684467502782
 21
2.671022415161127
 31
0.0
1001
HATCH_DISTANCE
1040
1.0
1001
HATCH_DISPLAY
1070
     0
1001
HATCH_TYPE
1070
     7
  0
LINE
  5
166C
  8
247
 10
-2.8407672565647308
 20
2.7623119354248038
 30
0.0
 11
-3.1302684467502782
 21
2.671022415161127
 31
0.0
1001
HATCH_DISTANCE
1040
1.0
1001
HATCH_DISPLAY
1070
     0
1001
HATCH_TYPE
1070
     7
  0
LINE
  5
166D
  8
247
 10
-2.233334179820019
 20
0.6867132900862316
 30
0.0
 11
-3.178021331903266
 21
1.6314004421694741
 31
0.0
  0
LINE
  5
166E
  8
247
 10
-1.7847728039110951
 20
0.5749115187173857
 30
0.0
 11
-3.158118533680748
 21
1.948257248487036
 31
0.0
  0
LINE
  5
166F
  8
247
 10
-1.4002961071881821
 20
0.5271944265346065
 30
0.0
 11
-2.388705980804501
 21
1.5156043001509261
 31
0.0
  0
LINE
  5
1670
  8
247
 10
-2.8394947940194011
 20
1.966393113365823
 30
0.0
 11
-3.0664772985541018
 21
2.1933756179005282
 31
0.0
  0
LINE
  5
1671
  8
247
 10
-1.117109927643354
 20
0.5807678515299131
 30
0.0
 11
-1.9165598751903301
 21
1.3802177990768301
 31
0.0
  0
LINE
  5
1672
  8
247
 10
-2.696097987594384
 20
2.159755911480941
 30
0.0
 11
-3.0680578001760632
 21
2.5317157240625638
 31
0.0
  0
LINE
  5
1673
  8
247
 10
-0.8922196998783532
 20
0.6926372283049888
 30
0.0
 11
-1.4444137695761581
 21
1.244831298002735
 31
0.0
  0
LINE
  5
1674
  8
247
 10
-2.7804711669083382
 20
2.5808886953349202
 30
0.0
 11
-2.8120318424898301
 21
2.61244937091646
 31
0.0
  0
LINE
  5
1675
  8
247
 10
-0.7112748006721859
 20
0.8484519336388983
 30
0.0
 11
-1.0323132020055821
 21
1.1694903349722381
 31
0.0
  0
LINE
  5
1676
  8
247
 10
-1.697525374240511
 20
1.8347025072072241
 30
0.0
 11
-2.0006564777561371
 21
2.1378336107228502
 31
0.0
  0
LINE
  5
1677
  8
247
 10
-0.5717868958495842
 20
1.045723633356372
 30
0.0
 11
-0.8364735707222051
 21
1.310410308228938
 31
0.0
  0
LINE
  5
1678
  8
247
 10
-1.4285840781436701
 20
1.902520815650514
 30
0.0
 11
-2.0006564777561371
 21
2.4745932152628711
 31
0.0
  0
LINE
  5
1679
  8
247
 10
-0.4798095364548658
 20
1.2905058785017891
 30
0.0
 11
-0.8356904142846133
 21
1.646386756331478
 31
0.0
  0
LINE
  5
167A
  8
247
 10
-0.9390685342908682
 20
1.7497648763377349
 30
0.0
 11
-1.84068457102404
 21
2.6513809130708519
 31
0.0
  0
LINE
  5
167B
  8
247
 10
-0.4592935072027445
 20
1.606749453789688
 30
0.0
 11
-1.3685389256061731
 21
2.5159948721931178
 31
0.0
  0
LINE
  5
167C
  8
247
 10
-0.6122124459759563
 20
2.096427997102976
 30
0.0
 11
-0.896393280188363
 21
2.3806088313153841
 31
0.0
  0
LINE
  5
167D
  8
247
 10
-3.1828540485569188
 20
-0.0699062347412109
 30
0.0
 11
-3.1828540485569188
 21
0.7184543609619141
 31
0.0
  0
ARC
  5
167E
  8
247
 10
-1.3880656879612141
 20
3.122285842895506
 30
0.0
 40
2.5780792236328121
 50
245.20517736984081
 51
262.79482596205179
  0
LINE
  5
167F
  8
247
 10
-0.4546966474720194
 20
-0.0638294219970703
 30
0.0
 11
-3.1828540485569188
 21
0.7184543609619141
 31
0.0
  0
LINE
  5
1680
  8
247
 10
-2.8494189899631688
 20
-0.1655216217041016
 30
0.0
 11
-3.1828540485569188
 21
-0.0699062347412109
 31
0.0
  0
LINE
  5
1681
  8
247
 10
-2.8494189899631688
 20
-0.1655216217041016
 30
0.0
 11
-2.8494189899631688
 21
-0.0551433563232422
 31
0.0
  0
LINE
  5
1682
  8
247
 10
-1.1941569965549641
 20
1.1730709075927701
 30
0.0
 11
-2.618866316623325
 21
1.581602096557617
 31
0.0
  0
LINE
  5
1683
  8
247
 10
-2.7951854389377782
 20
2.6177616119384761
 30
0.0
 11
-3.084686629123325
 21
2.5264720916748038
 31
0.0
  0
ARC
  5
1684
  8
247
 10
-1.591427199191684
 20
3.0767612457275368
 30
0.0
 40
1.288299322128293
 50
200.87218340207721
 51
222.54194893738699
  0
ARC
  5
1685
  8
247
 10
-2.5311244648166831
 20
1.8875598907470701
 30
0.0
 40
0.3182875066995621
 50
91.710121382062837
 51
253.99839835444871
  0
ARC
  5
1686
  8
247
 10
-1.591427199191684
 20
3.0767612457275368
 30
0.0
 40
1.591427564620969
 50
200.22964506331709
 51
208.5716889237174
  0
LINE
  5
1687
  8
247
 10
-2.8407672565647308
 20
2.7623119354248038
 30
0.0
 11
-3.1302684467502782
 21
2.671022415161127
 31
0.0
  0
LINE
  5
1688
  8
247
 10
-2.0006564777561371
 20
1.8142833709716779
 30
0.0
 11
-2.0006564777561371
 21
2.6972522735595681
 31
0.0
  0
LINE
  5
1689
  8
247
 10
-0.4546966474720194
 20
2.2539539337158181
 30
0.0
 11
-2.0006564777561371
 21
2.6972522735595681
 31
0.0
  0
LINE
  5
168A
  8
247
 10
-0.6325035017200662
 20
2.0761356353759761
 30
0.0
 11
-0.4546966474720194
 21
2.2539539337158181
 31
0.0
  0
LINE
  5
168B
  8
247
 10
-1.697525374240511
 20
1.7273654937744141
 30
0.0
 11
-2.0006564777561371
 21
1.8142833709716779
 31
0.0
  0
LINE
  5
168C
  8
247
 10
-1.697525374240511
 20
1.7273654937744141
 30
0.0
 11
-1.697525374240511
 21
1.9796390533447239
 31
0.0
  0
LINE
  5
168D
  8
247
 10
-1.018696181125277
 20
1.7849864959716779
 30
0.0
 11
-1.697525374240511
 21
1.9796390533447239
 31
0.0
  0
ARC
  5
168E
  8
247
 10
-1.1064265888401219
 20
1.4790287017822239
 30
0.0
 40
0.3182872831821442
 50
254.00027305718419
 51
74.000273057184273
  0
ARC
  5
168F
  8
247
 10
-1.4398616474338699
 20
1.5115756988525391
 30
0.0
 40
0.9851760864257813
 50
253.9997507017284
 51
34.963873291627223
  0
LINE
  5
1690
  8
247
 10
-1.5591265997503561
 20
-1.6712923126838151
 30
0.0
 11
-2.6438748073500729
 21
-0.5865441050841583
 31
0.0
  0
LINE
  5
1691
  8
247
 10
-2.3618882196755631
 20
-1.2052902972988011
 30
0.0
 11
-2.8691488572415551
 21
-0.6980296597328107
 31
0.0
  0
ARC
  5
1692
  8
247
 10
-2.4553416889377782
 20
-1.650266647338867
 30
0.0
 40
0.4546839594841006
 50
351.66260168792593
 51
156.3381550951899
  0
LINE
  5
1693
  8
247
 10
-1.672076319909364
 20
-2.5686214061450978
 30
0.0
 11
-2.733161055462118
 21
-1.5075366705923441
 31
0.0
  0
LINE
  5
1694
  8
247
 10
-2.1442215461264
 20
-2.4332357844681378
 30
0.0
 11
-3.1828540485568051
 21
-1.39460328203779
 31
0.0
  0
LINE
  5
1695
  8
247
 10
-2.8717998643828082
 20
-1.467783521770796
 30
0.0
 11
-2.0054630203574102
 21
-1.7161960532857841
 31
0.0
  0
LINE
  5
1696
  8
247
 10
-0.4546966474720194
 20
-2.917699813842658
 30
0.0
 11
-2.879722945040383
 21
-2.2223339080813931
 31
0.0
  0
LINE
  5
1697
  8
247
 10
-2.6597950232401191
 20
-1.2441430982743209
 30
0.0
 11
-3.0377771067831532
 21
-0.8661610147312329
 31
0.0
  0
LINE
  5
1698
  8
247
 10
-3.1828540485569188
 20
-2.2930927276609041
 30
0.0
 11
-3.1828540485568051
 21
-1.3152058504763311
 31
0.0
  0
LINE
  5
1699
  8
247
 10
-2.8797229450412369
 20
-2.3712535946335711
 30
0.0
 11
-3.182854048556861
 21
-2.0681224911179461
 31
0.0
  0
LINE
  5
169A
  8
247
 10
-2.616366772343496
 20
-2.2978501627911778
 30
0.0
 11
-3.1828540485568051
 21
-1.731362886577811
 31
0.0
  0
LINE
  5
169B
  8
247
 10
-3.1828540485569188
 20
-2.2930927276609041
 30
0.0
 11
-2.8797229450412938
 21
-2.3800106048587391
 31
0.0
  0
LINE
  5
169C
  8
247
 10
-2.8797229450412938
 20
-2.3800106048587391
 30
0.0
 11
-2.879722945040383
 21
-2.2223339080813931
 31
0.0
  0
LINE
  5
169D
  8
247
 10
-3.1828540485569188
 20
-3.0767612457275368
 30
0.0
 11
-3.1828540485569188
 21
-2.4507579803466788
 31
0.0
  0
LINE
  5
169E
  8
247
 10
-2.8797229450412938
 20
-3.0767612457275368
 30
0.0
 11
-2.8797229450412938
 21
-2.5376758575439431
 31
0.0
  0
LINE
  5
169F
  8
247
 10
-3.1828540485569188
 20
-2.4507579803466788
 30
0.0
 11
-2.8797229450412938
 21
-2.5376758575439431
 31
0.0
  0
LINE
  5
16A0
  8
247
 10
-2.837221341631901
 20
-1.4034763844225591
 30
0.0
 11
-3.1498488212662319
 21
-1.090848904788231
 31
0.0
  0
LINE
  5
16A1
  8
247
 10
-0.4546966474719625
 20
-1.7654434513419801
 30
0.0
 11
-1.311675364830988
 21
-0.9084647339828958
 31
0.0
  0
LINE
  5
16A2
  8
247
 10
-1.339919845028759
 20
-1.553739462865336
 30
0.0
 11
-2.3338995209601872
 21
-0.5597597869339097
 31
0.0
  0
LINE
  5
16A3
  8
247
 10
-0.4546966474720194
 20
-2.1022030558820002
 30
0.0
 11
-1.566953587329692
 21
-0.9899461160243843
 31
0.0
  0
ARC
  5
16A4
  8
247
 10
-1.242828718967073
 20
-1.9979496002197239
 30
0.0
 40
0.4546969681978227
 50
351.66285421114878
 51
156.33819215911009
  0
LINE
  5
16A5
  8
247
 10
-0.4546966474720194
 20
-2.775722264962269
 30
0.0
 11
-1.316729054155644
 21
-1.9136898582785291
 31
0.0
  0
LINE
  5
16A6
  8
247
 10
-0.4546966474720194
 20
-2.917699813842658
 30
0.0
 11
-0.4546966474720194
 21
-1.659765243530273
 31
0.0
  0
LINE
  5
16A7
  8
247
 10
-0.4546966474720194
 20
-2.4389626604221339
 30
0.0
 11
-0.8445908038436298
 21
-2.0490685040505241
 31
0.0
  0
LINE
  5
16A8
  8
247
 10
-0.7277858674751772
 20
-2.8393926494991311
 30
0.0
 11
-2.010365338897655
 21
-1.556813178076595
 31
0.0
  0
LINE
  5
16A9
  8
247
 10
-1.19993109369227
 20
-2.7040070278221711
 30
0.0
 11
-2.261020297952085
 21
-1.642917823562243
 31
0.0
  0
LINE
  5
16AA
  8
247
 10
-1.659299511865524
 20
-1.8154628567264111
 30
0.0
 11
-0.7929369714238419
 21
-2.0638794749414711
 31
0.0
  0
LINE
  5
16AB
  8
247
 10
-0.5115142049841666
 20
-1.3718662892896389
 30
0.0
 11
-0.9246143655565219
 21
-0.9587661287173432
 31
0.0
  0
ARC
  5
16AC
  8
247
 10
-1.212513319797152
 20
-1.659765243530273
 30
0.0
 40
0.7578163146972659
 50
0.0
 51
130.32984065416969
  0
LINE
  5
16AD
  8
247
 10
0.0
 20
-3.0767612457275368
 30
0.0
 11
0.0
 21
3.0767612457275368
 31
0.0
  0
LINE
  5
16AE
  8
247
 10
-0.3031310957142068
 20
-3.0767612457275368
 30
0.0
 11
-0.3031310957142068
 21
3.0767612457275368
 31
0.0
  0
LINE
  5
16AF
  8
247
 10
-0.4546966474720194
 20
-0.7418231964111329
 30
0.0
 11
-2.8494189899631688
 21
-0.0551433563232422
 31
0.0
  0
LINE
  5
16B0
  8
247
 10
-0.4546966474720194
 20
-0.7418231964111329
 30
0.0
 11
-0.4546966474720194
 21
-0.0638294219970703
 31
0.0
  0
ARC
  5
16B1
  8
247
 10
-1.591427199191684
 20
-3.0767612457275368
 30
0.0
 40
1.288295745849606
 50
180.0
 51
0.0
  0
ARC
  5
16B2
  8
247
 10
-1.591427199191684
 20
-3.0767612457275368
 30
0.0
 40
1.591426849365233
 50
180.0
 51
0.0
  0
ARC
  5
16B3
  8
247
 10
-2.4250377338596532
 20
-1.3120822906494141
 30
0.0
 40
0.7578227519989014
 50
17.669577547397669
 51
180.2361598426715
  0
ARC
  5
16B4
  8
247
 10
-2.1976894062229331
 20
1.7288761138915989
 30
0.0
 40
0.9851660728454588
 50
143.4440121970604
 51
254.00018438768561
  0
ARC
  5
16B5
  8
247
 10
-1.591427199191684
 20
3.0767612457275368
 30
0.0
 40
1.288295745849606
 50
0.0
 51
194.12743649640839
  0
ARC
  5
16B6
  8
247
 10
-1.591427199191684
 20
3.0767612457275368
 30
0.0
 40
1.591426849365233
 50
0.0
 51
194.77079396609119
  0
ENDBLK
  5
16B7
  8
0
  0
BLOCK
  8
0
  2
A$C671C041C
 70
     0
 10
0.0
 20
0.0
 30
0.0
  3
A$C671C041C
  1

  0
ARC
  5
1705
  8
240
 10
64.000000000001819
 20
14.999999999997719
 30
0.0
 40
1.0
 50
0.0
 51
90.0
1001
GENIUS_GENODEF_13
1002
{
1000
HIER
1070
     0
1002
}
1002
{
1000
MANEDIT
1070
     0
1002
}
1002
{
1000
NOSEL
1070
     0
1002
}
1002
{
1000
BEHIND
1070
     0
1002
}
1002
{
1000
OTHER
1070
     0
1002
}
1002
{
1000
REACTOR
1002
}
1001
GENIUS_GENOBJ-N-FIL_13
1002
{
1000
OWNER
1000
GEN
1002
}
  0
LINE
  5
1706
  8
245
  6
CENTER2
 10
33.999999999998181
 20
3.0
 30
0.0
 11
33.999999999998181
 21
-3.0
 31
0.0
  0
LINE
  5
1707
  8
245
  6
CENTER2
 10
-37.000000000001819
 20
3.0000000000009091
 30
0.0
 11
-37.000000000001819
 21
-3.0000000000009091
 31
0.0
  0
LINE
  5
1708
  8
245
  6
CENTER2
 10
-66.000000000001819
 20
19.999999999996358
 30
0.0
 11
-66.000000000005457
 21
-19.999999999996358
 31
0.0
1001
GENIUS_GENOREF_13
1005
17A7
  0
ARC
  5
1709
  8
240
 10
-45.199999999995271
 20
19.800000000008371
 30
0.0
 40
0.2
 50
0.0
 51
90.0
1001
GENIUS_GENODEF_13
1002
{
1000
HIER
1070
     0
1002
}
1002
{
1000
MANEDIT
1070
     0
1002
}
1002
{
1000
NOSEL
1070
     0
1002
}
1002
{
1000
BEHIND
1070
     0
1002
}
1002
{
1000
OTHER
1070
     0
1002
}
1002
{
1000
REACTOR
1002
}
1001
GENIUS_GENOBJ-N-FIL_13
1002
{
1000
OWNER
1000
GEN
1002
}
  0
ARC
  5
170A
  8
240
 10
-42.300000000008367
 20
19.800000000008371
 30
0.0
 40
0.2
 50
90.0
 51
180.0
1001
GENIUS_GENOBJ-N-FIL_13
1002
{
1000
OWNER
1000
GEN
1002
}
1001
GENIUS_GENODEF_13
1002
{
1000
HIER
1070
     0
1002
}
1002
{
1000
MANEDIT
1070
     0
1002
}
1002
{
1000
NOSEL
1070
     0
1002
}
1002
{
1000
BEHIND
1070
     0
1002
}
1002
{
1000
OTHER
1070
     0
1002
}
1002
{
1000
REACTOR
1002
}
  0
LINE
  5
170B
  8
241
 10
-42.500000000005457
 20
0.0
 30
0.0
 11
-42.500000000005457
 21
19.800000000004729
 31
0.0
  0
LINE
  5
170C
  8
241
 10
-45.000000000003638
 20
-0.0000000000004547
 30
0.0
 11
-45.000000000001819
 21
19.800000000004729
 31
0.0
  0
ARC
  5
170D
  8
240
 10
-9.0352653961472242
 20
26.699999999995271
 30
0.0
 40
0.2
 50
270.0
 51
289.9999999999892
1001
GENIUS_GENODEF_13
1002
{
1000
HIER
1070
     0
1002
}
1002
{
1000
MANEDIT
1070
     0
1002
}
1002
{
1000
NOSEL
1070
     0
1002
}
1002
{
1000
BEHIND
1070
     0
1002
}
1002
{
1000
OTHER
1070
     0
1002
}
1002
{
1000
REACTOR
1002
}
1001
GENIUS_GENOBJ-N-FIL_13
1002
{
1000
OWNER
1000
GEN
1002
}
  0
LINE
  5
170E
  8
240
 10
-18.000000000005461
 20
26.0
 30
0.0
 11
-18.000000000005461
 21
21.000000000001819
 31
0.0
  0
ARC
  5
170F
  8
240
 10
-17.500000000005461
 20
26.0
 30
0.0
 40
0.5
 50
90.0
 51
180.0
  0
LINE
  5
1710
  8
240
 10
-9.0352653961472242
 20
26.49999999999455
 30
0.0
 11
-17.500000000005461
 21
26.5
 31
0.0
  0
LINE
  5
1711
  8
241
  6
CONTINUOUS
 10
-9.0000000000018172
 20
0.0
 30
0.0
 11
-9.0000000000018172
 21
26.499999999996358
 31
0.0
  0
LINE
  5
1712
  8
241
  6
CONTINUOUS
 10
-9.0000000000018172
 20
20.19999999999709
 30
0.0
 11
-17.500000000005461
 21
20.19999999999709
 31
0.0
  0
LINE
  5
1713
  8
240
 10
-8.9668613674821245
 20
26.512061475837982
 30
0.0
 11
-7.7919544528940596
 21
26.939692620780988
 31
0.0
  0
ARC
  5
1714
  8
240
 10
-7.4499343095685608
 20
25.999999999994539
 30
0.0
 40
1.0
 50
90.0
 51
109.9999999999892
1001
GENIUS_GENODEF_13
1002
{
1000
HIER
1070
     0
1002
}
1002
{
1000
MANEDIT
1070
     0
1002
}
1002
{
1000
NOSEL
1070
     0
1002
}
1002
{
1000
BEHIND
1070
     0
1002
}
1002
{
1000
OTHER
1070
     0
1002
}
1002
{
1000
REACTOR
1002
}
1001
GENIUS_GENOBJ-N-FIL_13
1002
{
1000
OWNER
1000
GEN
1002
}
  0
LINE
  5
1715
  8
240
 10
-0.635674490395104
 20
26.999999999994539
 30
0.0
 11
-7.4499343095685608
 21
26.999999999994539
 31
0.0
  0
LINE
  5
1716
  8
240
 10
-0.5085079428808969
 20
26.96592582628546
 30
0.0
 11
-0.635674490395104
 21
26.999999999994539
 31
0.0
  0
ARC
  5
1717
  8
240
 10
-0.7673269879833243
 20
25.999999999994539
 30
0.0
 40
1.0
 50
14.999999999994451
 51
75.000000000005556
1001
GENIUS_GENOBJ-N-FIL_13
1002
{
1000
OWNER
1000
GEN
1002
}
1001
GENIUS_GENODEF_13
1002
{
1000
HIER
1070
     0
1002
}
1002
{
1000
MANEDIT
1070
     0
1002
}
1002
{
1000
NOSEL
1070
     0
1002
}
1002
{
1000
BEHIND
1070
     0
1002
}
1002
{
1000
OTHER
1070
     0
1002
}
1002
{
1000
REACTOR
1002
}
  0
LINE
  5
1718
  8
240
 10
4.999999999998181
 20
15.899999999997361
 30
0.0
 11
5.1000000000003629
 21
15.999999999997719
 31
0.0
  0
LINE
  5
1719
  8
240
 10
4.999999999998181
 20
15.899999999997361
 30
0.0
 11
3.7415630239629531
 21
15.899999999996449
 31
0.0
  0
LINE
  5
171A
  8
240
 10
0.1985988383075892
 20
26.25881904509879
 30
0.0
 11
2.7756371976738592
 21
16.641180954893571
 31
0.0
  0
LINE
  5
171B
  8
240
 10
-18.000000000005461
 20
19.700000000002539
 30
0.0
 11
-19.700000000006181
 21
19.700000000002539
 31
0.0
  0
LINE
  5
171C
  8
240
 10
-19.700000000006181
 20
19.700000000002539
 30
0.0
 11
-20.000000000005461
 21
20.000000000001819
 31
0.0
  0
ARC
  5
171D
  8
240
 10
-18.000000000005461
 20
20.20000000000255
 30
0.0
 40
0.5
 50
270.0
 51
0.0
  0
LINE
  5
171E
  8
240
 10
-17.500000000005461
 20
20.499999999998181
 30
0.0
 11
-17.500000000005461
 21
20.20000000000255
 31
0.0
  0
LINE
  5
171F
  8
240
 10
-17.500000000005461
 20
20.499999999998181
 30
0.0
 11
-18.000000000005461
 21
21.000000000001819
 31
0.0
  0
LINE
  5
1720
  8
240
 10
-51.500000000020009
 20
20.0
 30
0.0
 11
-45.199999999995271
 21
19.999999999998181
 31
0.0
  0
LINE
  5
1721
  8
243
 10
-72.000000000001819
 20
16.499999999986809
 30
0.0
 11
-72.000000000001819
 21
0.0
 31
0.0
  0
LINE
  5
1722
  8
243
 10
-60.000000000021828
 20
16.5
 30
0.0
 11
-60.000000000016371
 21
0.0
 31
0.0
  0
LINE
  5
1723
  8
240
 10
-55.000000000020009
 20
16.5
 30
0.0
 11
-51.500000000020009
 21
20.0
 31
0.0
  0
LINE
  5
1724
  8
240
 10
-55.000000000020009
 20
16.5
 30
0.0
 11
-66.000000000005457
 21
16.5
 31
0.0
  0
LINE
  5
1725
  8
240
 10
-76.999999999987267
 20
16.499999999998181
 30
0.0
 11
-66.000000000001819
 21
16.499999999972712
 31
0.0
  0
LINE
  5
1726
  8
240
 10
-76.999999999987267
 20
16.499999999998181
 30
0.0
 11
-80.499999999995453
 21
20.000000000002728
 31
0.0
  0
LINE
  5
1727
  8
245
  6
CENTER2
 10
-90.000000000001819
 20
0.0
 30
0.0
 11
68.112823223807155
 21
0.0
 31
0.0
  0
LINE
  5
1728
  8
240
 10
64.999999999994543
 20
0.0
 30
0.0
 11
65.000000000001819
 21
14.99999999999727
 31
0.0
  0
LINE
  5
1729
  8
245
  6
CENTER2
 10
54.999999999998181
 20
13.234375729006389
 30
0.0
 11
54.999999999998181
 21
8.9917350418868391
 31
0.0
  0
LINE
  5
172A
  8
240
 10
5.1000000000040009
 20
16.000000000004999
 30
0.0
 11
44.39999999999236
 21
16.0
 31
0.0
  0
LINE
  5
172B
  8
240
 10
-42.300000000008367
 20
20.0
 30
0.0
 11
-31.699999999998909
 21
20.000000000001819
 31
0.0
  0
LINE
  5
172C
  8
240
 10
-28.800000000012009
 20
20.000000000001819
 30
0.0
 11
-20.000000000005461
 21
20.000000000001819
 31
0.0
  0
CIRCLE
  5
172D
  8
242
 10
33.999999999998181
 20
0.0
 30
0.0
 40
3.0
  0
CIRCLE
  5
172E
  8
241
 10
33.999999999998181
 20
0.0
 30
0.0
 40
2.5
  0
ARC
  5
172F
  8
240
 10
3.7415630239647721
 20
16.899999999996449
 30
0.0
 40
1.0
 50
195.00000000001961
 51
269.99999999994787
1001
GENIUS_GENOBJ-N-FIL_13
1002
{
1000
OWNER
1000
GEN
1002
}
1001
GENIUS_GENODEF_13
1002
{
1000
HIER
1070
     0
1002
}
1002
{
1000
MANEDIT
1070
     0
1002
}
1002
{
1000
NOSEL
1070
     0
1002
}
1002
{
1000
BEHIND
1070
     0
1002
}
1002
{
1000
OTHER
1070
     0
1002
}
1002
{
1000
REACTOR
1002
}
  0
LINE
  5
1730
  8
240
 10
64.999999999994543
 20
0.0
 30
0.0
 11
65.000000000001819
 21
-14.99999999999727
 31
0.0
  0
ARC
  5
1731
  8
240
 10
64.000000000001819
 20
-14.999999999997719
 30
0.0
 40
1.0
 50
270.0
 51
0.0
1001
GENIUS_GENODEF_13
1002
{
1000
HIER
1070
     0
1002
}
1002
{
1000
MANEDIT
1070
     0
1002
}
1002
{
1000
NOSEL
1070
     0
1002
}
1002
{
1000
BEHIND
1070
     0
1002
}
1002
{
1000
OTHER
1070
     0
1002
}
1002
{
1000
REACTOR
1002
}
1001
GENIUS_GENOBJ-N-FIL_13
1002
{
1000
OWNER
1000
GEN
1002
}
  0
LINE
  5
1732
  8
244
  6
HIDDEN2
 10
24.999999999998181
 20
5.9999999999990896
 30
0.0
 11
39.999999999998181
 21
5.9999999999990896
 31
0.0
1001
GRPNAME
1000
0000002L
  0
LINE
  5
1733
  8
244
  6
HIDDEN2
 10
24.999999999998181
 20
-6.0000000000009086
 30
0.0
 11
39.999999999998181
 21
-6.0000000000009086
 31
0.0
1001
GRPNAME
1000
0000002L
  0
LINE
  5
1734
  8
244
  6
HIDDEN2
 10
24.999999999998181
 20
-0.0000000000009095
 30
0.0
 11
24.999999999998181
 21
-6.0000000000009086
 31
0.0
1001
GRPNAME
1000
0000002L
  0
LINE
  5
1735
  8
244
  6
HIDDEN2
 10
24.999999999998181
 20
-0.0000000000009095
 30
0.0
 11
24.999999999998181
 21
5.9999999999990896
 31
0.0
1001
GRPNAME
1000
0000002L
  0
LINE
  5
1736
  8
244
  6
HIDDEN2
 10
39.999999999998181
 20
5.9999999999986349
 30
0.0
 11
39.999999999998181
 21
-5.9999999999968159
 31
0.0
1001
GRPNAME
1000
0000002L
  0
LINE
  5
1737
  8
244
 10
39.999999999998181
 20
5.9999999999986349
 30
0.0
 11
41.499999999998181
 21
7.4999999999990896
 31
0.0
  0
LINE
  5
1738
  8
244
  6
HIDDEN2
 10
41.499999999998181
 20
7.4999999999990896
 30
0.0
 11
64.999999999998181
 21
7.4999999999990914
 31
0.0
1001
GRPNAME
1000
0000002L
  0
LINE
  5
1739
  8
244
 10
39.999999999998181
 20
-6.0000000000009086
 30
0.0
 11
41.499999999998181
 21
-7.5000000000009086
 31
0.0
  0
LINE
  5
173A
  8
244
  6
HIDDEN2
 10
41.499999999998181
 20
-7.5000000000009086
 30
0.0
 11
64.999999999998181
 21
-7.5000000000009086
 31
0.0
1001
GRPNAME
1000
0000002L
  0
LINE
  5
173B
  8
240
 10
49.0
 20
15.99999999999863
 30
0.0
 11
64.000000000001819
 21
15.999999999997719
 31
0.0
  0
LINE
  5
173C
  8
240
 10
48.999999999998181
 20
-15.999999999998179
 30
0.0
 11
64.0
 21
-15.999999999997719
 31
0.0
  0
CIRCLE
  5
173D
  8
241
 10
-37.000000000001819
 20
0.0
 30
0.0
 40
3.0000000000009091
  0
LINE
  5
173E
  8
245
  6
CENTER2
 10
51.999999999998181
 20
11.31370849898485
 30
0.0
 11
57.999999999998181
 21
11.31370849898485
 31
0.0
  0
POLYLINE
  5
173F
  8
241
 10
52.499999999998181
 20
11.174748319313039
 30
0.0
 66
     1
 70
     8
  0
VERTEX
  8
241
  5
18A8
 10
52.5000
 20
11.1747
 30
0.000000
  70
    32
  0
VERTEX
  8
241
  5
18A9
 10
52.5030
 20
11.0880
 30
0.000000
  70
    32
  0
VERTEX
  8
241
  5
18AA
 10
52.5120
 20
11.0015
 30
0.000000
  70
    32
  0
VERTEX
  8
241
  5
18AB
 10
52.5271
 20
10.9154
 30
0.000000
  70
    32
  0
VERTEX
  8
241
  5
18AC
 10
52.5480
 20
10.8299
 30
0.000000
  70
    32
  0
VERTEX
  8
241
  5
18AD
 10
52.5749
 20
10.7452
 30
0.000000
  70
    32
  0
VERTEX
  8
241
  5
18AE
 10
52.6076
 20
10.6616
 30
0.000000
  70
    32
  0
VERTEX
  8
241
  5
18AF
 10
52.6461
 20
10.5792
 30
0.000000
  70
    32
  0
VERTEX
  8
241
  5
18B0
 10
52.6903
 20
10.4983
 30
0.000000
  70
    32
  0
VERTEX
  8
241
  5
18B1
 10
52.7400
 20
10.4189
 30
0.000000
  70
    32
  0
VERTEX
  8
241
  5
18B2
 10
52.7952
 20
10.3414
 30
0.000000
  70
    32
  0
VERTEX
  8
241
  5
18B3
 10
52.8557
 20
10.2659
 30
0.000000
  70
    32
  0
VERTEX
  8
241
  5
18B4
 10
52.9213
 20
10.1926
 30
0.000000
  70
    32
  0
VERTEX
  8
241
  5
18B5
 10
52.9920
 20
10.1217
 30
0.000000
  70
    32
  0
VERTEX
  8
241
  5
18B6
 10
53.0675
 20
10.0533
 30
0.000000
  70
    32
  0
VERTEX
  8
241
  5
18B7
 10
53.1476
 20
9.98759
 30
0.000000
  70
    32
  0
VERTEX
  8
241
  5
18B8
 10
53.2322
 20
9.92475
 30
0.000000
  70
    32
  0
VERTEX
  8
241
  5
18B9
 10
53.3211
 20
9.86492
 30
0.000000
  70
    32
  0
VERTEX
  8
241
  5
18BA
 10
53.4140
 20
9.80825
 30
0.000000
  70
    32
  0
VERTEX
  8
241
  5
18BB
 10
53.5108
 20
9.75486
 30
0.000000
  70
    32
  0
VERTEX
  8
241
  5
18BC
 10
53.6111
 20
9.70490
 30
0.000000
  70
    32
  0
VERTEX
  8
241
  5
18BD
 10
53.7147
 20
9.65848
 30
0.000000
  70
    32
  0
VERTEX
  8
241
  5
18BE
 10
53.8215
 20
9.61572
 30
0.000000
  70
    32
  0
VERTEX
  8
241
  5
18BF
 10
53.9311
 20
9.57671
 30
0.000000
  70
    32
  0
VERTEX
  8
241
  5
18C0
 10
54.0433
 20
9.54154
 30
0.000000
  70
    32
  0
VERTEX
  8
241
  5
18C1
 10
54.1578
 20
9.51032
 30
0.000000
  70
    32
  0
VERTEX
  8
241
  5
18C2
 10
54.2743
 20
9.48310
 30
0.000000
  70
    32
  0
VERTEX
  8
241
  5
18C3
 10
54.3925
 20
9.45996
 30
0.000000
  70
    32
  0
VERTEX
  8
241
  5
18C4
 10
54.5123
 20
9.44095
 30
0.000000
  70
    32
  0
VERTEX
  8
241
  5
18C5
 10
54.6332
 20
9.42611
 30
0.000000
  70
    32
  0
VERTEX
  8
241
  5
18C6
 10
54.7550
 20
9.41549
 30
0.000000
  70
    32
  0
VERTEX
  8
241
  5
18C7
 10
54.8773
 20
9.40911
 30
0.000000
  70
    32
  0
VERTEX
  8
241
  5
18C8
 10
55.0000
 20
9.40698
 30
0.000000
  70
    32
  0
VERTEX
  8
241
  5
18C9
 10
55.1227
 20
9.40911
 30
0.000000
  70
    32
  0
VERTEX
  8
241
  5
18CA
 10
55.2450
 20
9.41549
 30
0.000000
  70
    32
  0
VERTEX
  8
241
  5
18CB
 10
55.3668
 20
9.42611
 30
0.000000
  70
    32
  0
VERTEX
  8
241
  5
18CC
 10
55.4877
 20
9.44095
 30
0.000000
  70
    32
  0
VERTEX
  8
241
  5
18CD
 10
55.6075
 20
9.45996
 30
0.000000
  70
    32
  0
VERTEX
  8
241
  5
18CE
 10
55.7257
 20
9.48310
 30
0.000000
  70
    32
  0
VERTEX
  8
241
  5
18CF
 10
55.8422
 20
9.51032
 30
0.000000
  70
    32
  0
VERTEX
  8
241
  5
18D0
 10
55.9567
 20
9.54154
 30
0.000000
  70
    32
  0
VERTEX
  8
241
  5
18D1
 10
56.0689
 20
9.57671
 30
0.000000
  70
    32
  0
VERTEX
  8
241
  5
18D2
 10
56.1785
 20
9.61572
 30
0.000000
  70
    32
  0
VERTEX
  8
241
  5
18D3
 10
56.2853
 20
9.65848
 30
0.000000
  70
    32
  0
VERTEX
  8
241
  5
18D4
 10
56.3889
 20
9.70490
 30
0.000000
  70
    32
  0
VERTEX
  8
241
  5
18D5
 10
56.4892
 20
9.75486
 30
0.000000
  70
    32
  0
VERTEX
  8
241
  5
18D6
 10
56.5860
 20
9.80825
 30
0.000000
  70
    32
  0
VERTEX
  8
241
  5
18D7
 10
56.6789
 20
9.86492
 30
0.000000
  70
    32
  0
VERTEX
  8
241
  5
18D8
 10
56.7678
 20
9.92475
 30
0.000000
  70
    32
  0
VERTEX
  8
241
  5
18D9
 10
56.8524
 20
9.98759
 30
0.000000
  70
    32
  0
VERTEX
  8
241
  5
18DA
 10
56.9325
 20
10.0533
 30
0.000000
  70
    32
  0
VERTEX
  8
241
  5
18DB
 10
57.0080
 20
10.1217
 30
0.000000
  70
    32
  0
VERTEX
  8
241
  5
18DC
 10
57.0787
 20
10.1926
 30
0.000000
  70
    32
  0
VERTEX
  8
241
  5
18DD
 10
57.1443
 20
10.2659
 30
0.000000
  70
    32
  0
VERTEX
  8
241
  5
18DE
 10
57.2048
 20
10.3414
 30
0.000000
  70
    32
  0
VERTEX
  8
241
  5
18DF
 10
57.2600
 20
10.4189
 30
0.000000
  70
    32
  0
VERTEX
  8
241
  5
18E0
 10
57.3097
 20
10.4983
 30
0.000000
  70
    32
  0
VERTEX
  8
241
  5
18E1
 10
57.3539
 20
10.5792
 30
0.000000
  70
    32
  0
VERTEX
  8
241
  5
18E2
 10
57.3924
 20
10.6616
 30
0.000000
  70
    32
  0
VERTEX
  8
241
  5
18E3
 10
57.4251
 20
10.7452
 30
0.000000
  70
    32
  0
VERTEX
  8
241
  5
18E4
 10
57.4520
 20
10.8299
 30
0.000000
  70
    32
  0
VERTEX
  8
241
  5
18E5
 10
57.4729
 20
10.9154
 30
0.000000
  70
    32
  0
VERTEX
  8
241
  5
18E6
 10
57.4880
 20
11.0015
 30
0.000000
  70
    32
  0
VERTEX
  8
241
  5
18E7
 10
57.4970
 20
11.0880
 30
0.000000
  70
    32
  0
VERTEX
  8
241
  5
18E8
 10
57.5000
 20
11.1747
 30
0.000000
  70
    32
  0
VERTEX
  8
241
  5
18E9
 10
57.4970
 20
11.2615
 30
0.000000
  70
    32
  0
VERTEX
  8
241
  5
18EA
 10
57.4880
 20
11.3480
 30
0.000000
  70
    32
  0
VERTEX
  8
241
  5
18EB
 10
57.4729
 20
11.4341
 30
0.000000
  70
    32
  0
VERTEX
  8
241
  5
18EC
 10
57.4520
 20
11.5196
 30
0.000000
  70
    32
  0
VERTEX
  8
241
  5
18ED
 10
57.4251
 20
11.6043
 30
0.000000
  70
    32
  0
VERTEX
  8
241
  5
18EE
 10
57.3924
 20
11.6879
 30
0.000000
  70
    32
  0
VERTEX
  8
241
  5
18EF
 10
57.3539
 20
11.7703
 30
0.000000
  70
    32
  0
VERTEX
  8
241
  5
18F0
 10
57.3097
 20
11.8512
 30
0.000000
  70
    32
  0
VERTEX
  8
241
  5
18F1
 10
57.2600
 20
11.9306
 30
0.000000
  70
    32
  0
VERTEX
  8
241
  5
18F2
 10
57.2048
 20
12.0081
 30
0.000000
  70
    32
  0
VERTEX
  8
241
  5
18F3
 10
57.1443
 20
12.0836
 30
0.000000
  70
    32
  0
VERTEX
  8
241
  5
18F4
 10
57.0787
 20
12.1569
 30
0.000000
  70
    32
  0
VERTEX
  8
241
  5
18F5
 10
57.0080
 20
12.2278
 30
0.000000
  70
    32
  0
VERTEX
  8
241
  5
18F6
 10
56.9325
 20
12.2962
 30
0.000000
  70
    32
  0
VERTEX
  8
241
  5
18F7
 10
56.8524
 20
12.3619
 30
0.000000
  70
    32
  0
VERTEX
  8
241
  5
18F8
 10
56.7678
 20
12.4247
 30
0.000000
  70
    32
  0
VERTEX
  8
241
  5
18F9
 10
56.6789
 20
12.4846
 30
0.000000
  70
    32
  0
VERTEX
  8
241
  5
18FA
 10
56.5860
 20
12.5413
 30
0.000000
  70
    32
  0
VERTEX
  8
241
  5
18FB
 10
56.4892
 20
12.5946
 30
0.000000
  70
    32
  0
VERTEX
  8
241
  5
18FC
 10
56.3889
 20
12.6446
 30
0.000000
  70
    32
  0
VERTEX
  8
241
  5
18FD
 10
56.2853
 20
12.6910
 30
0.000000
  70
    32
  0
VERTEX
  8
241
  5
18FE
 10
56.1785
 20
12.7338
 30
0.000000
  70
    32
  0
VERTEX
  8
241
  5
18FF
 10
56.0689
 20
12.7728
 30
0.000000
  70
    32
  0
VERTEX
  8
241
  5
1900
 10
55.9567
 20
12.8080
 30
0.000000
  70
    32
  0
VERTEX
  8
241
  5
1901
 10
55.8422
 20
12.8392
 30
0.000000
  70
    32
  0
VERTEX
  8
241
  5
1902
 10
55.7257
 20
12.8664
 30
0.000000
  70
    32
  0
VERTEX
  8
241
  5
1903
 10
55.6075
 20
12.8895
 30
0.000000
  70
    32
  0
VERTEX
  8
241
  5
1904
 10
55.4877
 20
12.9085
 30
0.000000
  70
    32
  0
VERTEX
  8
241
  5
1905
 10
55.3668
 20
12.9234
 30
0.000000
  70
    32
  0
VERTEX
  8
241
  5
1906
 10
55.2450
 20
12.9340
 30
0.000000
  70
    32
  0
VERTEX
  8
241
  5
1907
 10
55.1227
 20
12.9404
 30
0.000000
  70
    32
  0
VERTEX
  8
241
  5
1908
 10
55.0000
 20
12.9425
 30
0.000000
  70
    32
  0
VERTEX
  8
241
  5
1909
 10
54.8773
 20
12.9404
 30
0.000000
  70
    32
  0
VERTEX
  8
241
  5
190A
 10
54.7550
 20
12.9340
 30
0.000000
  70
    32
  0
VERTEX
  8
241
  5
190B
 10
54.6332
 20
12.9234
 30
0.000000
  70
    32
  0
VERTEX
  8
241
  5
190C
 10
54.5123
 20
12.9085
 30
0.000000
  70
    32
  0
VERTEX
  8
241
  5
190D
 10
54.3925
 20
12.8895
 30
0.000000
  70
    32
  0
VERTEX
  8
241
  5
190E
 10
54.2743
 20
12.8664
 30
0.000000
  70
    32
  0
VERTEX
  8
241
  5
190F
 10
54.1578
 20
12.8392
 30
0.000000
  70
    32
  0
VERTEX
  8
241
  5
1910
 10
54.0433
 20
12.8080
 30
0.000000
  70
    32
  0
VERTEX
  8
241
  5
1911
 10
53.9311
 20
12.7728
 30
0.000000
  70
    32
  0
VERTEX
  8
241
  5
1912
 10
53.8215
 20
12.7338
 30
0.000000
  70
    32
  0
VERTEX
  8
241
  5
1913
 10
53.7147
 20
12.6910
 30
0.000000
  70
    32
  0
VERTEX
  8
241
  5
1914
 10
53.6111
 20
12.6446
 30
0.000000
  70
    32
  0
VERTEX
  8
241
  5
1915
 10
53.5108
 20
12.5946
 30
0.000000
  70
    32
  0
VERTEX
  8
241
  5
1916
 10
53.4140
 20
12.5413
 30
0.000000
  70
    32
  0
VERTEX
  8
241
  5
1917
 10
53.3211
 20
12.4846
 30
0.000000
  70
    32
  0
VERTEX
  8
241
  5
1918
 10
53.2322
 20
12.4247
 30
0.000000
  70
    32
  0
VERTEX
  8
241
  5
1919
 10
53.1476
 20
12.3619
 30
0.000000
  70
    32
  0
VERTEX
  8
241
  5
191A
 10
53.0675
 20
12.2962
 30
0.000000
  70
    32
  0
VERTEX
  8
241
  5
191B
 10
52.9920
 20
12.2278
 30
0.000000
  70
    32
  0
VERTEX
  8
241
  5
191C
 10
52.9213
 20
12.1569
 30
0.000000
  70
    32
  0
VERTEX
  8
241
  5
191D
 10
52.8557
 20
12.0836
 30
0.000000
  70
    32
  0
VERTEX
  8
241
  5
191E
 10
52.7952
 20
12.0081
 30
0.000000
  70
    32
  0
VERTEX
  8
241
  5
191F
 10
52.7400
 20
11.9306
 30
0.000000
  70
    32
  0
VERTEX
  8
241
  5
1920
 10
52.6903
 20
11.8512
 30
0.000000
  70
    32
  0
VERTEX
  8
241
  5
1921
 10
52.6461
 20
11.7703
 30
0.000000
  70
    32
  0
VERTEX
  8
241
  5
1922
 10
52.6076
 20
11.6879
 30
0.000000
  70
    32
  0
VERTEX
  8
241
  5
1923
 10
52.5749
 20
11.6043
 30
0.000000
  70
    32
  0
VERTEX
  8
241
  5
1924
 10
52.5480
 20
11.5196
 30
0.000000
  70
    32
  0
VERTEX
  8
241
  5
1925
 10
52.5271
 20
11.4341
 30
0.000000
  70
    32
  0
VERTEX
  8
241
  5
1926
 10
52.5120
 20
11.3480
 30
0.000000
  70
    32
  0
VERTEX
  8
241
  5
1927
 10
52.5030
 20
11.2615
 30
0.000000
  70
    32
  0
VERTEX
  8
241
  5
1928
 10
52.5000
 20
11.1747
 30
0.000000
  70
    32
  0
SEQEND
  8
241
  5
1929
  0
POLYLINE
  5
1740
  8
242
 10
51.999999999998181
 20
11.11305538544684
 30
0.0
 66
     1
 70
     8
  0
VERTEX
  8
242
  5
192A
 10
52.0000
 20
11.1131
 30
0.000000
  70
    32
  0
VERTEX
  8
242
  5
192B
 10
52.0036
 20
11.0090
 30
0.000000
  70
    32
  0
VERTEX
  8
242
  5
192C
 10
52.0144
 20
10.9051
 30
0.000000
  70
    32
  0
VERTEX
  8
242
  5
192D
 10
52.0325
 20
10.8018
 30
0.000000
  70
    32
  0
VERTEX
  8
242
  5
192E
 10
52.0576
 20
10.6992
 30
0.000000
  70
    32
  0
VERTEX
  8
242
  5
192F
 10
52.0899
 20
10.5976
 30
0.000000
  70
    32
  0
VERTEX
  8
242
  5
1930
 10
52.1292
 20
10.4973
 30
0.000000
  70
    32
  0
VERTEX
  8
242
  5
1931
 10
52.1754
 20
10.3984
 30
0.000000
  70
    32
  0
VERTEX
  8
242
  5
1932
 10
52.2284
 20
10.3013
 30
0.000000
  70
    32
  0
VERTEX
  8
242
  5
1933
 10
52.2880
 20
10.2061
 30
0.000000
  70
    32
  0
VERTEX
  8
242
  5
1934
 10
52.3542
 20
10.1131
 30
0.000000
  70
    32
  0
VERTEX
  8
242
  5
1935
 10
52.4268
 20
10.0225
 30
0.000000
  70
    32
  0
VERTEX
  8
242
  5
1936
 10
52.5056
 20
9.93451
 30
0.000000
  70
    32
  0
VERTEX
  8
242
  5
1937
 10
52.5904
 20
9.84939
 30
0.000000
  70
    32
  0
VERTEX
  8
242
  5
1938
 10
52.6810
 20
9.76730
 30
0.000000
  70
    32
  0
VERTEX
  8
242
  5
1939
 10
52.7771
 20
9.68846
 30
0.000000
  70
    32
  0
VERTEX
  8
242
  5
193A
 10
52.8787
 20
9.61306
 30
0.000000
  70
    32
  0
VERTEX
  8
242
  5
193B
 10
52.9853
 20
9.54126
 30
0.000000
  70
    32
  0
VERTEX
  8
242
  5
193C
 10
53.0968
 20
9.47325
 30
0.000000
  70
    32
  0
VERTEX
  8
242
  5
193D
 10
53.2129
 20
9.40919
 30
0.000000
  70
    32
  0
VERTEX
  8
242
  5
193E
 10
53.3333
 20
9.34924
 30
0.000000
  70
    32
  0
VERTEX
  8
242
  5
193F
 10
53.4577
 20
9.29354
 30
0.000000
  70
    32
  0
VERTEX
  8
242
  5
1940
 10
53.5858
 20
9.24222
 30
0.000000
  70
    32
  0
VERTEX
  8
242
  5
1941
 10
53.7173
 20
9.19540
 30
0.000000
  70
    32
  0
VERTEX
  8
242
  5
1942
 10
53.8519
 20
9.15321
 30
0.000000
  70
    32
  0
VERTEX
  8
242
  5
1943
 10
53.9893
 20
9.11574
 30
0.000000
  70
    32
  0
VERTEX
  8
242
  5
1944
 10
54.1291
 20
9.08308
 30
0.000000
  70
    32
  0
VERTEX
  8
242
  5
1945
 10
54.2711
 20
9.05531
 30
0.000000
  70
    32
  0
VERTEX
  8
242
  5
1946
 10
54.4147
 20
9.03250
 30
0.000000
  70
    32
  0
VERTEX
  8
242
  5
1947
 10
54.5598
 20
9.01470
 30
0.000000
  70
    32
  0
VERTEX
  8
242
  5
1948
 10
54.7059
 20
9.00195
 30
0.000000
  70
    32
  0
VERTEX
  8
242
  5
1949
 10
54.8528
 20
8.99429
 30
0.000000
  70
    32
  0
VERTEX
  8
242
  5
194A
 10
55.0000
 20
8.99174
 30
0.000000
  70
    32
  0
VERTEX
  8
242
  5
194B
 10
55.1472
 20
8.99429
 30
0.000000
  70
    32
  0
VERTEX
  8
242
  5
194C
 10
55.2941
 20
9.00195
 30
0.000000
  70
    32
  0
VERTEX
  8
242
  5
194D
 10
55.4402
 20
9.01470
 30
0.000000
  70
    32
  0
VERTEX
  8
242
  5
194E
 10
55.5853
 20
9.03250
 30
0.000000
  70
    32
  0
VERTEX
  8
242
  5
194F
 10
55.7289
 20
9.05531
 30
0.000000
  70
    32
  0
VERTEX
  8
242
  5
1950
 10
55.8709
 20
9.08308
 30
0.000000
  70
    32
  0
VERTEX
  8
242
  5
1951
 10
56.0107
 20
9.11574
 30
0.000000
  70
    32
  0
VERTEX
  8
242
  5
1952
 10
56.1481
 20
9.15321
 30
0.000000
  70
    32
  0
VERTEX
  8
242
  5
1953
 10
56.2827
 20
9.19540
 30
0.000000
  70
    32
  0
VERTEX
  8
242
  5
1954
 10
56.4142
 20
9.24222
 30
0.000000
  70
    32
  0
VERTEX
  8
242
  5
1955
 10
56.5423
 20
9.29354
 30
0.000000
  70
    32
  0
VERTEX
  8
242
  5
1956
 10
56.6667
 20
9.34924
 30
0.000000
  70
    32
  0
VERTEX
  8
242
  5
1957
 10
56.7871
 20
9.40919
 30
0.000000
  70
    32
  0
VERTEX
  8
242
  5
1958
 10
56.9032
 20
9.47325
 30
0.000000
  70
    32
  0
VERTEX
  8
242
  5
1959
 10
57.0147
 20
9.54126
 30
0.000000
  70
    32
  0
VERTEX
  8
242
  5
195A
 10
57.1213
 20
9.61306
 30
0.000000
  70
    32
  0
VERTEX
  8
242
  5
195B
 10
57.2229
 20
9.68846
 30
0.000000
  70
    32
  0
VERTEX
  8
242
  5
195C
 10
57.3190
 20
9.76730
 30
0.000000
  70
    32
  0
VERTEX
  8
242
  5
195D
 10
57.4096
 20
9.84939
 30
0.000000
  70
    32
  0
VERTEX
  8
242
  5
195E
 10
57.4944
 20
9.93451
 30
0.000000
  70
    32
  0
VERTEX
  8
242
  5
195F
 10
57.5732
 20
10.0225
 30
0.000000
  70
    32
  0
VERTEX
  8
242
  5
1960
 10
57.6458
 20
10.1131
 30
0.000000
  70
    32
  0
VERTEX
  8
242
  5
1961
 10
57.7120
 20
10.2061
 30
0.000000
  70
    32
  0
VERTEX
  8
242
  5
1962
 10
57.7716
 20
10.3013
 30
0.000000
  70
    32
  0
VERTEX
  8
242
  5
1963
 10
57.8246
 20
10.3984
 30
0.000000
  70
    32
  0
VERTEX
  8
242
  5
1964
 10
57.8708
 20
10.4973
 30
0.000000
  70
    32
  0
VERTEX
  8
242
  5
1965
 10
57.9101
 20
10.5976
 30
0.000000
  70
    32
  0
VERTEX
  8
242
  5
1966
 10
57.9424
 20
10.6992
 30
0.000000
  70
    32
  0
VERTEX
  8
242
  5
1967
 10
57.9675
 20
10.8018
 30
0.000000
  70
    32
  0
VERTEX
  8
242
  5
1968
 10
57.9856
 20
10.9051
 30
0.000000
  70
    32
  0
VERTEX
  8
242
  5
1969
 10
57.9964
 20
11.0090
 30
0.000000
  70
    32
  0
VERTEX
  8
242
  5
196A
 10
58.0000
 20
11.1131
 30
0.000000
  70
    32
  0
VERTEX
  8
242
  5
196B
 10
57.9964
 20
11.2171
 30
0.000000
  70
    32
  0
VERTEX
  8
242
  5
196C
 10
57.9856
 20
11.3210
 30
0.000000
  70
    32
  0
VERTEX
  8
242
  5
196D
 10
57.9675
 20
11.4243
 30
0.000000
  70
    32
  0
VERTEX
  8
242
  5
196E
 10
57.9424
 20
11.5269
 30
0.000000
  70
    32
  0
VERTEX
  8
242
  5
196F
 10
57.9101
 20
11.6285
 30
0.000000
  70
    32
  0
VERTEX
  8
242
  5
1970
 10
57.8708
 20
11.7288
 30
0.000000
  70
    32
  0
VERTEX
  8
242
  5
1971
 10
57.8246
 20
11.8277
 30
0.000000
  70
    32
  0
VERTEX
  8
242
  5
1972
 10
57.7716
 20
11.9248
 30
0.000000
  70
    32
  0
VERTEX
  8
242
  5
1973
 10
57.7120
 20
12.0200
 30
0.000000
  70
    32
  0
VERTEX
  8
242
  5
1974
 10
57.6458
 20
12.1130
 30
0.000000
  70
    32
  0
VERTEX
  8
242
  5
1975
 10
57.5732
 20
12.2036
 30
0.000000
  70
    32
  0
VERTEX
  8
242
  5
1976
 10
57.4944
 20
12.2916
 30
0.000000
  70
    32
  0
VERTEX
  8
242
  5
1977
 10
57.4096
 20
12.3767
 30
0.000000
  70
    32
  0
VERTEX
  8
242
  5
1978
 10
57.3190
 20
12.4588
 30
0.000000
  70
    32
  0
VERTEX
  8
242
  5
1979
 10
57.2229
 20
12.5376
 30
0.000000
  70
    32
  0
VERTEX
  8
242
  5
197A
 10
57.1213
 20
12.6131
 30
0.000000
  70
    32
  0
VERTEX
  8
242
  5
197B
 10
57.0147
 20
12.6849
 30
0.000000
  70
    32
  0
VERTEX
  8
242
  5
197C
 10
56.9032
 20
12.7529
 30
0.000000
  70
    32
  0
VERTEX
  8
242
  5
197D
 10
56.7871
 20
12.8169
 30
0.000000
  70
    32
  0
VERTEX
  8
242
  5
197E
 10
56.6667
 20
12.8769
 30
0.000000
  70
    32
  0
VERTEX
  8
242
  5
197F
 10
56.5423
 20
12.9326
 30
0.000000
  70
    32
  0
VERTEX
  8
242
  5
1980
 10
56.4142
 20
12.9839
 30
0.000000
  70
    32
  0
VERTEX
  8
242
  5
1981
 10
56.2827
 20
13.0307
 30
0.000000
  70
    32
  0
VERTEX
  8
242
  5
1982
 10
56.1481
 20
13.0729
 30
0.000000
  70
    32
  0
VERTEX
  8
242
  5
1983
 10
56.0107
 20
13.1104
 30
0.000000
  70
    32
  0
VERTEX
  8
242
  5
1984
 10
55.8709
 20
13.1430
 30
0.000000
  70
    32
  0
VERTEX
  8
242
  5
1985
 10
55.7289
 20
13.1708
 30
0.000000
  70
    32
  0
VERTEX
  8
242
  5
1986
 10
55.5853
 20
13.1936
 30
0.000000
  70
    32
  0
VERTEX
  8
242
  5
1987
 10
55.4402
 20
13.2114
 30
0.000000
  70
    32
  0
VERTEX
  8
242
  5
1988
 10
55.2941
 20
13.2242
 30
0.000000
  70
    32
  0
VERTEX
  8
242
  5
1989
 10
55.1472
 20
13.2318
 30
0.000000
  70
    32
  0
VERTEX
  8
242
  5
198A
 10
55.0000
 20
13.2344
 30
0.000000
  70
    32
  0
VERTEX
  8
242
  5
198B
 10
54.8528
 20
13.2318
 30
0.000000
  70
    32
  0
VERTEX
  8
242
  5
198C
 10
54.7059
 20
13.2242
 30
0.000000
  70
    32
  0
VERTEX
  8
242
  5
198D
 10
54.5598
 20
13.2114
 30
0.000000
  70
    32
  0
VERTEX
  8
242
  5
198E
 10
54.4147
 20
13.1936
 30
0.000000
  70
    32
  0
VERTEX
  8
242
  5
198F
 10
54.2711
 20
13.1708
 30
0.000000
  70
    32
  0
VERTEX
  8
242
  5
1990
 10
54.1291
 20
13.1430
 30
0.000000
  70
    32
  0
VERTEX
  8
242
  5
1991
 10
53.9893
 20
13.1104
 30
0.000000
  70
    32
  0
VERTEX
  8
242
  5
1992
 10
53.8519
 20
13.0729
 30
0.000000
  70
    32
  0
VERTEX
  8
242
  5
1993
 10
53.7173
 20
13.0307
 30
0.000000
  70
    32
  0
VERTEX
  8
242
  5
1994
 10
53.5858
 20
12.9839
 30
0.000000
  70
    32
  0
VERTEX
  8
242
  5
1995
 10
53.4577
 20
12.9326
 30
0.000000
  70
    32
  0
VERTEX
  8
242
  5
1996
 10
53.3333
 20
12.8769
 30
0.000000
  70
    32
  0
VERTEX
  8
242
  5
1997
 10
53.2129
 20
12.8169
 30
0.000000
  70
    32
  0
VERTEX
  8
242
  5
1998
 10
53.0968
 20
12.7529
 30
0.000000
  70
    32
  0
VERTEX
  8
242
  5
1999
 10
52.9853
 20
12.6849
 30
0.000000
  70
    32
  0
VERTEX
  8
242
  5
199A
 10
52.8787
 20
12.6131
 30
0.000000
  70
    32
  0
VERTEX
  8
242
  5
199B
 10
52.7771
 20
12.5376
 30
0.000000
  70
    32
  0
VERTEX
  8
242
  5
199C
 10
52.6810
 20
12.4588
 30
0.000000
  70
    32
  0
VERTEX
  8
242
  5
199D
 10
52.5904
 20
12.3767
 30
0.000000
  70
    32
  0
VERTEX
  8
242
  5
199E
 10
52.5056
 20
12.2916
 30
0.000000
  70
    32
  0
VERTEX
  8
242
  5
199F
 10
52.4268
 20
12.2036
 30
0.000000
  70
    32
  0
VERTEX
  8
242
  5
19A0
 10
52.3542
 20
12.1130
 30
0.000000
  70
    32
  0
VERTEX
  8
242
  5
19A1
 10
52.2880
 20
12.0200
 30
0.000000
  70
    32
  0
VERTEX
  8
242
  5
19A2
 10
52.2284
 20
11.9248
 30
0.000000
  70
    32
  0
VERTEX
  8
242
  5
19A3
 10
52.1754
 20
11.8277
 30
0.000000
  70
    32
  0
VERTEX
  8
242
  5
19A4
 10
52.1292
 20
11.7288
 30
0.000000
  70
    32
  0
VERTEX
  8
242
  5
19A5
 10
52.0899
 20
11.6285
 30
0.000000
  70
    32
  0
VERTEX
  8
242
  5
19A6
 10
52.0576
 20
11.5269
 30
0.000000
  70
    32
  0
VERTEX
  8
242
  5
19A7
 10
52.0325
 20
11.4243
 30
0.000000
  70
    32
  0
VERTEX
  8
242
  5
19A8
 10
52.0144
 20
11.3210
 30
0.000000
  70
    32
  0
VERTEX
  8
242
  5
19A9
 10
52.0036
 20
11.2171
 30
0.000000
  70
    32
  0
VERTEX
  8
242
  5
19AA
 10
52.0000
 20
11.1131
 30
0.000000
  70
    32
  0
SEQEND
  8
242
  5
19AB
  0
LINE
  5
1741
  8
245
  6
CENTER2
 10
54.999999999998181
 20
-13.234375729006389
 30
0.0
 11
54.999999999998181
 21
-8.9917350418868391
 31
0.0
  0
LINE
  5
1742
  8
245
  6
CENTER2
 10
51.999999999998181
 20
-11.31370849898485
 30
0.0
 11
57.999999999998181
 21
-11.31370849898485
 31
0.0
  0
POLYLINE
  5
1743
  8
241
 10
52.499999999998181
 20
-11.174748319313039
 30
0.0
 66
     1
 70
     8
  0
VERTEX
  8
241
  5
19AC
 10
52.5000
 20
-11.1747
 30
0.000000
  70
    32
  0
VERTEX
  8
241
  5
19AD
 10
52.5030
 20
-11.0880
 30
0.000000
  70
    32
  0
VERTEX
  8
241
  5
19AE
 10
52.5120
 20
-11.0015
 30
0.000000
  70
    32
  0
VERTEX
  8
241
  5
19AF
 10
52.5271
 20
-10.9154
 30
0.000000
  70
    32
  0
VERTEX
  8
241
  5
19B0
 10
52.5480
 20
-10.8299
 30
0.000000
  70
    32
  0
VERTEX
  8
241
  5
19B1
 10
52.5749
 20
-10.7452
 30
0.000000
  70
    32
  0
VERTEX
  8
241
  5
19B2
 10
52.6076
 20
-10.6616
 30
0.000000
  70
    32
  0
VERTEX
  8
241
  5
19B3
 10
52.6461
 20
-10.5792
 30
0.000000
  70
    32
  0
VERTEX
  8
241
  5
19B4
 10
52.6903
 20
-10.4983
 30
0.000000
  70
    32
  0
VERTEX
  8
241
  5
19B5
 10
52.7400
 20
-10.4189
 30
0.000000
  70
    32
  0
VERTEX
  8
241
  5
19B6
 10
52.7952
 20
-10.3414
 30
0.000000
  70
    32
  0
VERTEX
  8
241
  5
19B7
 10
52.8557
 20
-10.2659
 30
0.000000
  70
    32
  0
VERTEX
  8
241
  5
19B8
 10
52.9213
 20
-10.1926
 30
0.000000
  70
    32
  0
VERTEX
  8
241
  5
19B9
 10
52.9920
 20
-10.1217
 30
0.000000
  70
    32
  0
VERTEX
  8
241
  5
19BA
 10
53.0675
 20
-10.0533
 30
0.000000
  70
    32
  0
VERTEX
  8
241
  5
19BB
 10
53.1476
 20
-9.98759
 30
0.000000
  70
    32
  0
VERTEX
  8
241
  5
19BC
 10
53.2322
 20
-9.92475
 30
0.000000
  70
    32
  0
VERTEX
  8
241
  5
19BD
 10
53.3211
 20
-9.86492
 30
0.000000
  70
    32
  0
VERTEX
  8
241
  5
19BE
 10
53.4140
 20
-9.80825
 30
0.000000
  70
    32
  0
VERTEX
  8
241
  5
19BF
 10
53.5108
 20
-9.75486
 30
0.000000
  70
    32
  0
VERTEX
  8
241
  5
19C0
 10
53.6111
 20
-9.70490
 30
0.000000
  70
    32
  0
VERTEX
  8
241
  5
19C1
 10
53.7147
 20
-9.65848
 30
0.000000
  70
    32
  0
VERTEX
  8
241
  5
19C2
 10
53.8215
 20
-9.61572
 30
0.000000
  70
    32
  0
VERTEX
  8
241
  5
19C3
 10
53.9311
 20
-9.57671
 30
0.000000
  70
    32
  0
VERTEX
  8
241
  5
19C4
 10
54.0433
 20
-9.54154
 30
0.000000
  70
    32
  0
VERTEX
  8
241
  5
19C5
 10
54.1578
 20
-9.51032
 30
0.000000
  70
    32
  0
VERTEX
  8
241
  5
19C6
 10
54.2743
 20
-9.48310
 30
0.000000
  70
    32
  0
VERTEX
  8
241
  5
19C7
 10
54.3925
 20
-9.45996
 30
0.000000
  70
    32
  0
VERTEX
  8
241
  5
19C8
 10
54.5123
 20
-9.44095
 30
0.000000
  70
    32
  0
VERTEX
  8
241
  5
19C9
 10
54.6332
 20
-9.42611
 30
0.000000
  70
    32
  0
VERTEX
  8
241
  5
19CA
 10
54.7550
 20
-9.41549
 30
0.000000
  70
    32
  0
VERTEX
  8
241
  5
19CB
 10
54.8773
 20
-9.40911
 30
0.000000
  70
    32
  0
VERTEX
  8
241
  5
19CC
 10
55.0000
 20
-9.40698
 30
0.000000
  70
    32
  0
VERTEX
  8
241
  5
19CD
 10
55.1227
 20
-9.40911
 30
0.000000
  70
    32
  0
VERTEX
  8
241
  5
19CE
 10
55.2450
 20
-9.41549
 30
0.000000
  70
    32
  0
VERTEX
  8
241
  5
19CF
 10
55.3668
 20
-9.42611
 30
0.000000
  70
    32
  0
VERTEX
  8
241
  5
19D0
 10
55.4877
 20
-9.44095
 30
0.000000
  70
    32
  0
VERTEX
  8
241
  5
19D1
 10
55.6075
 20
-9.45996
 30
0.000000
  70
    32
  0
VERTEX
  8
241
  5
19D2
 10
55.7257
 20
-9.48310
 30
0.000000
  70
    32
  0
VERTEX
  8
241
  5
19D3
 10
55.8422
 20
-9.51032
 30
0.000000
  70
    32
  0
VERTEX
  8
241
  5
19D4
 10
55.9567
 20
-9.54154
 30
0.000000
  70
    32
  0
VERTEX
  8
241
  5
19D5
 10
56.0689
 20
-9.57671
 30
0.000000
  70
    32
  0
VERTEX
  8
241
  5
19D6
 10
56.1785
 20
-9.61572
 30
0.000000
  70
    32
  0
VERTEX
  8
241
  5
19D7
 10
56.2853
 20
-9.65848
 30
0.000000
  70
    32
  0
VERTEX
  8
241
  5
19D8
 10
56.3889
 20
-9.70490
 30
0.000000
  70
    32
  0
VERTEX
  8
241
  5
19D9
 10
56.4892
 20
-9.75486
 30
0.000000
  70
    32
  0
VERTEX
  8
241
  5
19DA
 10
56.5860
 20
-9.80825
 30
0.000000
  70
    32
  0
VERTEX
  8
241
  5
19DB
 10
56.6789
 20
-9.86492
 30
0.000000
  70
    32
  0
VERTEX
  8
241
  5
19DC
 10
56.7678
 20
-9.92475
 30
0.000000
  70
    32
  0
VERTEX
  8
241
  5
19DD
 10
56.8524
 20
-9.98759
 30
0.000000
  70
    32
  0
VERTEX
  8
241
  5
19DE
 10
56.9325
 20
-10.0533
 30
0.000000
  70
    32
  0
VERTEX
  8
241
  5
19DF
 10
57.0080
 20
-10.1217
 30
0.000000
  70
    32
  0
VERTEX
  8
241
  5
19E0
 10
57.0787
 20
-10.1926
 30
0.000000
  70
    32
  0
VERTEX
  8
241
  5
19E1
 10
57.1443
 20
-10.2659
 30
0.000000
  70
    32
  0
VERTEX
  8
241
  5
19E2
 10
57.2048
 20
-10.3414
 30
0.000000
  70
    32
  0
VERTEX
  8
241
  5
19E3
 10
57.2600
 20
-10.4189
 30
0.000000
  70
    32
  0
VERTEX
  8
241
  5
19E4
 10
57.3097
 20
-10.4983
 30
0.000000
  70
    32
  0
VERTEX
  8
241
  5
19E5
 10
57.3539
 20
-10.5792
 30
0.000000
  70
    32
  0
VERTEX
  8
241
  5
19E6
 10
57.3924
 20
-10.6616
 30
0.000000
  70
    32
  0
VERTEX
  8
241
  5
19E7
 10
57.4251
 20
-10.7452
 30
0.000000
  70
    32
  0
VERTEX
  8
241
  5
19E8
 10
57.4520
 20
-10.8299
 30
0.000000
  70
    32
  0
VERTEX
  8
241
  5
19E9
 10
57.4729
 20
-10.9154
 30
0.000000
  70
    32
  0
VERTEX
  8
241
  5
19EA
 10
57.4880
 20
-11.0015
 30
0.000000
  70
    32
  0
VERTEX
  8
241
  5
19EB
 10
57.4970
 20
-11.0880
 30
0.000000
  70
    32
  0
VERTEX
  8
241
  5
19EC
 10
57.5000
 20
-11.1747
 30
0.000000
  70
    32
  0
VERTEX
  8
241
  5
19ED
 10
57.4970
 20
-11.2615
 30
0.000000
  70
    32
  0
VERTEX
  8
241
  5
19EE
 10
57.4880
 20
-11.3480
 30
0.000000
  70
    32
  0
VERTEX
  8
241
  5
19EF
 10
57.4729
 20
-11.4341
 30
0.000000
  70
    32
  0
VERTEX
  8
241
  5
19F0
 10
57.4520
 20
-11.5196
 30
0.000000
  70
    32
  0
VERTEX
  8
241
  5
19F1
 10
57.4251
 20
-11.6043
 30
0.000000
  70
    32
  0
VERTEX
  8
241
  5
19F2
 10
57.3924
 20
-11.6879
 30
0.000000
  70
    32
  0
VERTEX
  8
241
  5
19F3
 10
57.3539
 20
-11.7703
 30
0.000000
  70
    32
  0
VERTEX
  8
241
  5
19F4
 10
57.3097
 20
-11.8512
 30
0.000000
  70
    32
  0
VERTEX
  8
241
  5
19F5
 10
57.2600
 20
-11.9306
 30
0.000000
  70
    32
  0
VERTEX
  8
241
  5
19F6
 10
57.2048
 20
-12.0081
 30
0.000000
  70
    32
  0
VERTEX
  8
241
  5
19F7
 10
57.1443
 20
-12.0836
 30
0.000000
  70
    32
  0
VERTEX
  8
241
  5
19F8
 10
57.0787
 20
-12.1569
 30
0.000000
  70
    32
  0
VERTEX
  8
241
  5
19F9
 10
57.0080
 20
-12.2278
 30
0.000000
  70
    32
  0
VERTEX
  8
241
  5
19FA
 10
56.9325
 20
-12.2962
 30
0.000000
  70
    32
  0
VERTEX
  8
241
  5
19FB
 10
56.8524
 20
-12.3619
 30
0.000000
  70
    32
  0
VERTEX
  8
241
  5
19FC
 10
56.7678
 20
-12.4247
 30
0.000000
  70
    32
  0
VERTEX
  8
241
  5
19FD
 10
56.6789
 20
-12.4846
 30
0.000000
  70
    32
  0
VERTEX
  8
241
  5
19FE
 10
56.5860
 20
-12.5413
 30
0.000000
  70
    32
  0
VERTEX
  8
241
  5
19FF
 10
56.4892
 20
-12.5946
 30
0.000000
  70
    32
  0
VERTEX
  8
241
  5
1A00
 10
56.3889
 20
-12.6446
 30
0.000000
  70
    32
  0
VERTEX
  8
241
  5
1A01
 10
56.2853
 20
-12.6910
 30
0.000000
  70
    32
  0
VERTEX
  8
241
  5
1A02
 10
56.1785
 20
-12.7338
 30
0.000000
  70
    32
  0
VERTEX
  8
241
  5
1A03
 10
56.0689
 20
-12.7728
 30
0.000000
  70
    32
  0
VERTEX
  8
241
  5
1A04
 10
55.9567
 20
-12.8080
 30
0.000000
  70
    32
  0
VERTEX
  8
241
  5
1A05
 10
55.8422
 20
-12.8392
 30
0.000000
  70
    32
  0
VERTEX
  8
241
  5
1A06
 10
55.7257
 20
-12.8664
 30
0.000000
  70
    32
  0
VERTEX
  8
241
  5
1A07
 10
55.6075
 20
-12.8895
 30
0.000000
  70
    32
  0
VERTEX
  8
241
  5
1A08
 10
55.4877
 20
-12.9085
 30
0.000000
  70
    32
  0
VERTEX
  8
241
  5
1A09
 10
55.3668
 20
-12.9234
 30
0.000000
  70
    32
  0
VERTEX
  8
241
  5
1A0A
 10
55.2450
 20
-12.9340
 30
0.000000
  70
    32
  0
VERTEX
  8
241
  5
1A0B
 10
55.1227
 20
-12.9404
 30
0.000000
  70
    32
  0
VERTEX
  8
241
  5
1A0C
 10
55.0000
 20
-12.9425
 30
0.000000
  70
    32
  0
VERTEX
  8
241
  5
1A0D
 10
54.8773
 20
-12.9404
 30
0.000000
  70
    32
  0
VERTEX
  8
241
  5
1A0E
 10
54.7550
 20
-12.9340
 30
0.000000
  70
    32
  0
VERTEX
  8
241
  5
1A0F
 10
54.6332
 20
-12.9234
 30
0.000000
  70
    32
  0
VERTEX
  8
241
  5
1A10
 10
54.5123
 20
-12.9085
 30
0.000000
  70
    32
  0
VERTEX
  8
241
  5
1A11
 10
54.3925
 20
-12.8895
 30
0.000000
  70
    32
  0
VERTEX
  8
241
  5
1A12
 10
54.2743
 20
-12.8664
 30
0.000000
  70
    32
  0
VERTEX
  8
241
  5
1A13
 10
54.1578
 20
-12.8392
 30
0.000000
  70
    32
  0
VERTEX
  8
241
  5
1A14
 10
54.0433
 20
-12.8080
 30
0.000000
  70
    32
  0
VERTEX
  8
241
  5
1A15
 10
53.9311
 20
-12.7728
 30
0.000000
  70
    32
  0
VERTEX
  8
241
  5
1A16
 10
53.8215
 20
-12.7338
 30
0.000000
  70
    32
  0
VERTEX
  8
241
  5
1A17
 10
53.7147
 20
-12.6910
 30
0.000000
  70
    32
  0
VERTEX
  8
241
  5
1A18
 10
53.6111
 20
-12.6446
 30
0.000000
  70
    32
  0
VERTEX
  8
241
  5
1A19
 10
53.5108
 20
-12.5946
 30
0.000000
  70
    32
  0
VERTEX
  8
241
  5
1A1A
 10
53.4140
 20
-12.5413
 30
0.000000
  70
    32
  0
VERTEX
  8
241
  5
1A1B
 10
53.3211
 20
-12.4846
 30
0.000000
  70
    32
  0
VERTEX
  8
241
  5
1A1C
 10
53.2322
 20
-12.4247
 30
0.000000
  70
    32
  0
VERTEX
  8
241
  5
1A1D
 10
53.1476
 20
-12.3619
 30
0.000000
  70
    32
  0
VERTEX
  8
241
  5
1A1E
 10
53.0675
 20
-12.2962
 30
0.000000
  70
    32
  0
VERTEX
  8
241
  5
1A1F
 10
52.9920
 20
-12.2278
 30
0.000000
  70
    32
  0
VERTEX
  8
241
  5
1A20
 10
52.9213
 20
-12.1569
 30
0.000000
  70
    32
  0
VERTEX
  8
241
  5
1A21
 10
52.8557
 20
-12.0836
 30
0.000000
  70
    32
  0
VERTEX
  8
241
  5
1A22
 10
52.7952
 20
-12.0081
 30
0.000000
  70
    32
  0
VERTEX
  8
241
  5
1A23
 10
52.7400
 20
-11.9306
 30
0.000000
  70
    32
  0
VERTEX
  8
241
  5
1A24
 10
52.6903
 20
-11.8512
 30
0.000000
  70
    32
  0
VERTEX
  8
241
  5
1A25
 10
52.6461
 20
-11.7703
 30
0.000000
  70
    32
  0
VERTEX
  8
241
  5
1A26
 10
52.6076
 20
-11.6879
 30
0.000000
  70
    32
  0
VERTEX
  8
241
  5
1A27
 10
52.5749
 20
-11.6043
 30
0.000000
  70
    32
  0
VERTEX
  8
241
  5
1A28
 10
52.5480
 20
-11.5196
 30
0.000000
  70
    32
  0
VERTEX
  8
241
  5
1A29
 10
52.5271
 20
-11.4341
 30
0.000000
  70
    32
  0
VERTEX
  8
241
  5
1A2A
 10
52.5120
 20
-11.3480
 30
0.000000
  70
    32
  0
VERTEX
  8
241
  5
1A2B
 10
52.5030
 20
-11.2615
 30
0.000000
  70
    32
  0
VERTEX
  8
241
  5
1A2C
 10
52.5000
 20
-11.1747
 30
0.000000
  70
    32
  0
SEQEND
  8
241
  5
1A2D
  0
POLYLINE
  5
1744
  8
242
 10
51.999999999998181
 20
-11.11305538544638
 30
0.0
 66
     1
 70
     8
  0
VERTEX
  8
242
  5
1A2E
 10
52.0000
 20
-11.1131
 30
0.000000
  70
    32
  0
VERTEX
  8
242
  5
1A2F
 10
52.0036
 20
-11.0090
 30
0.000000
  70
    32
  0
VERTEX
  8
242
  5
1A30
 10
52.0144
 20
-10.9051
 30
0.000000
  70
    32
  0
VERTEX
  8
242
  5
1A31
 10
52.0325
 20
-10.8018
 30
0.000000
  70
    32
  0
VERTEX
  8
242
  5
1A32
 10
52.0576
 20
-10.6992
 30
0.000000
  70
    32
  0
VERTEX
  8
242
  5
1A33
 10
52.0899
 20
-10.5976
 30
0.000000
  70
    32
  0
VERTEX
  8
242
  5
1A34
 10
52.1292
 20
-10.4973
 30
0.000000
  70
    32
  0
VERTEX
  8
242
  5
1A35
 10
52.1754
 20
-10.3984
 30
0.000000
  70
    32
  0
VERTEX
  8
242
  5
1A36
 10
52.2284
 20
-10.3013
 30
0.000000
  70
    32
  0
VERTEX
  8
242
  5
1A37
 10
52.2880
 20
-10.2061
 30
0.000000
  70
    32
  0
VERTEX
  8
242
  5
1A38
 10
52.3542
 20
-10.1131
 30
0.000000
  70
    32
  0
VERTEX
  8
242
  5
1A39
 10
52.4268
 20
-10.0225
 30
0.000000
  70
    32
  0
VERTEX
  8
242
  5
1A3A
 10
52.5056
 20
-9.93451
 30
0.000000
  70
    32
  0
VERTEX
  8
242
  5
1A3B
 10
52.5904
 20
-9.84939
 30
0.000000
  70
    32
  0
VERTEX
  8
242
  5
1A3C
 10
52.6810
 20
-9.76730
 30
0.000000
  70
    32
  0
VERTEX
  8
242
  5
1A3D
 10
52.7771
 20
-9.68846
 30
0.000000
  70
    32
  0
VERTEX
  8
242
  5
1A3E
 10
52.8787
 20
-9.61306
 30
0.000000
  70
    32
  0
VERTEX
  8
242
  5
1A3F
 10
52.9853
 20
-9.54126
 30
0.000000
  70
    32
  0
VERTEX
  8
242
  5
1A40
 10
53.0968
 20
-9.47325
 30
0.000000
  70
    32
  0
VERTEX
  8
242
  5
1A41
 10
53.2129
 20
-9.40919
 30
0.000000
  70
    32
  0
VERTEX
  8
242
  5
1A42
 10
53.3333
 20
-9.34924
 30
0.000000
  70
    32
  0
VERTEX
  8
242
  5
1A43
 10
53.4577
 20
-9.29354
 30
0.000000
  70
    32
  0
VERTEX
  8
242
  5
1A44
 10
53.5858
 20
-9.24222
 30
0.000000
  70
    32
  0
VERTEX
  8
242
  5
1A45
 10
53.7173
 20
-9.19540
 30
0.000000
  70
    32
  0
VERTEX
  8
242
  5
1A46
 10
53.8519
 20
-9.15321
 30
0.000000
  70
    32
  0
VERTEX
  8
242
  5
1A47
 10
53.9893
 20
-9.11574
 30
0.000000
  70
    32
  0
VERTEX
  8
242
  5
1A48
 10
54.1291
 20
-9.08308
 30
0.000000
  70
    32
  0
VERTEX
  8
242
  5
1A49
 10
54.2711
 20
-9.05531
 30
0.000000
  70
    32
  0
VERTEX
  8
242
  5
1A4A
 10
54.4147
 20
-9.03250
 30
0.000000
  70
    32
  0
VERTEX
  8
242
  5
1A4B
 10
54.5598
 20
-9.01470
 30
0.000000
  70
    32
  0
VERTEX
  8
242
  5
1A4C
 10
54.7059
 20
-9.00195
 30
0.000000
  70
    32
  0
VERTEX
  8
242
  5
1A4D
 10
54.8528
 20
-8.99429
 30
0.000000
  70
    32
  0
VERTEX
  8
242
  5
1A4E
 10
55.0000
 20
-8.99174
 30
0.000000
  70
    32
  0
VERTEX
  8
242
  5
1A4F
 10
55.1472
 20
-8.99429
 30
0.000000
  70
    32
  0
VERTEX
  8
242
  5
1A50
 10
55.2941
 20
-9.00195
 30
0.000000
  70
    32
  0
VERTEX
  8
242
  5
1A51
 10
55.4402
 20
-9.01470
 30
0.000000
  70
    32
  0
VERTEX
  8
242
  5
1A52
 10
55.5853
 20
-9.03250
 30
0.000000
  70
    32
  0
VERTEX
  8
242
  5
1A53
 10
55.7289
 20
-9.05531
 30
0.000000
  70
    32
  0
VERTEX
  8
242
  5
1A54
 10
55.8709
 20
-9.08308
 30
0.000000
  70
    32
  0
VERTEX
  8
242
  5
1A55
 10
56.0107
 20
-9.11574
 30
0.000000
  70
    32
  0
VERTEX
  8
242
  5
1A56
 10
56.1481
 20
-9.15321
 30
0.000000
  70
    32
  0
VERTEX
  8
242
  5
1A57
 10
56.2827
 20
-9.19540
 30
0.000000
  70
    32
  0
VERTEX
  8
242
  5
1A58
 10
56.4142
 20
-9.24222
 30
0.000000
  70
    32
  0
VERTEX
  8
242
  5
1A59
 10
56.5423
 20
-9.29354
 30
0.000000
  70
    32
  0
VERTEX
  8
242
  5
1A5A
 10
56.6667
 20
-9.34924
 30
0.000000
  70
    32
  0
VERTEX
  8
242
  5
1A5B
 10
56.7871
 20
-9.40919
 30
0.000000
  70
    32
  0
VERTEX
  8
242
  5
1A5C
 10
56.9032
 20
-9.47325
 30
0.000000
  70
    32
  0
VERTEX
  8
242
  5
1A5D
 10
57.0147
 20
-9.54126
 30
0.000000
  70
    32
  0
VERTEX
  8
242
  5
1A5E
 10
57.1213
 20
-9.61306
 30
0.000000
  70
    32
  0
VERTEX
  8
242
  5
1A5F
 10
57.2229
 20
-9.68846
 30
0.000000
  70
    32
  0
VERTEX
  8
242
  5
1A60
 10
57.3190
 20
-9.76730
 30
0.000000
  70
    32
  0
VERTEX
  8
242
  5
1A61
 10
57.4096
 20
-9.84939
 30
0.000000
  70
    32
  0
VERTEX
  8
242
  5
1A62
 10
57.4944
 20
-9.93451
 30
0.000000
  70
    32
  0
VERTEX
  8
242
  5
1A63
 10
57.5732
 20
-10.0225
 30
0.000000
  70
    32
  0
VERTEX
  8
242
  5
1A64
 10
57.6458
 20
-10.1131
 30
0.000000
  70
    32
  0
VERTEX
  8
242
  5
1A65
 10
57.7120
 20
-10.2061
 30
0.000000
  70
    32
  0
VERTEX
  8
242
  5
1A66
 10
57.7716
 20
-10.3013
 30
0.000000
  70
    32
  0
VERTEX
  8
242
  5
1A67
 10
57.8246
 20
-10.3984
 30
0.000000
  70
    32
  0
VERTEX
  8
242
  5
1A68
 10
57.8708
 20
-10.4973
 30
0.000000
  70
    32
  0
VERTEX
  8
242
  5
1A69
 10
57.9101
 20
-10.5976
 30
0.000000
  70
    32
  0
VERTEX
  8
242
  5
1A6A
 10
57.9424
 20
-10.6992
 30
0.000000
  70
    32
  0
VERTEX
  8
242
  5
1A6B
 10
57.9675
 20
-10.8018
 30
0.000000
  70
    32
  0
VERTEX
  8
242
  5
1A6C
 10
57.9856
 20
-10.9051
 30
0.000000
  70
    32
  0
VERTEX
  8
242
  5
1A6D
 10
57.9964
 20
-11.0090
 30
0.000000
  70
    32
  0
VERTEX
  8
242
  5
1A6E
 10
58.0000
 20
-11.1131
 30
0.000000
  70
    32
  0
VERTEX
  8
242
  5
1A6F
 10
57.9964
 20
-11.2171
 30
0.000000
  70
    32
  0
VERTEX
  8
242
  5
1A70
 10
57.9856
 20
-11.3210
 30
0.000000
  70
    32
  0
VERTEX
  8
242
  5
1A71
 10
57.9675
 20
-11.4243
 30
0.000000
  70
    32
  0
VERTEX
  8
242
  5
1A72
 10
57.9424
 20
-11.5269
 30
0.000000
  70
    32
  0
VERTEX
  8
242
  5
1A73
 10
57.9101
 20
-11.6285
 30
0.000000
  70
    32
  0
VERTEX
  8
242
  5
1A74
 10
57.8708
 20
-11.7288
 30
0.000000
  70
    32
  0
VERTEX
  8
242
  5
1A75
 10
57.8246
 20
-11.8277
 30
0.000000
  70
    32
  0
VERTEX
  8
242
  5
1A76
 10
57.7716
 20
-11.9248
 30
0.000000
  70
    32
  0
VERTEX
  8
242
  5
1A77
 10
57.7120
 20
-12.0200
 30
0.000000
  70
    32
  0
VERTEX
  8
242
  5
1A78
 10
57.6458
 20
-12.1130
 30
0.000000
  70
    32
  0
VERTEX
  8
242
  5
1A79
 10
57.5732
 20
-12.2036
 30
0.000000
  70
    32
  0
VERTEX
  8
242
  5
1A7A
 10
57.4944
 20
-12.2916
 30
0.000000
  70
    32
  0
VERTEX
  8
242
  5
1A7B
 10
57.4096
 20
-12.3767
 30
0.000000
  70
    32
  0
VERTEX
  8
242
  5
1A7C
 10
57.3190
 20
-12.4588
 30
0.000000
  70
    32
  0
VERTEX
  8
242
  5
1A7D
 10
57.2229
 20
-12.5376
 30
0.000000
  70
    32
  0
VERTEX
  8
242
  5
1A7E
 10
57.1213
 20
-12.6131
 30
0.000000
  70
    32
  0
VERTEX
  8
242
  5
1A7F
 10
57.0147
 20
-12.6849
 30
0.000000
  70
    32
  0
VERTEX
  8
242
  5
1A80
 10
56.9032
 20
-12.7529
 30
0.000000
  70
    32
  0
VERTEX
  8
242
  5
1A81
 10
56.7871
 20
-12.8169
 30
0.000000
  70
    32
  0
VERTEX
  8
242
  5
1A82
 10
56.6667
 20
-12.8769
 30
0.000000
  70
    32
  0
VERTEX
  8
242
  5
1A83
 10
56.5423
 20
-12.9326
 30
0.000000
  70
    32
  0
VERTEX
  8
242
  5
1A84
 10
56.4142
 20
-12.9839
 30
0.000000
  70
    32
  0
VERTEX
  8
242
  5
1A85
 10
56.2827
 20
-13.0307
 30
0.000000
  70
    32
  0
VERTEX
  8
242
  5
1A86
 10
56.1481
 20
-13.0729
 30
0.000000
  70
    32
  0
VERTEX
  8
242
  5
1A87
 10
56.0107
 20
-13.1104
 30
0.000000
  70
    32
  0
VERTEX
  8
242
  5
1A88
 10
55.8709
 20
-13.1430
 30
0.000000
  70
    32
  0
VERTEX
  8
242
  5
1A89
 10
55.7289
 20
-13.1708
 30
0.000000
  70
    32
  0
VERTEX
  8
242
  5
1A8A
 10
55.5853
 20
-13.1936
 30
0.000000
  70
    32
  0
VERTEX
  8
242
  5
1A8B
 10
55.4402
 20
-13.2114
 30
0.000000
  70
    32
  0
VERTEX
  8
242
  5
1A8C
 10
55.2941
 20
-13.2242
 30
0.000000
  70
    32
  0
VERTEX
  8
242
  5
1A8D
 10
55.1472
 20
-13.2318
 30
0.000000
  70
    32
  0
VERTEX
  8
242
  5
1A8E
 10
55.0000
 20
-13.2344
 30
0.000000
  70
    32
  0
VERTEX
  8
242
  5
1A8F
 10
54.8528
 20
-13.2318
 30
0.000000
  70
    32
  0
VERTEX
  8
242
  5
1A90
 10
54.7059
 20
-13.2242
 30
0.000000
  70
    32
  0
VERTEX
  8
242
  5
1A91
 10
54.5598
 20
-13.2114
 30
0.000000
  70
    32
  0
VERTEX
  8
242
  5
1A92
 10
54.4147
 20
-13.1936
 30
0.000000
  70
    32
  0
VERTEX
  8
242
  5
1A93
 10
54.2711
 20
-13.1708
 30
0.000000
  70
    32
  0
VERTEX
  8
242
  5
1A94
 10
54.1291
 20
-13.1430
 30
0.000000
  70
    32
  0
VERTEX
  8
242
  5
1A95
 10
53.9893
 20
-13.1104
 30
0.000000
  70
    32
  0
VERTEX
  8
242
  5
1A96
 10
53.8519
 20
-13.0729
 30
0.000000
  70
    32
  0
VERTEX
  8
242
  5
1A97
 10
53.7173
 20
-13.0307
 30
0.000000
  70
    32
  0
VERTEX
  8
242
  5
1A98
 10
53.5858
 20
-12.9839
 30
0.000000
  70
    32
  0
VERTEX
  8
242
  5
1A99
 10
53.4577
 20
-12.9326
 30
0.000000
  70
    32
  0
VERTEX
  8
242
  5
1A9A
 10
53.3333
 20
-12.8769
 30
0.000000
  70
    32
  0
VERTEX
  8
242
  5
1A9B
 10
53.2129
 20
-12.8169
 30
0.000000
  70
    32
  0
VERTEX
  8
242
  5
1A9C
 10
53.0968
 20
-12.7529
 30
0.000000
  70
    32
  0
VERTEX
  8
242
  5
1A9D
 10
52.9853
 20
-12.6849
 30
0.000000
  70
    32
  0
VERTEX
  8
242
  5
1A9E
 10
52.8787
 20
-12.6131
 30
0.000000
  70
    32
  0
VERTEX
  8
242
  5
1A9F
 10
52.7771
 20
-12.5376
 30
0.000000
  70
    32
  0
VERTEX
  8
242
  5
1AA0
 10
52.6810
 20
-12.4588
 30
0.000000
  70
    32
  0
VERTEX
  8
242
  5
1AA1
 10
52.5904
 20
-12.3767
 30
0.000000
  70
    32
  0
VERTEX
  8
242
  5
1AA2
 10
52.5056
 20
-12.2916
 30
0.000000
  70
    32
  0
VERTEX
  8
242
  5
1AA3
 10
52.4268
 20
-12.2036
 30
0.000000
  70
    32
  0
VERTEX
  8
242
  5
1AA4
 10
52.3542
 20
-12.1130
 30
0.000000
  70
    32
  0
VERTEX
  8
242
  5
1AA5
 10
52.2880
 20
-12.0200
 30
0.000000
  70
    32
  0
VERTEX
  8
242
  5
1AA6
 10
52.2284
 20
-11.9248
 30
0.000000
  70
    32
  0
VERTEX
  8
242
  5
1AA7
 10
52.1754
 20
-11.8277
 30
0.000000
  70
    32
  0
VERTEX
  8
242
  5
1AA8
 10
52.1292
 20
-11.7288
 30
0.000000
  70
    32
  0
VERTEX
  8
242
  5
1AA9
 10
52.0899
 20
-11.6285
 30
0.000000
  70
    32
  0
VERTEX
  8
242
  5
1AAA
 10
52.0576
 20
-11.5269
 30
0.000000
  70
    32
  0
VERTEX
  8
242
  5
1AAB
 10
52.0325
 20
-11.4243
 30
0.000000
  70
    32
  0
VERTEX
  8
242
  5
1AAC
 10
52.0144
 20
-11.3210
 30
0.000000
  70
    32
  0
VERTEX
  8
242
  5
1AAD
 10
52.0036
 20
-11.2171
 30
0.000000
  70
    32
  0
VERTEX
  8
242
  5
1AAE
 10
52.0000
 20
-11.1131
 30
0.000000
  70
    32
  0
SEQEND
  8
242
  5
1AAF
  0
LINE
  5
1745
  8
241
 10
2.9742360359850859
 20
15.899999999996
 30
0.0
 11
2.9742360359850859
 21
0.0000000000004547
 31
0.0
  0
LINE
  5
1746
  8
241
 10
-0.000000000001819
 20
26.641256028048701
 30
0.0
 11
0.0
 21
0.0000000000004547
 31
0.0
  0
LINE
  5
1747
  8
241
 10
-20.000000000005461
 20
20.000000000001819
 30
0.0
 11
-20.000000000005461
 21
0.0000000000004547
 31
0.0
  0
LINE
  5
1748
  8
241
 10
-7.6262612902773981
 20
26.999999999994539
 30
0.0
 11
-7.6262612902773981
 21
0.0000000000004547
 31
0.0
  0
LINE
  5
1749
  8
241
 10
49.0
 20
15.99999999999863
 30
0.0
 11
48.999999999998181
 21
0.0000000000004547
 31
0.0
  0
LINE
  5
174A
  8
241
 10
47.399999999994179
 20
15.99999999999863
 30
0.0
 11
47.399999999994179
 21
0.0000000000004547
 31
0.0
  0
LINE
  5
174B
  8
241
 10
46.000000000001812
 20
15.999999999999091
 30
0.0
 11
46.000000000001812
 21
0.0
 31
0.0
  0
LINE
  5
174C
  8
241
 10
44.39999999999236
 20
16.0
 30
0.0
 11
44.39999999999236
 21
0.0000000000004547
 31
0.0
  0
LINE
  5
174D
  8
241
 10
4.999999999998181
 20
15.899999999997361
 30
0.0
 11
4.999999999998181
 21
0.0
 31
0.0
  0
ARC
  5
174E
  8
240
 10
-31.699999999995271
 20
19.800000000007909
 30
0.0
 40
0.2
 50
0.0
 51
90.0
1001
GENIUS_GENODEF_13
1002
{
1000
HIER
1070
     0
1002
}
1002
{
1000
MANEDIT
1070
     0
1002
}
1002
{
1000
NOSEL
1070
     0
1002
}
1002
{
1000
BEHIND
1070
     0
1002
}
1002
{
1000
OTHER
1070
     0
1002
}
1002
{
1000
REACTOR
1002
}
1001
GENIUS_GENOBJ-N-FIL_13
1002
{
1000
OWNER
1000
GEN
1002
}
  0
ARC
  5
174F
  8
240
 10
-28.800000000008371
 20
19.800000000007909
 30
0.0
 40
0.2
 50
90.0
 51
180.0
1001
GENIUS_GENOBJ-N-FIL_13
1002
{
1000
OWNER
1000
GEN
1002
}
1001
GENIUS_GENODEF_13
1002
{
1000
HIER
1070
     0
1002
}
1002
{
1000
MANEDIT
1070
     0
1002
}
1002
{
1000
NOSEL
1070
     0
1002
}
1002
{
1000
BEHIND
1070
     0
1002
}
1002
{
1000
OTHER
1070
     0
1002
}
1002
{
1000
REACTOR
1002
}
  0
LINE
  5
1750
  8
241
 10
-29.000000000005461
 20
-0.0000000000004547
 30
0.0
 11
-29.000000000005461
 21
19.800000000004271
 31
0.0
  0
LINE
  5
1751
  8
241
 10
-31.500000000001819
 20
-0.0000000000009095
 30
0.0
 11
-31.500000000001819
 21
19.800000000004271
 31
0.0
  0
ARC
  5
1752
  8
240
 10
-45.199999999995271
 20
-19.800000000008371
 30
0.0
 40
0.2
 50
270.0
 51
0.0
1001
GENIUS_GENODEF_13
1002
{
1000
HIER
1070
     0
1002
}
1002
{
1000
MANEDIT
1070
     0
1002
}
1002
{
1000
NOSEL
1070
     0
1002
}
1002
{
1000
BEHIND
1070
     0
1002
}
1002
{
1000
OTHER
1070
     0
1002
}
1002
{
1000
REACTOR
1002
}
1001
GENIUS_GENOBJ-N-FIL_13
1002
{
1000
OWNER
1000
GEN
1002
}
  0
ARC
  5
1753
  8
240
 10
-42.300000000008367
 20
-19.800000000008371
 30
0.0
 40
0.2
 50
180.0
 51
270.0
1001
GENIUS_GENOBJ-N-FIL_13
1002
{
1000
OWNER
1000
GEN
1002
}
1001
GENIUS_GENODEF_13
1002
{
1000
HIER
1070
     0
1002
}
1002
{
1000
MANEDIT
1070
     0
1002
}
1002
{
1000
NOSEL
1070
     0
1002
}
1002
{
1000
BEHIND
1070
     0
1002
}
1002
{
1000
OTHER
1070
     0
1002
}
1002
{
1000
REACTOR
1002
}
  0
LINE
  5
1754
  8
241
 10
-42.500000000005457
 20
0.0
 30
0.0
 11
-42.500000000005457
 21
-19.800000000004729
 31
0.0
  0
LINE
  5
1755
  8
241
 10
-45.000000000003638
 20
0.0000000000004547
 30
0.0
 11
-45.000000000001819
 21
-19.800000000004729
 31
0.0
  0
ARC
  5
1756
  8
240
 10
-9.0352653961472242
 20
-26.699999999995271
 30
0.0
 40
0.2
 50
70.000000000010758
 51
90.0
1001
GENIUS_GENODEF_13
1002
{
1000
HIER
1070
     0
1002
}
1002
{
1000
MANEDIT
1070
     0
1002
}
1002
{
1000
NOSEL
1070
     0
1002
}
1002
{
1000
BEHIND
1070
     0
1002
}
1002
{
1000
OTHER
1070
     0
1002
}
1002
{
1000
REACTOR
1002
}
1001
GENIUS_GENOBJ-N-FIL_13
1002
{
1000
OWNER
1000
GEN
1002
}
  0
LINE
  5
1757
  8
240
 10
-18.000000000005461
 20
-26.0
 30
0.0
 11
-18.000000000005461
 21
-21.000000000001819
 31
0.0
  0
ARC
  5
1758
  8
240
 10
-17.500000000005461
 20
-26.0
 30
0.0
 40
0.5
 50
180.0
 51
270.0
  0
LINE
  5
1759
  8
240
 10
-9.0352653961472242
 20
-26.49999999999455
 30
0.0
 11
-17.500000000005461
 21
-26.5
 31
0.0
  0
LINE
  5
175A
  8
241
  6
CONTINUOUS
 10
-9.0000000000018172
 20
0.0
 30
0.0
 11
-9.0000000000018172
 21
-26.499999999996358
 31
0.0
  0
LINE
  5
175B
  8
241
  6
CONTINUOUS
 10
-9.0000000000018172
 20
-20.19999999999709
 30
0.0
 11
-17.500000000005461
 21
-20.19999999999709
 31
0.0
  0
LINE
  5
175C
  8
240
 10
-8.9668613674821245
 20
-26.512061475837982
 30
0.0
 11
-7.7919544528940596
 21
-26.939692620780988
 31
0.0
  0
ARC
  5
175D
  8
240
 10
-7.4499343095685608
 20
-25.999999999994539
 30
0.0
 40
1.0
 50
250.0000000000108
 51
270.0
1001
GENIUS_GENODEF_13
1002
{
1000
HIER
1070
     0
1002
}
1002
{
1000
MANEDIT
1070
     0
1002
}
1002
{
1000
NOSEL
1070
     0
1002
}
1002
{
1000
BEHIND
1070
     0
1002
}
1002
{
1000
OTHER
1070
     0
1002
}
1002
{
1000
REACTOR
1002
}
1001
GENIUS_GENOBJ-N-FIL_13
1002
{
1000
OWNER
1000
GEN
1002
}
  0
LINE
  5
175E
  8
240
 10
-0.635674490395104
 20
-26.999999999994539
 30
0.0
 11
-7.4499343095685608
 21
-26.999999999994539
 31
0.0
  0
LINE
  5
175F
  8
240
 10
-0.5085079428808969
 20
-26.96592582628546
 30
0.0
 11
-0.635674490395104
 21
-26.999999999994539
 31
0.0
  0
ARC
  5
1760
  8
240
 10
-0.7673269879833243
 20
-25.999999999994539
 30
0.0
 40
1.0
 50
284.99999999999437
 51
345.00000000000563
1001
GENIUS_GENOBJ-N-FIL_13
1002
{
1000
OWNER
1000
GEN
1002
}
1001
GENIUS_GENODEF_13
1002
{
1000
HIER
1070
     0
1002
}
1002
{
1000
MANEDIT
1070
     0
1002
}
1002
{
1000
NOSEL
1070
     0
1002
}
1002
{
1000
BEHIND
1070
     0
1002
}
1002
{
1000
OTHER
1070
     0
1002
}
1002
{
1000
REACTOR
1002
}
  0
LINE
  5
1761
  8
240
 10
4.999999999998181
 20
-15.899999999997361
 30
0.0
 11
5.1000000000003629
 21
-15.999999999997719
 31
0.0
  0
LINE
  5
1762
  8
240
 10
4.999999999998181
 20
-15.899999999997361
 30
0.0
 11
3.7415630239629531
 21
-15.899999999996449
 31
0.0
  0
LINE
  5
1763
  8
240
 10
0.1985988383075892
 20
-26.25881904509879
 30
0.0
 11
2.7756371976738592
 21
-16.641180954893571
 31
0.0
  0
LINE
  5
1764
  8
240
 10
-18.000000000005461
 20
-19.700000000002539
 30
0.0
 11
-19.700000000006181
 21
-19.700000000002539
 31
0.0
  0
LINE
  5
1765
  8
240
 10
-19.700000000006181
 20
-19.700000000002539
 30
0.0
 11
-20.000000000005461
 21
-20.000000000001819
 31
0.0
  0
ARC
  5
1766
  8
240
 10
-18.000000000005461
 20
-20.20000000000255
 30
0.0
 40
0.5
 50
0.0
 51
90.0
  0
LINE
  5
1767
  8
240
 10
-17.500000000005461
 20
-20.499999999998181
 30
0.0
 11
-17.500000000005461
 21
-20.20000000000255
 31
0.0
  0
LINE
  5
1768
  8
240
 10
-17.500000000005461
 20
-20.499999999998181
 30
0.0
 11
-18.000000000005461
 21
-21.000000000001819
 31
0.0
  0
LINE
  5
1769
  8
240
 10
-51.500000000020009
 20
-20.0
 30
0.0
 11
-45.199999999995271
 21
-19.999999999998181
 31
0.0
  0
LINE
  5
176A
  8
243
 10
-72.000000000001819
 20
-16.499999999986361
 30
0.0
 11
-72.000000000001819
 21
0.0
 31
0.0
  0
LINE
  5
176B
  8
243
 10
-60.000000000021828
 20
-16.5
 30
0.0
 11
-60.000000000016371
 21
0.0
 31
0.0
  0
LINE
  5
176C
  8
240
 10
-55.000000000020009
 20
-16.5
 30
0.0
 11
-51.500000000020009
 21
-20.0
 31
0.0
  0
LINE
  5
176D
  8
240
 10
-55.000000000020009
 20
-16.5
 30
0.0
 11
-66.000000000005457
 21
-16.5
 31
0.0
  0
LINE
  5
176E
  8
240
 10
-76.999999999987267
 20
-16.499999999998181
 30
0.0
 11
-66.000000000001819
 21
-16.499999999972712
 31
0.0
  0
LINE
  5
176F
  8
240
 10
-76.999999999987267
 20
-16.499999999998181
 30
0.0
 11
-80.499999999990905
 21
-19.999999999998181
 31
0.0
  0
LINE
  5
1770
  8
240
 10
5.1000000000040009
 20
-16.000000000004999
 30
0.0
 11
44.39999999999236
 21
-16.0
 31
0.0
  0
LINE
  5
1771
  8
240
 10
-42.300000000008367
 20
-20.0
 30
0.0
 11
-31.699999999998909
 21
-20.000000000001819
 31
0.0
  0
LINE
  5
1772
  8
240
 10
-28.800000000012009
 20
-20.000000000001819
 30
0.0
 11
-20.000000000005461
 21
-20.000000000001819
 31
0.0
  0
ARC
  5
1773
  8
240
 10
3.7415630239647721
 20
-16.899999999996449
 30
0.0
 40
1.0
 50
90.000000000052125
 51
164.9999999999803
1001
GENIUS_GENOBJ-N-FIL_13
1002
{
1000
OWNER
1000
GEN
1002
}
1001
GENIUS_GENODEF_13
1002
{
1000
HIER
1070
     0
1002
}
1002
{
1000
MANEDIT
1070
     0
1002
}
1002
{
1000
NOSEL
1070
     0
1002
}
1002
{
1000
BEHIND
1070
     0
1002
}
1002
{
1000
OTHER
1070
     0
1002
}
1002
{
1000
REACTOR
1002
}
  0
LINE
  5
1774
  8
241
 10
2.9742360359850859
 20
-15.899999999996
 30
0.0
 11
2.9742360359850859
 21
0.0
 31
0.0
  0
LINE
  5
1775
  8
241
 10
-0.000000000001819
 20
-26.64125602804825
 30
0.0
 11
0.0
 21
0.0
 31
0.0
  0
LINE
  5
1776
  8
241
 10
-20.000000000005461
 20
-20.000000000001819
 30
0.0
 11
-20.000000000005461
 21
0.0
 31
0.0
  0
LINE
  5
1777
  8
241
 10
-7.6262612902773981
 20
-26.999999999994088
 30
0.0
 11
-7.6262612902773981
 21
0.0
 31
0.0
  0
LINE
  5
1778
  8
241
 10
4.999999999998181
 20
-15.899999999997361
 30
0.0
 11
4.999999999998181
 21
0.0
 31
0.0
  0
ARC
  5
1779
  8
240
 10
-31.699999999995271
 20
-19.800000000007461
 30
0.0
 40
0.2
 50
270.0
 51
0.0
1001
GENIUS_GENODEF_13
1002
{
1000
HIER
1070
     0
1002
}
1002
{
1000
MANEDIT
1070
     0
1002
}
1002
{
1000
NOSEL
1070
     0
1002
}
1002
{
1000
BEHIND
1070
     0
1002
}
1002
{
1000
OTHER
1070
     0
1002
}
1002
{
1000
REACTOR
1002
}
1001
GENIUS_GENOBJ-N-FIL_13
1002
{
1000
OWNER
1000
GEN
1002
}
  0
ARC
  5
177A
  8
240
 10
-28.800000000008371
 20
-19.800000000007461
 30
0.0
 40
0.2
 50
180.0
 51
270.0
1001
GENIUS_GENOBJ-N-FIL_13
1002
{
1000
OWNER
1000
GEN
1002
}
1001
GENIUS_GENODEF_13
1002
{
1000
HIER
1070
     0
1002
}
1002
{
1000
MANEDIT
1070
     0
1002
}
1002
{
1000
NOSEL
1070
     0
1002
}
1002
{
1000
BEHIND
1070
     0
1002
}
1002
{
1000
OTHER
1070
     0
1002
}
1002
{
1000
REACTOR
1002
}
  0
LINE
  5
177B
  8
241
 10
-29.000000000005461
 20
0.0000000000009095
 30
0.0
 11
-29.000000000005461
 21
-19.80000000000382
 31
0.0
  0
LINE
  5
177C
  8
241
 10
-31.500000000001819
 20
0.0000000000013642
 30
0.0
 11
-31.500000000001819
 21
-19.80000000000382
 31
0.0
  0
LINE
  5
177D
  8
241
 10
49.0
 20
-15.99999999999863
 30
0.0
 11
48.999999999998181
 21
0.0
 31
0.0
  0
LINE
  5
177E
  8
241
 10
47.399999999994179
 20
-15.99999999999863
 30
0.0
 11
47.399999999994179
 21
0.0
 31
0.0
  0
LINE
  5
177F
  8
241
 10
46.000000000001812
 20
-15.999999999999091
 30
0.0
 11
46.000000000001812
 21
0.0
 31
0.0
  0
LINE
  5
1780
  8
241
 10
44.39999999999236
 20
-16.0
 30
0.0
 11
44.39999999999236
 21
0.0
 31
0.0
  0
LINE
  5
1781
  8
241
 10
-18.000000000005461
 20
19.700000000002539
 30
0.0
 11
-18.000000000005461
 21
0.0000000000004547
 31
0.0
  0
LINE
  5
1782
  8
241
 10
-18.000000000005461
 20
-19.700000000002088
 30
0.0
 11
-18.000000000005461
 21
0.0
 31
0.0
  0
LINE
  5
1783
  8
240
 10
-90.000000000000895
 20
19.13653903092608
 30
0.0
 11
-90.000000000001819
 21
0.000000000007276
 31
0.0
  0
ARC
  5
1784
  8
240
 10
-88.800000000001987
 20
18.815000000007331
 30
0.0
 40
1.1999999999999991
 50
99.068721546943138
 51
149.99999999998971
1001
GENIUS_GENOBJ-N-FIL_13
1002
{
1000
OWNER
1000
GEN
1002
}
1001
GENIUS_GENODEF_13
1002
{
1000
HIER
1070
     0
1002
}
1002
{
1000
MANEDIT
1070
     0
1002
}
1002
{
1000
NOSEL
1070
     0
1002
}
1002
{
1000
BEHIND
1070
     0
1002
}
1002
{
1000
OTHER
1070
     0
1002
}
1002
{
1000
REACTOR
1002
}
  0
LINE
  5
1785
  8
240
 10
-89.839230484542895
 20
19.41500000000724
 30
0.0
 11
-90.000000000000895
 21
19.13653903092608
 31
0.0
  0
ARC
  5
1786
  8
240
 10
-88.800000000001987
 20
18.815000000007331
 30
0.0
 40
1.1999999999999991
 50
79.999999999996106
 51
80.931278453056876
1001
GENIUS_GENOBJ-N-FIL_13
1002
{
1000
OWNER
1000
GEN
1002
}
1001
GENIUS_GENODEF_13
1002
{
1000
HIER
1070
     0
1002
}
1002
{
1000
MANEDIT
1070
     0
1002
}
1002
{
1000
NOSEL
1070
     0
1002
}
1002
{
1000
BEHIND
1070
     0
1002
}
1002
{
1000
OTHER
1070
     0
1002
}
1002
{
1000
REACTOR
1002
}
  0
LINE
  5
1787
  8
240
 10
-88.591622186801956
 20
19.996769303621932
 30
0.0
 11
-86.612627514929954
 21
19.647819148292449
 31
0.0
  0
LINE
  5
1788
  8
240
 10
-86.612627514929954
 20
19.647819148292449
 30
0.0
 11
-84.106730545855484
 21
20.000000000004551
 31
0.0
  0
LINE
  5
1789
  8
240
 10
-88.989142803214236
 20
20.000000000004089
 30
0.0
 11
-88.610857196789766
 21
20.000000000004089
 31
0.0
  0
LINE
  5
178A
  8
240
 10
-84.106730545868231
 20
20.000000000002728
 30
0.0
 11
-80.499999999995453
 21
20.000000000002728
 31
0.0
  0
LINE
  5
178B
  8
241
 10
-86.612627514929954
 20
19.647819148292449
 30
0.0
 11
-86.612627514929954
 21
-0.0000000000004547
 31
0.0
  0
LINE
  5
178C
  8
241
 10
-84.106730545855484
 20
20.000000000004551
 30
0.0
 11
-84.106730545854575
 21
0.0000000000004547
 31
0.0
  0
LINE
  5
178D
  8
240
 10
-90.000000000000895
 20
-19.13653903092472
 30
0.0
 11
-90.000000000001819
 21
-0.0000000000059117
 31
0.0
  0
ARC
  5
178E
  8
240
 10
-88.800000000001987
 20
-18.815000000005959
 30
0.0
 40
1.1999999999999991
 50
210.00000000001029
 51
260.9312784530569
1001
GENIUS_GENOBJ-N-FIL_13
1002
{
1000
OWNER
1000
GEN
1002
}
1001
GENIUS_GENODEF_13
1002
{
1000
HIER
1070
     0
1002
}
1002
{
1000
MANEDIT
1070
     0
1002
}
1002
{
1000
NOSEL
1070
     0
1002
}
1002
{
1000
BEHIND
1070
     0
1002
}
1002
{
1000
OTHER
1070
     0
1002
}
1002
{
1000
REACTOR
1002
}
  0
LINE
  5
178F
  8
240
 10
-89.839230484542895
 20
-19.415000000005868
 30
0.0
 11
-90.000000000000895
 21
-19.13653903092472
 31
0.0
  0
ARC
  5
1790
  8
240
 10
-88.800000000001987
 20
-18.815000000005959
 30
0.0
 40
1.1999999999999991
 50
279.06872154694321
 51
280.00000000000392
1001
GENIUS_GENOBJ-N-FIL_13
1002
{
1000
OWNER
1000
GEN
1002
}
1001
GENIUS_GENODEF_13
1002
{
1000
HIER
1070
     0
1002
}
1002
{
1000
MANEDIT
1070
     0
1002
}
1002
{
1000
NOSEL
1070
     0
1002
}
1002
{
1000
BEHIND
1070
     0
1002
}
1002
{
1000
OTHER
1070
     0
1002
}
1002
{
1000
REACTOR
1002
}
  0
LINE
  5
1791
  8
240
 10
-88.591622186801956
 20
-19.99676930362056
 30
0.0
 11
-86.612627514929954
 21
-19.647819148291092
 31
0.0
  0
LINE
  5
1792
  8
240
 10
-86.612627514929954
 20
-19.647819148291092
 30
0.0
 11
-84.106730545855484
 21
-20.00000000000318
 31
0.0
  0
LINE
  5
1793
  8
240
 10
-88.989142803214236
 20
-20.000000000002728
 30
0.0
 11
-88.610857196789766
 21
-20.000000000002728
 31
0.0
  0
LINE
  5
1794
  8
240
 10
-84.106730545868231
 20
-20.000000000001361
 30
0.0
 11
-80.499999999995453
 21
-20.000000000001361
 31
0.0
  0
LINE
  5
1795
  8
241
 10
-86.612627514929954
 20
-19.647819148291092
 30
0.0
 11
-86.612627514929954
 21
0.000000000001819
 31
0.0
  0
LINE
  5
1796
  8
241
 10
-84.106730545855484
 20
-20.00000000000318
 30
0.0
 11
-84.106730545854575
 21
0.0000000000009095
 31
0.0
  0
LINE
  5
1797
  8
240
 10
47.39999999999236
 20
16.0
 30
0.0
 11
48.199999999995882
 21
15.53811978464641
 31
0.0
  0
LINE
  5
1798
  8
240
 10
48.999999999998181
 20
16.0
 30
0.0
 11
48.199999999995882
 21
15.53811978464641
 31
0.0
  0
LINE
  5
1799
  8
240
 10
45.999999999998181
 20
16.0
 30
0.0
 11
45.199999999995867
 21
15.53811978464641
 31
0.0
  0
LINE
  5
179A
  8
240
 10
44.39999999999236
 20
16.0
 30
0.0
 11
45.199999999995867
 21
15.53811978464641
 31
0.0
  0
LINE
  5
179B
  8
240
 10
45.999999999998181
 20
16.0
 30
0.0
 11
47.39999999999236
 21
16.0
 31
0.0
  0
LINE
  5
179C
  8
240
 10
47.399999999986903
 20
-16.0
 30
0.0
 11
48.199999999990553
 21
-15.538119784646939
 31
0.0
  0
LINE
  5
179D
  8
240
 10
48.999999999992717
 20
-16.000000000000451
 30
0.0
 11
48.199999999990553
 21
-15.538119784646939
 31
0.0
  0
LINE
  5
179E
  8
240
 10
45.999999999992717
 20
-15.99999999999954
 30
0.0
 11
45.199999999990027
 21
-15.53811978464573
 31
0.0
  0
LINE
  5
179F
  8
240
 10
44.399999999986903
 20
-15.999999999999091
 30
0.0
 11
45.199999999990027
 21
-15.53811978464573
 31
0.0
  0
LINE
  5
17A0
  8
240
 10
45.999999999992717
 20
-15.99999999999954
 30
0.0
 11
47.399999999986903
 21
-16.0
 31
0.0
  0
ARC
  5
17A1
  8
240
 10
-43.750000000001819
 20
17.742857142853879
 30
0.0
 40
2.4071428571493918
 50
58.715507085859528
 51
121.2844929141404
  0
ARC
  5
17A2
  8
240
 10
-30.249999999995271
 20
17.7428571428574
 30
0.0
 40
2.4071428571493918
 50
58.715507085859571
 51
121.2844929141401
  0
ARC
  5
17A3
  8
240
 10
-43.750000000008257
 20
-17.742857142846699
 30
0.0
 40
2.4071428571493918
 50
238.71550708583871
 51
301.2844929141196
  0
ARC
  5
17A4
  8
240
 10
-30.25000000000173
 20
-17.742857142855129
 30
0.0
 40
2.4071428571493918
 50
238.71550708583899
 51
301.2844929141196
  0
TEXT
  5
17A5
  8
247
 10
11.367021876503941
 20
-11.82908255673925
 30
0.0
 40
1.9999999999999949
  1
MGT36-M20-65
 50
90.0
  7
YOKO
  0
INSERT
  5
17A6
  8
247
  2
A$C187A1F95
 10
8.3018994380354343
 20
0.2666738499647945
 30
0.0
 41
0.7999999999999546
 42
0.8000000000001817
 43
0.8
  0
POINT
  5
17A7
  8
0
 10
-15041.480041667361
 20
9982.2519074072643
 30
0.0
1001
GENIUS_GENOLIS_13
1002
{
1000
ENT
1005
0
1005
0
1005
1708
1005
0
1002
}
1001
GENIUS_GENOENT_13
1002
{
1000
MYREF
1005
17A7
1002
}
1002
{
1000
GRP
1005
0
1002
}
1001
GENIUS_GENOBJ-N-CRS_13
1002
{
1000
OWNER
1000
GEN
1002
}
1001
GENIUS_GENODEF_13
1002
{
1000
HIER
1070
    10
1002
}
1002
{
1000
MANEDIT
1070
     1
1002
}
1002
{
1000
NOSEL
1070
     0
1002
}
1002
{
1000
BEHIND
1070
     0
1002
}
1002
{
1000
OTHER
1070
     0
1002
}
1002
{
1000
REACTOR
1002
}
  0
ENDBLK
  5
17AB
  8
0
  0
BLOCK
  8
0
  2
*U6
 70
     1
 10
0.0
 20
0.0
 30
0.0
  3
*U6
  1

  0
TEXT
  5
18A0
  8
250
 10
76.0
 20
-36.160558595496099
 30
0.0
 40
6.0
  1
\U+220515
 50
90.0
  0
ENDBLK
  5
18A2
  8
0
  0
BLOCK
  8
0
  2
*U7
 70
     1
 10
0.0
 20
0.0
 30
0.0
  3
*U7
  1

  0
TEXT
  5
18A4
  8
250
 10
17.211951921361099
 20
-38.708410757454118
 30
0.0
 40
6.0
  1
o
 50
90.0
  0
TEXT
  5
18A5
  8
250
 10
17.211951921361099
 20
-31.565553614596979
 30
0.0
 40
6.0
  1
12
 50
90.0
  0
ENDBLK
  5
18A7
  8
0
  0
ENDSEC
  0
SECTION
  2
ENTITIES
  0
TEXT
  5
152B
  8
241
 10
-90.706710985125028
 20
59.207299286452553
 30
0.0
 40
7.5
  1
MGT36-M20-65
  7
YOKO
  0
LINE
  5
16C8
  8
250
 10
-0.000000000001819
 20
27.499999999992269
 30
0.0
 11
-0.000000000001818
 21
43.0
 31
0.0
  0
LINE
  5
16C9
  8
250
 10
65.000000000001819
 20
15.49999999999636
 30
0.0
 11
65.000000000001819
 21
43.0
 31
0.0
  0
LINE
  5
16CA
  8
250
 10
2.229999999998181
 20
42.0
 30
0.0
 11
62.770000000001822
 21
42.0
 31
0.0
  0
LINE
  5
16CF
  8
250
 10
64.500000000001819
 20
15.99999999999636
 30
0.0
 11
92.0
 21
15.99999999999635
 31
0.0
  0
LINE
  5
16D0
  8
250
 10
64.5
 20
-15.999999999999091
 30
0.0
 11
92.0
 21
-15.999999999999099
 31
0.0
  0
LINE
  5
16D1
  8
250
 10
91.0
 20
13.769999999996349
 30
0.0
 11
91.0
 21
-13.769999999999101
 31
0.0
  0
LINE
  5
16D5
  8
250
 10
64.499999999998181
 20
7.4999999999972706
 30
0.0
 11
78.0
 21
7.4999999999972671
 31
0.0
  0
LINE
  5
16D6
  8
250
 10
64.499999999998181
 20
-7.5000000000013642
 30
0.0
 11
78.0
 21
-7.5000000000013669
 31
0.0
  0
LINE
  5
16D7
  8
250
 10
77.0
 20
5.2699999999972684
 30
0.0
 11
77.0
 21
-5.2700000000013683
 31
0.0
  0
LINE
  5
16D8
  8
250
 10
76.999999999999986
 20
-36.589130024067543
 30
0.0
 11
77.0
 21
-7.5000000000013669
 31
0.0
  0
INSERT
  5
16D9
  8
240
  2
*U6
 10
0.0
 20
0.0
 30
0.0
  0
LINE
  5
16DC
  8
250
 10
24.499999999998181
 20
5.9999999999972706
 30
0.0
 11
17.211951921361099
 21
5.9999999999972742
 31
0.0
  0
LINE
  5
16DD
  8
250
 10
24.499999999998181
 20
-5.999999999998181
 30
0.0
 11
17.211951921361099
 21
-5.9999999999981783
 31
0.0
  0
LINE
  5
16DE
  8
250
 10
18.211951921361099
 20
3.769999999997272
 30
0.0
 11
18.211951921361099
 21
-3.7699999999981788
 31
0.0
  0
LINE
  5
16DF
  8
250
 10
18.211951921361099
 20
-39.136982186025563
 30
0.0
 11
18.211951921361099
 21
-5.9999999999981801
 31
0.0
  0
INSERT
  5
16E0
  8
240
  2
*U7
 10
0.0
 20
0.0
 30
0.0
  0
LINE
  5
16E3
  8
250
 10
18.583618588027768
 20
-3.7699999999981801
 30
0.0
 11
18.211951921361099
 21
-5.9999999999981801
 31
0.0
  0
LINE
  5
16E4
  8
250
 10
17.840285254694439
 20
-3.7699999999981801
 30
0.0
 11
18.211951921361099
 21
-5.9999999999981801
 31
0.0
  0
LINE
  5
16E5
  8
250
 10
18.211951921361099
 20
-5.9999999999981801
 30
0.0
 11
18.211951921361099
 21
-3.7699999999981801
 31
0.0
  0
LINE
  5
16E6
  8
250
 10
17.840285254694439
 20
3.769999999997272
 30
0.0
 11
18.211951921361099
 21
5.9999999999972724
 31
0.0
  0
LINE
  5
16E7
  8
250
 10
18.583618588027768
 20
3.769999999997272
 30
0.0
 11
18.211951921361099
 21
5.9999999999972724
 31
0.0
  0
LINE
  5
16E8
  8
250
 10
18.211951921361099
 20
5.9999999999972724
 30
0.0
 11
18.211951921361099
 21
3.769999999997272
 31
0.0
  0
TEXT
  5
16E9
  8
250
 10
90.0
 20
-8.1428571428584977
 30
0.0
 40
6.0
  1
\U+220532
 50
90.0
  0
LINE
  5
16EA
  8
250
 10
91.37166666666667
 20
-13.769999999999101
 30
0.0
 11
91.0
 21
-15.999999999999099
 31
0.0
  0
LINE
  5
16EB
  8
250
 10
90.62833333333333
 20
-13.769999999999101
 30
0.0
 11
91.0
 21
-15.999999999999099
 31
0.0
  0
LINE
  5
16EC
  8
250
 10
91.0
 20
-15.999999999999099
 30
0.0
 11
91.0
 21
-13.769999999999101
 31
0.0
  0
LINE
  5
16ED
  8
250
 10
90.62833333333333
 20
13.769999999996349
 30
0.0
 11
91.0
 21
15.99999999999635
 31
0.0
  0
LINE
  5
16EE
  8
250
 10
91.37166666666667
 20
13.769999999996349
 30
0.0
 11
91.0
 21
15.99999999999635
 31
0.0
  0
LINE
  5
16EF
  8
250
 10
91.0
 20
15.99999999999635
 30
0.0
 11
91.0
 21
13.769999999996349
 31
0.0
  0
LINE
  5
16F0
  8
250
 10
77.371666666666655
 20
-5.2700000000013674
 30
0.0
 11
77.0
 21
-7.5000000000013669
 31
0.0
  0
LINE
  5
16F1
  8
250
 10
76.62833333333333
 20
-5.2700000000013674
 30
0.0
 11
77.0
 21
-7.5000000000013669
 31
0.0
  0
LINE
  5
16F2
  8
250
 10
77.0
 20
-7.5000000000013669
 30
0.0
 11
77.0
 21
-5.2700000000013674
 31
0.0
  0
LINE
  5
16F3
  8
250
 10
76.62833333333333
 20
5.2699999999972666
 30
0.0
 11
77.0
 21
7.4999999999972671
 31
0.0
  0
LINE
  5
16F4
  8
250
 10
77.371666666666655
 20
5.2699999999972666
 30
0.0
 11
77.0
 21
7.4999999999972671
 31
0.0
  0
LINE
  5
16F5
  8
250
 10
77.0
 20
7.4999999999972671
 30
0.0
 11
77.0
 21
5.2699999999972666
 31
0.0
  0
TEXT
  5
16F6
  8
250
 10
26.642857142857149
 20
43.0
 30
0.0
 40
6.0
  1
65
  0
LINE
  5
16F7
  8
250
 10
62.770000000001822
 20
42.371666666666663
 30
0.0
 11
65.000000000001819
 21
42.0
 31
0.0
  0
LINE
  5
16F8
  8
250
 10
62.770000000001822
 20
41.62833333333333
 30
0.0
 11
65.000000000001819
 21
42.0
 31
0.0
  0
LINE
  5
16F9
  8
250
 10
65.000000000001819
 20
42.0
 30
0.0
 11
62.770000000001822
 21
42.0
 31
0.0
  0
LINE
  5
16FA
  8
250
 10
2.229999999998181
 20
41.62833333333333
 30
0.0
 11
-0.0000000000018181
 21
42.0
 31
0.0
  0
LINE
  5
16FB
  8
250
 10
2.229999999998181
 20
42.371666666666663
 30
0.0
 11
-0.0000000000018181
 21
42.0
 31
0.0
  0
LINE
  5
16FC
  8
250
 10
-0.0000000000018181
 20
42.0
 30
0.0
 11
2.229999999998181
 21
42.0
 31
0.0
  0
INSERT
  5
17AD
  8
240
  2
A$C671C041C
 10
0.0
 20
0.0
 30
0.0
  0
VIEWPORT
  5
22
 67
     1
  8
0
 10
261.51769911504419
 20
148.5
 30
0.0
 40
523.0353982300885
 41
297.0
 68
     1
 69
     1
1001
ACAD
1000
MVIEW
1002
{
1070
    16
1010
0.0
1020
0.0
1030
0.0
1010
0.0
1020
0.0
1030
1.0
1040
0.0
1040
297.0
1040
261.51769911504419
1040
148.5
1040
50.0
1040
0.0
1040
0.0
1070
     0
1070
   100
1070
     1
1070
     1
1070
     0
1070
     0
1070
     0
1070
     0
1040
0.0
1040
0.0
1040
0.0
1040
1.0
1040
1.0
1040
10.0
1040
10.0
1070
     0
1002
{
1002
}
1002
}
1001
GENIUS_GENODEF_13
1002
{
1000
HIER
1070
     0
1002
}
1002
{
1000
MANEDIT
1070
     0
1002
}
1002
{
1000
NOSEL
1070
     0
1002
}
1002
{
1000
BEHIND
1070
     0
1002
}
1002
{
1000
OTHER
1070
     0
1002
}
1002
{
1000
REACTOR
1002
}
1001
GENIUS_GENOBJ-N-SDF_13
1002
{
1000
OWNER
1000
GEN
1002
}
1001
GENIUS_GENSCREG_15
1000
PF
1040
1.0
1000
DF
1040
1.0
1000
MIN
1011
0.0
1021
0.0
1031
0.0
1021
0.0
1031
0.0
1000
MAX
1011
523.0353982300885
1021
0.0
1031
0.0
1021
297.0
1031
0.0
1000
FLAGS
1070
     2
  0
ENDSEC
  0
EOF
