  0
SECTION
  2
HEADER
  9
$ACADVER
  1
AC1009
  9
$INSBASE
 10
0.0
 20
0.0
 30
0.0
  9
$EXTMIN
 10
-58.852423237429832
 20
-57.160313901186498
 30
0.0
  9
$EXTMAX
 10
355.67870237174537
 20
158.0
 30
0.0
  9
$LIMMIN
 10
0.0
 20
0.0
  9
$LIMMAX
 10
297.0
 20
210.0
  9
$ORTHOMODE
 70
     0
  9
$REGENMODE
 70
     1
  9
$FILLMODE
 70
     1
  9
$QTEXTMODE
 70
     0
  9
$MIRRTEXT
 70
     1
  9
$DRAGMODE
 70
     2
  9
$LTSCALE
 40
10.0
  9
$OSMODE
 70
    37
  9
$ATTMODE
 70
     1
  9
$TEXTSIZE
 40
3.0
  9
$TRACEWID
 40
1.0
  9
$TEXTSTYLE
  7
YOKO
  9
$CLAYER
  8
240
  9
$CELTYPE
  6
BYLAYER
  9
$CECOLOR
 62
   256
  9
$DIMSCALE
 40
1.0
  9
$DIMASZ
 40
2.2299999999999991
  9
$DIMEXO
 40
0.5
  9
$DIMDLI
 40
7.0
  9
$DIMRND
 40
0.0
  9
$DIMDLE
 40
0.0
  9
$DIMEXE
 40
1.0
  9
$DIMTP
 40
0.0
  9
$DIMTM
 40
0.01
  9
$DIMTXT
 40
2.7999999999999989
  9
$DIMCEN
 40
0.0
  9
$DIMTSZ
 40
0.0
  9
$DIMTOL
 70
     0
  9
$DIMLIM
 70
     0
  9
$DIMTIH
 70
     0
  9
$DIMTOH
 70
     0
  9
$DIMSE1
 70
     0
  9
$DIMSE2
 70
     0
  9
$DIMTAD
 70
     3
  9
$DIMZIN
 70
     9
  9
$DIMBLK
  1
OPEN
  9
$DIMASO
 70
     1
  9
$DIMSHO
 70
     1
  9
$DIMPOST
  1

  9
$DIMAPOST
  1

  9
$DIMALT
 70
     0
  9
$DIMALTD
 70
     2
  9
$DIMALTF
 40
25.399999999999999
  9
$DIMLFAC
 40
1.0
  9
$DIMTOFL
 70
     1
  9
$DIMTVP
 40
0.0
  9
$DIMTIX
 70
     1
  9
$DIMSOXD
 70
     0
  9
$DIMSAH
 70
     0
  9
$DIMBLK1
  1

  9
$DIMBLK2
  1

  9
$DIMSTYLE
  2
BIGT
  9
$DIMCLRD
 70
   256
  9
$DIMCLRE
 70
   256
  9
$DIMCLRT
 70
    40
  9
$DIMTFAC
 40
1.0
  9
$DIMGAP
 40
1.0
  9
$LUNITS
 70
     2
  9
$LUPREC
 70
     6
  9
$SKETCHINC
 40
1.0
  9
$FILLETRAD
 40
0.0
  9
$AUNITS
 70
     0
  9
$AUPREC
 70
     6
  9
$MENU
  1
.
  9
$ELEVATION
 40
0.0
  9
$PELEVATION
 40
0.0
  9
$THICKNESS
 40
0.0
  9
$LIMCHECK
 70
     0
  9
$BLIPMODE
 70
     0
  9
$CHAMFERA
 40
0.2
  9
$CHAMFERB
 40
0.2
  9
$SKPOLY
 70
     0
  9
$TDCREATE
 40
2459495.5240630559
  9
$TDUPDATE
 40
2459495.5340273031
  9
$TDINDWG
 40
0.0098438889
  9
$TDUSRTIMER
 40
0.0098438542
  9
$USRTIMER
 70
     1
  9
$ANGBASE
 50
0.0
  9
$ANGDIR
 70
     0
  9
$PDMODE
 70
     1
  9
$PDSIZE
 40
0.0
  9
$PLINEWID
 40
0.0
  9
$COORDS
 70
     1
  9
$SPLFRAME
 70
     0
  9
$SPLINETYPE
 70
     6
  9
$SPLINESEGS
 70
     4
  9
$ATTDIA
 70
     1
  9
$ATTREQ
 70
     1
  9
$HANDLING
 70
     1
  9
$HANDSEED
  5
5066
  9
$SURFTAB1
 70
     6
  9
$SURFTAB2
 70
     6
  9
$SURFTYPE
 70
     6
  9
$SURFU
 70
     6
  9
$SURFV
 70
     6
  9
$UCSNAME
  2

  9
$UCSORG
 10
0.0
 20
0.0
 30
0.0
  9
$UCSXDIR
 10
1.0
 20
0.0
 30
0.0
  9
$UCSYDIR
 10
0.0
 20
1.0
 30
0.0
  9
$PUCSNAME
  2

  9
$PUCSORG
 10
0.0
 20
0.0
 30
0.0
  9
$PUCSXDIR
 10
1.0
 20
0.0
 30
0.0
  9
$PUCSYDIR
 10
0.0
 20
1.0
 30
0.0
  9
$USERI1
 70
     1
  9
$USERI2
 70
     0
  9
$USERI3
 70
     0
  9
$USERI4
 70
     0
  9
$USERI5
 70
     0
  9
$USERR1
 40
0.0
  9
$USERR2
 40
0.0
  9
$USERR3
 40
0.0
  9
$USERR4
 40
0.0
  9
$USERR5
 40
0.0
  9
$WORLDVIEW
 70
     1
  9
$SHADEDGE
 70
     3
  9
$SHADEDIF
 70
    70
  9
$TILEMODE
 70
     1
  9
$MAXACTVP
 70
    16
  9
$PLIMCHECK
 70
     0
  9
$PEXTMIN
 10
1.0000000000000000E+020
 20
1.0000000000000000E+020
 30
1.0000000000000000E+020
  9
$PEXTMAX
 10
-1.0000000000000000E+020
 20
-1.0000000000000000E+020
 30
-1.0000000000000000E+020
  9
$PLIMMIN
 10
0.0
 20
0.0
  9
$PLIMMAX
 10
420.0
 20
297.0
  9
$UNITMODE
 70
     0
  9
$VISRETAIN
 70
     1
  9
$PLINEGEN
 70
     0
  9
$PSLTSCALE
 70
     1
  0
ENDSEC
  0
SECTION
  2
TABLES
  0
TABLE
  2
VPORT
 70
     1
  0
VPORT
  2
*ACTIVE
 70
     0
 10
0.0
 20
0.0
 11
1.0
 21
1.0
 12
171.41190488068079
 22
81.063678144636611
 13
0.0
 23
0.0
 14
7.0
 24
7.0
 15
7.0
 25
7.0
 16
0.0
 26
0.0
 36
1.0
 17
0.0
 27
0.0
 37
0.0
 40
465.36219331884678
 41
1.7200474495848159
 42
50.0
 43
0.0
 44
0.0
 50
0.0
 51
0.0
 71
     0
 72
  2000
 73
     1
 74
     0
 75
     1
 76
     1
 77
     0
 78
     0
  0
ENDTAB
  0
TABLE
  2
LTYPE
 70
    13
  0
LTYPE
  2
CONTINUOUS
 70
     0
  3
Solid line
 72
    65
 73
     0
 40
0.0
  0
LTYPE
  2
CENTER2
 70
     0
  3
___ _ ___ _ ___ _ ___ _ ___ _ ___ _ ___ _ ___ _
 72
    65
 73
     4
 40
1.125
 49
0.75
 49
-0.125
 49
0.125
 49
-0.125
  0
LTYPE
  2
HIDDEN2
 70
     0
  3
_ _ _ _ _ _ _ _ _ _ _ _ _ _ _ _ _ _ _ _ _ _ _ _
 72
    65
 73
     2
 40
0.1875
 49
0.125
 49
-0.0625
  0
LTYPE
  2
PHANTOM2
 70
     0
  3
___ _ _ ___ _ _ ___ _ _ ___ _ _ ___ _ _ ___ _ _
 72
    65
 73
     6
 40
1.25
 49
0.625
 49
-0.125
 49
0.125
 49
-0.125
 49
0.125
 49
-0.125
  0
LTYPE
  2
AM_ISO02W050
 70
     0
  3
__ __ __ __ __ __ __ __ __ __ __ __ __ __ __
 72
    65
 73
     2
 40
7.5
 49
6.0
 49
-1.5
  0
LTYPE
  2
AMCONSTR
 70
     0
  3
_______________________
 72
    65
 73
     2
 40
9999.0
 49
9999.0
 49
0.0
  0
LTYPE
  2
ACISOWELD
 70
     0
  3
_ _ _ _ _
 72
    65
 73
     2
 40
2.0
 49
2.0
 49
-1.0
  0
LTYPE
  2
ACISOTGB
 70
     0
  3
__ . . __ . .
 72
    65
 73
     6
 40
9.0
 49
4.0
 49
-1.0
 49
1.0
 49
-1.0
 49
1.0
 49
-1.0
  0
LTYPE
  2
ACISOTGL
 70
     0
  3
_ _ _ _ _
 72
    65
 73
     2
 40
3.0
 49
2.0
 49
-1.0
  0
LTYPE
  2
ACJISTGB
 70
     0
  3
__ . . __ . .
 72
    65
 73
     6
 40
9.0
 49
4.0
 49
-1.0
 49
1.0
 49
-1.0
 49
1.0
 49
-1.0
  0
LTYPE
  2
ACJISTGL
 70
     0
  3
_ _ _ _ _
 72
    65
 73
     2
 40
3.0
 49
2.0
 49
-1.0
  0
ENDTAB
  0
TABLE
  2
LAYER
 70
     7
  0
LAYER
  2
0
 70
     0
 62
     7
  6
CONTINUOUS
  0
LAYER
  2
DEFPOINTS
 70
     0
 62
     7
  6
CONTINUOUS
  0
LAYER
  2
245
 70
     0
 62
     2
  6
CENTER2
  0
LAYER
  2
240
 70
     0
 62
     4
  6
CONTINUOUS
  0
LAYER
  2
241
 70
     0
 62
   211
  6
CONTINUOUS
  0
LAYER
  2
246
 70
     0
 62
     3
  6
PHANTOM2
  0
LAYER
  2
250
 70
     0
 62
     3
  6
CONTINUOUS
  0
ENDTAB
  0
TABLE
  2
STYLE
 70
     6
  0
STYLE
  2
STANDARD
 70
     0
 40
0.0
 41
1.0
 50
0.0
 71
     0
 42
3.0
  3
romans.shx
  4
extfont.shx
  0
STYLE
  2
ACISOTS
 70
     0
 40
1.0
 41
1.0
 50
0.0
 71
     0
 42
3.0
  3
amgdt.shx
  4
extfont.shx
  0
STYLE
  2
ACISOGDT
 70
     0
 40
0.0
 41
1.0
 50
0.0
 71
     0
 42
3.0
  3
amgdt.shx
  4
extfont.shx
  0
STYLE
  2
ACJISTS
 70
     0
 40
1.0
 41
1.0
 50
0.0
 71
     0
 42
3.0
  3
amgdt.shx
  4
extfont.shx
  0
STYLE
  2
ACJISGDT
 70
     0
 40
0.0
 41
1.0
 50
0.0
 71
     0
 42
3.0
  3
amgdt.shx
  4
extfont.shx
  0
STYLE
  2
YOKO
 70
     0
 40
0.0
 41
1.0
 50
0.0
 71
     0
 42
3.0
  3
romans.shx
  4
extfont.shx
  0
ENDTAB
  0
TABLE
  2
VIEW
 70
     0
  0
ENDTAB
  0
TABLE
  2
UCS
 70
     0
  0
ENDTAB
  0
TABLE
  2
APPID
 70
    42
  0
APPID
  2
ACAD
 70
     0
  0
APPID
  2
GLOBAL
 70
     0
  0
APPID
  2
DETAIL
 70
     0
  0
APPID
  2
GRPNAME
 70
     0
  0
APPID
  2
GPARA
 70
     0
  0
APPID
  2
MCAD_NO_VIS
 70
     0
  0
APPID
  2
ACAD_TEMP_GRAPHIC
 70
     0
  0
APPID
  2
ACATTRIBSERVICES
 70
     0
  0
APPID
  2
GENIUS_GENSCREG_15
 70
     0
  0
APPID
  2
GENIUS_GENODEF_13
 70
     0
  0
APPID
  2
GENIUS_GENOBJ-N-SDF_13
 70
     0
  0
APPID
  2
GENIUS_GENREC_14
 70
     0
  0
APPID
  2
GENIUS_GENOBJ-N-REC_13
 70
     0
  0
APPID
  2
GENIUS_GENDIMSH_14
 70
     0
  0
APPID
  2
GENIUS_GENOBJ-N-DIM_13
 70
     0
  0
APPID
  2
GENIUS_GENDIM_13
 70
     0
  0
APPID
  2
GENIUS_GENDTOL_13
 70
     0
  0
APPID
  2
GENIUS_GENOLIS_13
 70
     0
  0
APPID
  2
GENIUS_GENOENT_13
 70
     0
  0
APPID
  2
GENIUS_GENOBJ-F-FEM_13
 70
     0
  0
APPID
  2
GENIUS_GENOREF_13
 70
     0
  0
APPID
  2
GENIUS_GEFFEM_13
 70
     0
  0
APPID
  2
GENIUS_GEFFEMP_13
 70
     0
  0
APPID
  2
AD_DRAW
 70
     0
  0
APPID
  2
DESIGNERASSEMBLIES
 70
     0
  0
APPID
  2
ACADM_DIM_EDIT
 70
     0
  0
APPID
  2
AMDT_DM_ADJ
 70
     0
  0
APPID
  2
ITEMNAME
 70
     0
  0
APPID
  2
GENIUS_GENOBJ-N-FIL_13
 70
     0
  0
APPID
  2
GENIUS_GENFIL_13
 70
     0
  0
APPID
  2
GENIUS_GENOBJ-N-CHA_13
 70
     0
  0
APPID
  2
ACAD_NAV_VCDISPLAY
 70
     0
  0
APPID
  2
ACAECLAYERSTANDARD
 70
     0
  0
APPID
  2
LAYER_SCALE
 70
     0
  0
APPID
  2
GRADE_0
 70
     0
  0
APPID
  2
ACAD_PSEXT
 70
     0
  0
APPID
  2
ASK_MEN_XD
 70
     0
  0
APPID
  2
ACAD_DSTYLE_DIMJAG
 70
     0
  0
APPID
  2
ACAD_DSTYLE_DIMTALN
 70
     0
  0
APPID
  2
ACAD_DSTYLE_DIMINSPECT
 70
     0
  0
APPID
  2
ACAD_EXEMPT_FROM_CAD_STANDARDS
 70
     0
  0
APPID
  2
ACAD_MLEADERVER
 70
     0
  0
ENDTAB
  0
TABLE
  2
DIMSTYLE
 70
    24
  0
DIMSTYLE
  2
BIGT
 70
     0
  3

  4

  5
OPEN
  6

  7

 40
1.0
 41
2.2299999999999991
 42
0.5
 43
7.0
 44
1.0
 45
0.0
 46
0.0
 47
0.0
 48
0.01
140
2.7999999999999989
141
0.0
142
0.0
143
25.399999999999999
144
1.0
145
0.0
146
1.0
147
1.0
 71
     0
 72
     0
 73
     0
 74
     0
 75
     0
 76
     0
 77
     3
 78
     9
170
     0
171
     2
172
     1
173
     0
174
     1
175
     0
176
   256
177
   256
178
    40
  0
DIMSTYLE
  2
AM_ISO
 70
     0
  3

  4
"
  5

  6

  7

 40
1.0
 41
2.5
 42
1.0
 43
10.0
 44
1.0
 45
0.0
 46
0.0
 47
0.1
 48
0.1
140
3.5
141
0.0
142
0.0
143
0.0393701
144
1.0
145
0.0
146
0.71
147
1.5
 71
     0
 72
     0
 73
     0
 74
     0
 75
     0
 76
     0
 77
     1
 78
     8
170
     0
171
     2
172
     1
173
     0
174
     0
175
     0
176
   256
177
   256
178
     2
  0
DIMSTYLE
  2
AM_ISO$3
 70
     0
  3

  4
"
  5

  6

  7

 40
1.0
 41
2.5
 42
1.0
 43
10.0
 44
1.0
 45
0.0
 46
0.0
 47
0.1
 48
0.1
140
3.5
141
0.0
142
0.0
143
0.0393701
144
1.0
145
0.0
146
0.71
147
1.5
 71
     0
 72
     0
 73
     0
 74
     1
 75
     0
 76
     0
 77
     1
 78
     8
170
     0
171
     2
172
     0
173
     0
174
     0
175
     0
176
   256
177
   256
178
     2
  0
DIMSTYLE
  2
AM_ISO$4
 70
     0
  3

  4
"
  5

  6

  7

 40
1.0
 41
2.5
 42
1.0
 43
10.0
 44
1.0
 45
0.0
 46
0.0
 47
0.1
 48
0.1
140
3.5
141
0.0
142
0.0
143
0.0393701
144
1.0
145
0.0
146
0.71
147
1.5
 71
     0
 72
     0
 73
     0
 74
     1
 75
     0
 76
     0
 77
     1
 78
     8
170
     0
171
     2
172
     0
173
     0
174
     0
175
     0
176
   256
177
   256
178
     2
  0
DIMSTYLE
  2
AM_ISO$6
 70
     0
  3

  4
"
  5

  6

  7

 40
1.0
 41
2.5
 42
1.0
 43
10.0
 44
1.0
 45
0.0
 46
0.0
 47
0.1
 48
0.1
140
3.5
141
0.0
142
0.0
143
0.0393701
144
1.0
145
0.0
146
0.71
147
1.5
 71
     0
 72
     0
 73
     0
 74
     0
 75
     0
 76
     0
 77
     0
 78
     8
170
     0
171
     2
172
     1
173
     0
174
     0
175
     0
176
   256
177
   256
178
     2
  0
DIMSTYLE
  2
AM_ISO$7
 70
     0
  3

  4
"
  5

  6

  7

 40
1.0
 41
2.5
 42
1.0
 43
10.0
 44
1.0
 45
0.0
 46
0.0
 47
0.1
 48
0.1
140
5.0
141
0.0
142
0.0
143
0.0393701
144
1.0
145
0.0
146
0.71
147
1.5
 71
     0
 72
     0
 73
     0
 74
     0
 75
     0
 76
     0
 77
     1
 78
     8
170
     0
171
     2
172
     1
173
     0
174
     0
175
     0
176
   256
177
   256
178
     2
  0
DIMSTYLE
  2
AM_ISO$SF
 70
     0
  3

  4
"
  5

  6

  7

 40
1.0
 41
2.5
 42
1.0
 43
10.0
 44
1.0
 45
0.0
 46
0.0
 47
0.1
 48
0.1
140
3.5
141
0.0
142
0.0
143
0.0393701
144
1.0
145
0.0
146
0.71
147
1.5
 71
     0
 72
     0
 73
     0
 74
     0
 75
     1
 76
     1
 77
     1
 78
     8
170
     0
171
     2
172
     1
173
     0
174
     0
175
     0
176
   256
177
   256
178
     2
  0
DIMSTYLE
  2
AM_ISO$SH
 70
     0
  3

  4
"
  5

  6
GENAXEH
  7

 40
1.0
 41
2.5
 42
1.0
 43
10.0
 44
1.0
 45
0.0
 46
0.0
 47
0.1
 48
0.1
140
3.5
141
0.0
142
0.0
143
0.0393701
144
2.0
145
0.0
146
0.71
147
1.5
 71
     0
 72
     0
 73
     0
 74
     0
 75
     1
 76
     1
 77
     1
 78
     8
170
     0
171
     2
172
     1
173
     1
174
     0
175
     0
176
   256
177
   256
178
     2
  0
DIMSTYLE
  2
BIGT$2
 70
     0
  3

  4

  5
OPEN
  6

  7

 40
1.0
 41
2.2299999999999991
 42
0.5
 43
7.0
 44
1.0
 45
0.0
 46
0.0
 47
0.0
 48
0.01
140
2.7999999999999989
141
0.0
142
0.0
143
25.399999999999999
144
1.0
145
0.0
146
1.0
147
1.0
 71
     0
 72
     0
 73
     0
 74
     0
 75
     0
 76
     0
 77
     3
 78
     9
170
     0
171
     2
172
     1
173
     0
174
     0
175
     0
176
   256
177
   256
178
    40
  0
DIMSTYLE
  2
BIGT$3
 70
     0
  3

  4

  5
OPEN
  6

  7

 40
1.0
 41
2.2299999999999991
 42
0.5
 43
2.5
 44
1.0
 45
0.0
 46
0.0
 47
0.0
 48
0.01
140
2.7999999999999989
141
0.0
142
0.0
143
25.399999999999999
144
1.0
145
0.0
146
1.0
147
1.0
 71
     0
 72
     0
 73
     0
 74
     0
 75
     0
 76
     0
 77
     3
 78
     9
170
     0
171
     2
172
     1
173
     0
174
     0
175
     0
176
   256
177
   256
178
    40
  0
DIMSTYLE
  2
BIGT$7
 70
     0
  3

  4

  5
OPEN
  6

  7

 40
0.0
 41
2.2299999999999991
 42
0.5
 43
7.0
 44
1.0
 45
0.0
 46
0.0
 47
0.0
 48
0.01
140
2.7999999999999989
141
0.0
142
0.0
143
25.399999999999999
144
1.0
145
0.0
146
1.0
147
1.0
 71
     0
 72
     0
 73
     0
 74
     0
 75
     0
 76
     0
 77
     3
 78
     9
170
     0
171
     2
172
     0
173
     0
174
     0
175
     0
176
   256
177
   256
178
    40
  0
DIMSTYLE
  2
BIGT$6
 70
     0
  3

  4

  5
OPEN
  6

  7

 40
1.0
 41
2.2299999999999991
 42
0.5
 43
2.5
 44
1.0
 45
0.0
 46
0.0
 47
0.0
 48
0.01
140
2.7999999999999989
141
0.0
142
0.0
143
25.399999999999999
144
1.0
145
0.0
146
1.0
147
1.0
 71
     0
 72
     0
 73
     0
 74
     0
 75
     0
 76
     0
 77
     3
 78
     9
170
     0
171
     2
172
     1
173
     0
174
     0
175
     0
176
   256
177
   256
178
    40
  0
DIMSTYLE
  2
BIGT$0
 70
     0
  3

  4

  5
OPEN
  6

  7

 40
1.0
 41
2.2299999999999991
 42
0.5
 43
7.0
 44
1.0
 45
0.0
 46
0.0
 47
0.0
 48
0.01
140
2.7999999999999989
141
0.0
142
0.0
143
25.399999999999999
144
1.0
145
0.0
146
1.0
147
1.0
 71
     0
 72
     0
 73
     0
 74
     0
 75
     0
 76
     0
 77
     3
 78
     9
170
     0
171
     2
172
     1
173
     0
174
     1
175
     0
176
   256
177
   256
178
    40
  0
DIMSTYLE
  2
BIGT$4
 70
     0
  3

  4

  5
OPEN
  6

  7

 40
1.0
 41
2.2299999999999991
 42
0.5
 43
2.5
 44
1.0
 45
0.0
 46
0.0
 47
0.0
 48
0.01
140
2.7999999999999989
141
0.0
142
0.0
143
25.399999999999999
144
1.0
145
0.0
146
1.0
147
1.0
 71
     0
 72
     0
 73
     0
 74
     0
 75
     0
 76
     0
 77
     3
 78
     9
170
     0
171
     2
172
     1
173
     0
174
     0
175
     0
176
   256
177
   256
178
    40
  0
DIMSTYLE
  2
BIGT$SH
 70
     0
  3

  4

  5
OPEN
  6

  7

 40
1.0
 41
2.2299999999999991
 42
0.5
 43
7.0
 44
1.0
 45
0.0
 46
0.0
 47
0.0
 48
0.0
140
2.7999999999999989
141
0.0
142
0.0
143
25.399999999999999
144
1.0
145
0.0
146
1.0
147
1.0
 71
     0
 72
     0
 73
     0
 74
     0
 75
     0
 76
     0
 77
     3
 78
     9
170
     0
171
     2
172
     1
173
     0
174
     0
175
     0
176
   256
177
   256
178
    40
  0
DIMSTYLE
  2
BIGT$SF
 70
     0
  3

  4

  5
OPEN
  6

  7

 40
1.0
 41
2.2299999999999991
 42
0.5
 43
7.0
 44
1.0
 45
0.0
 46
0.0
 47
0.0
 48
0.0
140
2.7999999999999989
141
0.0
142
0.0
143
25.399999999999999
144
1.0
145
0.0
146
1.0
147
1.0
 71
     0
 72
     0
 73
     0
 74
     0
 75
     0
 76
     0
 77
     3
 78
     9
170
     0
171
     2
172
     1
173
     0
174
     0
175
     0
176
   256
177
   256
178
    40
  0
DIMSTYLE
  2
TECHNICAL_OSAKA
 70
     0
  3

  4
"
  5
OPEN30
  6

  7

 40
1.0
 41
2.5
 42
1.0
 43
10.0
 44
1.0
 45
0.0
 46
0.0
 47
0.1
 48
0.1
140
2.7999999999999989
141
0.0
142
0.0
143
0.0393701
144
1.0
145
0.0
146
0.71
147
1.5
 71
     0
 72
     0
 73
     0
 74
     0
 75
     0
 76
     0
 77
     3
 78
     8
170
     0
171
     2
172
     1
173
     0
174
     0
175
     0
176
   256
177
   256
178
    40
  0
DIMSTYLE
  2
TECHNICAL_OSAKA$3
 70
     0
  3

  4
"
  5
OPEN30
  6

  7

 40
1.0
 41
2.5
 42
1.0
 43
10.0
 44
1.0
 45
0.0
 46
0.0
 47
0.1
 48
0.1
140
2.7999999999999989
141
0.0
142
0.0
143
0.0393701
144
1.0
145
0.0
146
0.71
147
1.5
 71
     0
 72
     0
 73
     0
 74
     1
 75
     0
 76
     0
 77
     3
 78
     8
170
     0
171
     2
172
     0
173
     0
174
     0
175
     0
176
   256
177
   256
178
    40
  0
DIMSTYLE
  2
TECHNICAL_OSAKA$4
 70
     0
  3

  4
"
  5
OPEN30
  6

  7

 40
1.0
 41
2.5
 42
1.0
 43
10.0
 44
1.0
 45
0.0
 46
0.0
 47
0.1
 48
0.1
140
2.7999999999999989
141
0.0
142
0.0
143
0.0393701
144
1.0
145
0.0
146
0.71
147
1.5
 71
     0
 72
     0
 73
     0
 74
     1
 75
     0
 76
     0
 77
     3
 78
     8
170
     0
171
     2
172
     0
173
     0
174
     0
175
     0
176
   256
177
   256
178
    40
  0
DIMSTYLE
  2
TECHNICAL_OSAKA$6
 70
     0
  3

  4
"
  5
OPEN30
  6

  7

 40
1.0
 41
2.5
 42
1.0
 43
10.0
 44
1.0
 45
0.0
 46
0.0
 47
0.1
 48
0.1
140
2.7999999999999989
141
0.0
142
0.0
143
0.0393701
144
1.0
145
0.0
146
0.71
147
1.5
 71
     0
 72
     0
 73
     0
 74
     0
 75
     0
 76
     0
 77
     0
 78
     8
170
     0
171
     2
172
     1
173
     0
174
     0
175
     0
176
   256
177
   256
178
    40
  0
DIMSTYLE
  2
TECHNICAL_OSAKA$7
 70
     0
  3

  4
"
  5
OPEN30
  6

  7

 40
1.0
 41
2.5
 42
1.0
 43
10.0
 44
1.0
 45
0.0
 46
0.0
 47
0.1
 48
0.1
140
2.7999999999999989
141
0.0
142
0.0
143
0.0393701
144
1.0
145
0.0
146
0.71
147
1.5
 71
     0
 72
     0
 73
     0
 74
     0
 75
     0
 76
     0
 77
     3
 78
     8
170
     0
171
     2
172
     1
173
     0
174
     0
175
     0
176
   256
177
   256
178
    40
  0
DIMSTYLE
  2
TECHNICAL_OSAKA$SF
 70
     0
  3

  4
"
  5
OPEN30
  6
OPEN30
  7
OPEN30
 40
1.0
 41
2.5
 42
1.0
 43
10.0
 44
1.0
 45
0.0
 46
0.0
 47
0.1
 48
0.1
140
3.5
141
0.0
142
0.0
143
0.0393701
144
1.0
145
0.0
146
0.71
147
1.5
 71
     0
 72
     0
 73
     0
 74
     0
 75
     1
 76
     1
 77
     3
 78
     8
170
     0
171
     2
172
     1
173
     0
174
     0
175
     0
176
   256
177
   256
178
    40
  0
DIMSTYLE
  2
TECHNICAL_OSAKA$SH
 70
     0
  3

  4
"
  5
OPEN30
  6
GENAXEH
  7
OPEN30
 40
1.0
 41
2.5
 42
1.0
 43
10.0
 44
1.0
 45
0.0
 46
0.0
 47
0.1
 48
0.1
140
3.5
141
0.0
142
0.0
143
0.0393701
144
2.0
145
0.0
146
0.71
147
1.5
 71
     0
 72
     0
 73
     0
 74
     0
 75
     1
 76
     1
 77
     3
 78
     8
170
     0
171
     2
172
     1
173
     1
174
     0
175
     0
176
   256
177
   256
178
    40
  0
DIMSTYLE
  2
STANDARD
 70
     0
  3

  4

  5

  6

  7

 40
1.0
 41
0.18
 42
0.0625
 43
0.38
 44
0.18
 45
0.0
 46
0.0
 47
0.0
 48
0.0
140
0.18
141
0.09
142
0.0
143
25.399999999999999
144
1.0
145
0.0
146
1.0
147
0.09
 71
     0
 72
     0
 73
     1
 74
     1
 75
     0
 76
     0
 77
     0
 78
     0
170
     0
171
     2
172
     0
173
     0
174
     0
175
     0
176
     0
177
     0
178
     0
  0
ENDTAB
  0
ENDSEC
  0
SECTION
  2
BLOCKS
  0
BLOCK
  8
0
  2
$MODEL_SPACE
 70
     0
 10
0.0
 20
0.0
 30
0.0
  3
$MODEL_SPACE
  1

  0
ENDBLK
  5
1C
  8
0
  0
BLOCK
 67
     1
  8
0
  2
$PAPER_SPACE
 70
     0
 10
0.0
 20
0.0
 30
0.0
  3
$PAPER_SPACE
  1

  0
ENDBLK
  5
19
 67
     1
  8
0
  0
BLOCK
  8
0
  2
_OPEN
 70
     0
 10
0.0
 20
0.0
 30
0.0
  3
_OPEN
  1

  0
LINE
  5
4F79
  8
0
  6
BYBLOCK
 62
     0
 10
-1.0
 20
0.1666666666666666
 30
0.0
 11
0.0
 21
0.0
 31
0.0
  0
LINE
  5
4F7A
  8
0
  6
BYBLOCK
 62
     0
 10
-1.0
 20
-0.1666666666666666
 30
0.0
 11
0.0
 21
0.0
 31
0.0
  0
LINE
  5
4F7B
  8
0
  6
BYBLOCK
 62
     0
 10
0.0
 20
0.0
 30
0.0
 11
-1.0
 21
0.0
 31
0.0
  0
ENDBLK
  5
4F7C
  8
0
  0
BLOCK
  8
0
  2
GENAXEH
 70
     0
 10
0.0
 20
0.0
 30
0.0
  3
GENAXEH
  1

  0
LINE
  5
4FB4
  8
0
 10
-1.0
 20
0.0
 30
0.0
 11
1.0
 21
0.0
 31
0.0
  0
ENDBLK
  5
4FB5
  8
0
  0
BLOCK
  8
0
  2
_OPEN30
 70
     0
 10
0.0
 20
0.0
 30
0.0
  3
_OPEN30
  1

  0
LINE
  5
4FF0
  8
0
  6
BYBLOCK
 62
     0
 10
-1.0
 20
0.26794919
 30
0.0
 11
0.0
 21
0.0
 31
0.0
  0
LINE
  5
4FF1
  8
0
  6
BYBLOCK
 62
     0
 10
0.0
 20
0.0
 30
0.0
 11
-1.0
 21
-0.26794919
 31
0.0
  0
LINE
  5
4FF2
  8
0
  6
BYBLOCK
 62
     0
 10
0.0
 20
0.0
 30
0.0
 11
-1.0
 21
0.0
 31
0.0
  0
ENDBLK
  5
4FF3
  8
0
  0
ENDSEC
  0
SECTION
  2
ENTITIES
  0
LINE
  5
4702
  8
245
  6
CENTER2
 10
-58.852423237429832
 20
0.0000000000030127
 30
0.0
 11
355.67870237174537
 21
0.0000000000030127
 31
0.0
  0
LINE
  5
4703
  8
245
  6
CENTER2
 10
-56.943734872442569
 20
112.0
 30
0.0
 11
355.67870237174537
 21
112.0
 31
0.0
  0
LINE
  5
4704
  8
245
  6
CENTER2
 10
0.0
 20
58.674005742550712
 30
0.0
 11
0.0
 21
-57.160313901186498
 31
0.0
  0
LINE
  5
4705
  8
245
  6
CENTER2
 10
0.0000000000002842
 20
124.0924692851252
 30
0.0
 11
0.0000000000002842
 21
99.529422140724733
 31
0.0
  0
LINE
  5
4714
  8
240
  6
CONTINUOUS
 10
-52.07224829608861
 20
122.0
 30
0.0
 11
52.072248296089178
 21
122.0
 31
0.0
  0
LINE
  5
4715
  8
240
  6
CONTINUOUS
 10
-52.07224829608861
 20
102.0000000000001
 30
0.0
 11
52.072248296089178
 21
102.0000000000001
 31
0.0
  0
CIRCLE
  5
4717
  8
241
  6
CONTINUOUS
 10
0.0
 20
0.0000000000030127
 30
0.0
 40
53.5
  0
ARC
  5
4718
  8
240
  6
CONTINUOUS
 10
0.0
 20
0.0000000000030127
 30
0.0
 40
55.299999999999997
 50
46.800480176669218
 51
313.19951982333077
  0
ARC
  5
4719
  8
240
  6
CONTINUOUS
 10
82.350281898632133
 20
87.695616031910916
 30
0.0
 40
65.0
 50
226.8004801766692
 51
261.00000000000131
1001
ASK_MEN_XD
1005
4787
1070
     1
1005
4718
1070
     1
  0
ARC
  5
471B
  8
241
  6
CONTINUOUS
 10
0.0
 20
0.0000000000030127
 30
0.0
 40
58.5
 50
345.01625852624181
 51
14.98374147375821
  0
ARC
  5
471C
  8
241
  6
CONTINUOUS
 10
59.408952714926613
 20
15.90051374376651
 30
0.0
 40
3.0
 50
81.000000000001293
 51
194.98374147375819
1001
ASK_MEN_XD
1005
471A
1070
     1
1005
478C
1070
     1
  0
ARC
  5
471D
  8
241
  6
CONTINUOUS
 10
59.408952714926613
 20
-15.900513743760539
 30
0.0
 40
3.0
 50
165.01625852624181
 51
278.99999999999881
1001
ASK_MEN_XD
1005
478D
1070
     1
1005
471A
1070
     1
  0
ARC
  5
4721
  8
240
  6
CONTINUOUS
 10
26.62222222222255
 20
112.0
 30
0.0
 40
28.67777777777771
 50
342.54990138190948
 51
343.45515984455068
  0
ARC
  5
4722
  8
240
  6
CONTINUOUS
 10
26.62222222222255
 20
112.0
 30
0.0
 40
28.67777777777771
 50
16.13403401196171
 51
17.450098618090529
  0
ARC
  5
4723
  8
240
  6
CONTINUOUS
 10
55.61142583688035
 20
120.3859612086417
 30
0.0
 40
1.5
 50
196.13403401196169
 51
268.99999999999829
1001
ASK_MEN_XD
1005
4722
1070
     1
1005
4777
1070
     1
  0
ARC
  5
4724
  8
241
  6
CONTINUOUS
 10
-0.0000000000000568
 20
0.0000000000029559
 30
0.0
 40
54.393818869710209
 50
331.0414975535902
 51
26.11807360617907
  0
ARC
  5
4728
  8
240
  6
CONTINUOUS
 10
-26.622222222221978
 20
112.0
 30
0.0
 40
28.67777777777771
 50
162.54990138190939
 51
179.99999999998369
  0
ARC
  5
4729
  8
240
  6
CONTINUOUS
 10
-26.54592375164972
 20
112.01170944715631
 30
0.0
 40
28.754078632553629
 50
180.02333240891301
 51
197.42676620916109
  0
LINE
  5
472A
  8
241
  6
CONTINUOUS
 10
349.96871942267148
 20
113.0000000000001
 30
0.0
 11
-55.282559594130227
 21
113.0
 31
0.0
  0
LINE
  5
472B
  8
241
  6
CONTINUOUS
 10
349.96871942267148
 20
111.0
 30
0.0
 11
-55.28219842324922
 21
111.0
 31
0.0
  0
ARC
  5
472C
  8
240
  6
CONTINUOUS
 10
52.072248296089178
 20
120.0
 30
0.0
 40
2.0
 50
17.450098618090529
 51
90.0
  0
ARC
  5
472D
  8
240
  6
CONTINUOUS
 10
52.072248296089178
 20
104.0000000000001
 30
0.0
 40
2.0
 50
270.0
 51
342.54990138190948
  0
ARC
  5
472E
  8
240
  6
CONTINUOUS
 10
-52.07224829608861
 20
104.0000000000001
 30
0.0
 40
2.0
 50
197.45009861809049
 51
270.0
  0
ARC
  5
472F
  8
240
  6
CONTINUOUS
 10
-52.07224829608861
 20
120.0
 30
0.0
 40
2.0
 50
90.0
 51
162.54990138190939
  0
LINE
  5
4732
  8
245
  6
CENTER2
 10
333.0
 20
19.800000000003021
 30
0.0
 11
333.0
 21
-19.799999999996999
 31
0.0
  0
LINE
  5
4736
  8
241
  6
CONTINUOUS
 10
135.0
 20
13.92940681683427
 30
0.0
 11
135.0
 21
-13.92940681682825
 31
0.0
  0
ARC
  5
4742
  8
240
  6
CONTINUOUS
 10
334.00000000000028
 20
112.0
 30
0.0
 40
16.0
 50
352.81924421854171
 51
7.1807557814582834
  0
ARC
  5
4743
  8
240
  6
CONTINUOUS
 10
345.90588089979087
 20
110.5
 30
0.0
 40
4.0
 50
270.0
 51
352.81924421854171
1001
ASK_MEN_XD
1005
4742
1070
     1
1005
4747
1070
     1
  0
ARC
  5
4744
  8
240
  6
CONTINUOUS
 10
345.90588089979087
 20
113.5
 30
0.0
 40
4.0
 50
7.1807557814582834
 51
90.0
1001
ASK_MEN_XD
1005
4745
1070
     1
1005
4742
1070
     1
  0
LINE
  5
4745
  8
240
  6
CONTINUOUS
 10
345.90588089979087
 20
117.5
 30
0.0
 11
135.87268677907619
 21
117.5
 31
0.0
  0
ARC
  5
4746
  8
240
  6
CONTINUOUS
 10
135.87268677907619
 20
217.5
 30
0.0
 40
100.0
 50
268.99999999999829
 51
270.0
1001
ASK_MEN_XD
1005
4777
1070
     1
1005
4745
1070
     1
  0
LINE
  5
4747
  8
240
  6
CONTINUOUS
 10
345.90588089979087
 20
106.5
 30
0.0
 11
135.8726867790746
 21
106.5
 31
0.0
  0
ARC
  5
4748
  8
240
  6
CONTINUOUS
 10
135.8726867790746
 20
6.5
 30
0.0
 40
100.0
 50
90.0
 51
91.000000000001776
1001
ASK_MEN_XD
1005
477A
1070
     1
1005
4747
1070
     1
  0
LINE
  5
4777
  8
240
  6
CONTINUOUS
 10
134.1274461353479
 20
117.5152304843608
 30
0.0
 11
55.585247227224443
 21
118.8861896659071
 31
0.0
  0
ARC
  5
4779
  8
240
  6
CONTINUOUS
 10
55.61142583688035
 20
103.6140387913582
 30
0.0
 40
1.5
 50
91.000000000001776
 51
163.86596598803831
1001
ASK_MEN_XD
1005
4722
1070
     1
1005
4777
1070
     1
  0
LINE
  5
477A
  8
240
  6
CONTINUOUS
 10
134.12744613534619
 20
106.4847695156391
 30
0.0
 11
55.585247227224443
 21
105.1138103340928
 31
0.0
  0
LINE
  5
477B
  8
240
  6
CONTINUOUS
 10
54.11265879840613
 20
103.8335543152218
 30
0.0
 11
54.170504449553853
 21
104.0308667601236
 31
0.0
  0
ARC
  5
4783
  8
240
  6
CONTINUOUS
 10
333.0
 20
0.0000000000030127
 30
0.0
 40
17.0
 50
268.99999999999829
 51
91.000000000001776
  0
LINE
  5
4784
  8
240
  6
CONTINUOUS
 10
333.0
 20
17.002589576749411
 30
0.0
 11
143.7475338578698
 21
13.699175492413239
 31
0.0
  0
ARC
  5
4785
  8
240
  6
CONTINUOUS
 10
142.00229321414139
 20
113.6839450080524
 30
0.0
 40
100.0
 50
261.00000000000131
 51
271.00000000000182
1001
ASK_MEN_XD
1005
4787
1070
     1
1005
4784
1070
     1
  0
LINE
  5
4786
  8
240
  6
CONTINUOUS
 10
333.0
 20
-17.002589576743389
 30
0.0
 11
143.7475338578698
 21
-13.699175492407161
 31
0.0
  0
LINE
  5
4787
  8
240
  6
CONTINUOUS
 10
126.3588467101205
 20
14.915110948538249
 30
0.0
 11
72.182041671018567
 21
23.495873893226701
 31
0.0
  0
ARC
  5
4788
  8
240
  6
CONTINUOUS
 10
82.350281898632133
 20
-87.695616031904876
 30
0.0
 40
65.0
 50
98.999999999998721
 51
133.1995198233308
1001
ASK_MEN_XD
1005
4787
1070
     1
1005
4718
1070
     1
  0
ARC
  5
4789
  8
240
  6
CONTINUOUS
 10
142.00229321414139
 20
-113.68394500804629
 30
0.0
 40
100.0
 50
88.999999999998238
 51
98.999999999998721
1001
ASK_MEN_XD
1005
4787
1070
     1
1005
4784
1070
     1
  0
LINE
  5
478A
  8
240
  6
CONTINUOUS
 10
126.3588467101205
 20
-14.915110948532231
 30
0.0
 11
72.182041671018567
 21
-23.495873893220679
 31
0.0
  0
LINE
  5
478C
  8
241
  6
CONTINUOUS
 10
118.28175348794321
 20
9.6133735203596871
 30
0.0
 11
59.878256110047289
 21
18.863578765551999
 31
0.0
  0
LINE
  5
478D
  8
241
  6
CONTINUOUS
 10
118.28175348794321
 20
-9.6133735203537753
 30
0.0
 11
59.878256110047232
 21
-18.86357876554592
 31
0.0
  0
LINE
  5
4790
  8
241
  6
CONTINUOUS
 10
305.79669090943378
 20
10.026763918025781
 30
0.0
 11
154.2538524026653
 21
7.3815738324837517
 31
0.0
  0
LINE
  5
4791
  8
241
  6
CONTINUOUS
 10
305.79669090943378
 20
-10.02676391801986
 30
0.0
 11
154.25385240266519
 21
-7.3815738324776703
 31
0.0
  0
ARC
  5
4792
  8
241
  6
CONTINUOUS
 10
154.38269825318361
 20
0.0000000000030695
 30
0.0
 40
7.382698253183662
 50
91.000000000001776
 51
268.99999999999829
  0
CIRCLE
  5
4795
  8
241
  6
CONTINUOUS
 10
333.0000000000008
 20
0.0000000000043201
 30
0.0
 40
10.0
  0
ARC
  5
4797
  8
241
  6
CONTINUOUS
 10
305.97170872464278
 20
0.0000000000029559
 30
0.0
 40
10.02829127535716
 50
268.99999999999829
 51
91.000000000001776
  0
ARC
  5
479A
  8
241
  6
CONTINUOUS
 10
-0.0000000000000568
 20
0.000000000002899
 30
0.0
 40
121.0
 50
356.76918126477921
 51
3.2308187352208808
  0
ARC
  5
479B
  8
241
  6
CONTINUOUS
 10
117.8124500928226
 20
6.6503084985742467
 30
0.0
 40
3.0
 50
3.2308187352208808
 51
81.000000000001293
1001
ASK_MEN_XD
1005
479A
1070
     1
1005
478C
1070
     1
  0
ARC
  5
479C
  8
241
  6
CONTINUOUS
 10
117.8124500928226
 20
-6.6503084985682781
 30
0.0
 40
3.0
 50
278.99999999999881
 51
356.76918126477921
1001
ASK_MEN_XD
1005
478D
1070
     1
1005
479A
1070
     1
  0
LINE
  5
4929
  8
241
  6
CONTINUOUS
 10
71.439468579149093
 20
-9.3788006547384271
 30
0.0
 11
74.593166043563883
 21
-7.0023191576297563
 31
0.0
  0
LINE
  5
492A
  8
241
  6
CONTINUOUS
 10
66.49594382134137
 20
-14.345833333333299
 30
0.0
 11
66.49594382134137
 21
-9.8541666666665151
 31
0.0
  0
LINE
  5
492B
  8
241
  6
CONTINUOUS
 10
70.839725772588736
 20
6.5042362294737472
 30
0.0
 11
72.319174018699016
 21
6.818702661835629
 31
0.0
  0
LINE
  5
492C
  8
241
  6
CONTINUOUS
 10
60.995943821341648
 20
-14.345833333333299
 30
0.0
 11
66.495943821341541
 21
-14.345833333333299
 31
0.0
  0
LINE
  5
492D
  8
241
  6
CONTINUOUS
 10
72.738724858080843
 20
-6.574187675595339
 30
0.0
 11
74.593166043561723
 21
-7.0023191576361219
 31
0.0
  0
LINE
  5
492E
  8
241
  6
CONTINUOUS
 10
69.646724993513644
 20
-5.8603432599022653
 30
0.0
 11
71.260052972637482
 21
-6.2328093721348523
 31
0.0
  0
LINE
  5
492F
  8
241
  6
CONTINUOUS
 10
69.646724993518603
 20
-5.8603432598961831
 30
0.0
 11
71.439468579152617
 21
-9.3788006547383702
 31
0.0
  0
LINE
  5
4930
  8
241
  6
CONTINUOUS
 10
60.995943821341648
 20
-13.520833333333311
 30
0.0
 11
65.670943821341325
 21
-13.520833333333311
 31
0.0
  0
LINE
  5
4931
  8
241
  6
CONTINUOUS
 10
65.670943821341325
 20
-13.520833333333311
 30
0.0
 11
65.670943821341325
 21
-9.8541666666665151
 31
0.0
  0
LINE
  5
4932
  8
241
  6
CONTINUOUS
 10
65.670943821341325
 20
-9.8541666666665151
 30
0.0
 11
66.49594382134137
 21
-9.8541666666665151
 31
0.0
  0
LINE
  5
4933
  8
241
  6
CONTINUOUS
 10
60.995943821341648
 20
-14.345833333333299
 30
0.0
 11
60.995943821341648
 21
-13.520833333333311
 31
0.0
  0
LINE
  5
4934
  8
241
  6
CONTINUOUS
 10
60.995943821341648
 20
11.091666666666979
 30
0.0
 11
63.408563843551413
 21
11.091666666666979
 31
0.0
  0
LINE
  5
4935
  8
241
  6
CONTINUOUS
 10
60.995943821341648
 20
10.26666666666693
 30
0.0
 11
66.495943821341541
 21
10.26666666666693
 31
0.0
  0
LINE
  5
4936
  8
241
  6
CONTINUOUS
 10
63.395614660668059
 20
12.32939572310852
 30
0.0
 11
61.605194353832353
 21
14.2903322496428
 31
0.0
  0
LINE
  5
4937
  8
241
  6
CONTINUOUS
 10
63.408563843551413
 20
11.091666666666979
 30
0.0
 11
60.995943821341648
 21
13.734060024325171
 31
0.0
  0
LINE
  5
4938
  8
241
  6
CONTINUOUS
 10
63.952626956187942
 20
11.719334637539079
 30
0.0
 11
66.495943821341541
 21
13.81168028728996
 31
0.0
  0
LINE
  5
4939
  8
241
  6
CONTINUOUS
 10
63.395614660668059
 20
12.32939572310846
 30
0.0
 11
65.971806419769962
 21
14.44878701639726
 31
0.0
  0
LINE
  5
493A
  8
241
  6
CONTINUOUS
 10
66.495943821341541
 20
10.26666666666693
 30
0.0
 11
66.495943821341541
 21
11.091666666666979
 31
0.0
  0
LINE
  5
493B
  8
241
  6
CONTINUOUS
 10
60.995943821341648
 20
10.26666666666693
 30
0.0
 11
60.995943821341648
 21
11.091666666666979
 31
0.0
  0
LINE
  5
493C
  8
241
  6
CONTINUOUS
 10
65.971806419769962
 20
14.44878701639726
 30
0.0
 11
66.495943821341541
 21
13.81168028728996
 31
0.0
  0
LINE
  5
493D
  8
241
  6
CONTINUOUS
 10
60.995943821341648
 20
13.734060024325171
 30
0.0
 11
61.605194353832353
 21
14.2903322496428
 31
0.0
  0
LINE
  5
493E
  8
241
  6
CONTINUOUS
 10
64.525715103505945
 20
11.091666666666979
 30
0.0
 11
63.952626956187942
 21
11.719334637539079
 31
0.0
  0
LINE
  5
493F
  8
241
  6
CONTINUOUS
 10
64.525715103505945
 20
11.091666666666979
 30
0.0
 11
66.495943821341541
 21
11.091666666666979
 31
0.0
  0
LINE
  5
4940
  8
241
  6
CONTINUOUS
 10
63.24177715467448
 20
-6.4173650304764456
 30
0.0
 11
64.250110488008033
 21
-6.4173650304764456
 31
0.0
  0
LINE
  5
4941
  8
241
  6
CONTINUOUS
 10
63.24177715467448
 20
-1.9256983638098291
 30
0.0
 11
64.250110488008033
 21
-1.9256983638098291
 31
0.0
  0
LINE
  5
4942
  8
241
  6
CONTINUOUS
 10
63.24177715467448
 20
-5.5923650304764569
 30
0.0
 11
64.250110488008033
 21
-5.5923650304764569
 31
0.0
  0
LINE
  5
4943
  8
241
  6
CONTINUOUS
 10
63.24177715467448
 20
-2.7506983638098741
 30
0.0
 11
64.250110488008033
 21
-2.7506983638098741
 31
0.0
  0
LINE
  5
4944
  8
241
  6
CONTINUOUS
 10
63.24177715467448
 20
2.7496508180953461
 30
0.0
 11
64.250110488008033
 21
2.7496508180953461
 31
0.0
  0
LINE
  5
4945
  8
241
  6
CONTINUOUS
 10
63.24177715467448
 20
1.9246508180953581
 30
0.0
 11
64.250110488008033
 21
1.9246508180953581
 31
0.0
  0
LINE
  5
4946
  8
241
  6
CONTINUOUS
 10
62.874038428091353
 20
5.5429037629477298
 30
0.0
 11
62.660512715881737
 21
6.3397925696361881
 31
0.0
  0
LINE
  5
4947
  8
241
  6
CONTINUOUS
 10
64.617849214591217
 20
5.5429037629477298
 30
0.0
 11
64.831374926800777
 21
6.3397925696361881
 31
0.0
  0
ARC
  5
4948
  8
241
  6
CONTINUOUS
 10
35.332967865950771
 20
-1.042958147210697
 30
0.0
 40
36.300000000000011
 50
351.78019184719892
 51
11.99999999999627
  0
ARC
  5
4949
  8
241
  6
CONTINUOUS
 10
35.332967865950771
 20
-1.042958147210697
 30
0.0
 40
37.8125
 50
351.58856573578402
 51
11.99999999999627
  0
ARC
  5
494A
  8
241
  6
CONTINUOUS
 10
64.250110488008033
 20
-4.1715316971431093
 30
0.0
 40
2.2458333333333069
 50
270.0
 51
90.0
  0
ARC
  5
494B
  8
241
  6
CONTINUOUS
 10
63.24177715467448
 20
-4.1715316971431093
 30
0.0
 40
2.2458333333333069
 50
90.0
 51
270.0
  0
ARC
  5
494C
  8
241
  6
CONTINUOUS
 10
64.250110488008033
 20
-4.1715316971431093
 30
0.0
 40
1.420833333333307
 50
270.0
 51
90.0
  0
ARC
  5
494D
  8
241
  6
CONTINUOUS
 10
63.24177715467448
 20
-4.1715316971431093
 30
0.0
 40
1.420833333333307
 50
90.0
 51
270.0
  0
ARC
  5
494E
  8
241
  6
CONTINUOUS
 10
63.24177715467448
 20
4.1704841514286954
 30
0.0
 40
1.420833333333307
 50
105.00000000000151
 51
270.0
  0
ARC
  5
494F
  8
241
  6
CONTINUOUS
 10
63.24177715467448
 20
4.1704841514286954
 30
0.0
 40
2.2458333333333069
 50
105.00000000000151
 51
270.0
  0
ARC
  5
4950
  8
241
  6
CONTINUOUS
 10
64.250110488008033
 20
4.1704841514286954
 30
0.0
 40
2.2458333333333069
 50
270.0
 51
74.999999999998494
  0
ARC
  5
4951
  8
241
  6
CONTINUOUS
 10
64.250110488008033
 20
4.1704841514286954
 30
0.0
 40
1.420833333333307
 50
270.0
 51
74.999999999998494
  0
CIRCLE
  5
49AF
  8
241
  6
CONTINUOUS
 10
-0.0000000000010232
 20
0.0000000000034106
 30
0.0
 40
43.0
  0
CIRCLE
  5
4DC1
  8
246
  6
PHANTOM2
 10
0.0
 20
0.0000000000030198
 30
0.0
 40
42.5
  0
LINE
  5
4DC2
  8
246
  6
PHANTOM2
 10
-42.499999999999702
 20
122.0
 30
0.0
 11
-42.499999999999709
 21
102.0000000000001
 31
0.0
  0
LINE
  5
4DC3
  8
246
  6
PHANTOM2
 10
42.50000000000027
 20
122.0
 30
0.0
 11
42.500000000000277
 21
102.0000000000001
 31
0.0
  0
LINE
  5
4EA1
  8
250
  6
CONTINUOUS
 10
-55.299999999999997
 20
0.5000000000030127
 30
0.0
 11
-55.29999999999999
 21
77.999999999999858
 31
0.0
  0
LINE
  5
4EA2
  8
250
  6
CONTINUOUS
 10
350.0
 20
0.5000000000030127
 30
0.0
 11
350.0
 21
77.999999999999858
 31
0.0
  0
LINE
  5
4EA3
  8
250
  6
CONTINUOUS
 10
-53.069999999999993
 20
76.999999999999844
 30
0.0
 11
347.76999999999998
 21
76.999999999999844
 31
0.0
  0
LINE
  5
4EA7
  8
250
  6
CONTINUOUS
 10
0.0
 20
59.174005742550719
 30
0.0
 11
0.0000000000000008
 21
71.0
 31
0.0
  0
LINE
  5
4EA8
  8
250
  6
CONTINUOUS
 10
350.0
 20
0.5000000000030127
 30
0.0
 11
350.0
 21
71.0
 31
0.0
  0
LINE
  5
4EA9
  8
250
  6
CONTINUOUS
 10
2.23
 20
70.0
 30
0.0
 11
347.76999999999998
 21
70.0
 31
0.0
  0
LINE
  5
4EAD
  8
250
  6
CONTINUOUS
 10
-55.299999999999997
 20
0.5000000000030127
 30
0.0
 11
-55.29999999999999
 21
71.0
 31
0.0
  0
LINE
  5
4EAE
  8
250
  6
CONTINUOUS
 10
0.0
 20
59.174005742550719
 30
0.0
 11
0.0000000000000008
 21
71.0
 31
0.0
  0
LINE
  5
4EAF
  8
250
  6
CONTINUOUS
 10
-53.069999999999993
 20
70.0
 30
0.0
 11
-2.2299999999999991
 21
70.0
 31
0.0
  0
LINE
  5
4EB3
  8
250
  6
CONTINUOUS
 10
-42.499999999999702
 20
122.5
 30
0.0
 11
-42.499999999999702
 21
141.0
 31
0.0
  0
LINE
  5
4EB4
  8
250
  6
CONTINUOUS
 10
42.50000000000027
 20
122.5
 30
0.0
 11
42.50000000000027
 21
141.0
 31
0.0
  0
LINE
  5
4EB5
  8
250
  6
CONTINUOUS
 10
-40.269999999999712
 20
140.0
 30
0.0
 11
40.27000000000028
 21
140.0
 31
0.0
  0
TEXT
  5
4EB9
  8
250
  6
CONTINUOUS
 10
141.34999999999999
 20
77.999999999999872
 30
0.0
 40
2.7999999999999989
  1
405.3
  0
LINE
  5
4EBA
  8
250
  6
CONTINUOUS
 10
347.76999999999998
 20
77.371666666666513
 30
0.0
 11
350.0
 21
76.999999999999844
 31
0.0
  0
LINE
  5
4EBB
  8
250
  6
CONTINUOUS
 10
347.76999999999998
 20
76.628333333333188
 30
0.0
 11
350.0
 21
76.999999999999844
 31
0.0
  0
LINE
  5
4EBC
  8
250
  6
CONTINUOUS
 10
350.0
 20
76.999999999999844
 30
0.0
 11
347.76999999999998
 21
76.999999999999844
 31
0.0
  0
LINE
  5
4EBD
  8
250
  6
CONTINUOUS
 10
-53.069999999999993
 20
76.628333333333188
 30
0.0
 11
-55.29999999999999
 21
76.999999999999844
 31
0.0
  0
LINE
  5
4EBE
  8
250
  6
CONTINUOUS
 10
-53.069999999999993
 20
77.371666666666513
 30
0.0
 11
-55.29999999999999
 21
76.999999999999844
 31
0.0
  0
LINE
  5
4EBF
  8
250
  6
CONTINUOUS
 10
-55.29999999999999
 20
76.999999999999844
 30
0.0
 11
-53.069999999999993
 21
76.999999999999844
 31
0.0
  0
TEXT
  5
4EC0
  8
250
  6
CONTINUOUS
 10
171.0
 20
71.000000000000014
 30
0.0
 40
2.7999999999999989
  1
350
  0
LINE
  5
4EC1
  8
250
  6
CONTINUOUS
 10
347.76999999999998
 20
70.37166666666667
 30
0.0
 11
350.0
 21
70.0
 31
0.0
  0
LINE
  5
4EC2
  8
250
  6
CONTINUOUS
 10
347.76999999999998
 20
69.62833333333333
 30
0.0
 11
350.0
 21
70.0
 31
0.0
  0
LINE
  5
4EC3
  8
250
  6
CONTINUOUS
 10
350.0
 20
70.0
 30
0.0
 11
347.76999999999998
 21
70.0
 31
0.0
  0
LINE
  5
4EC4
  8
250
  6
CONTINUOUS
 10
2.23
 20
69.62833333333333
 30
0.0
 11
0.0000000000000007
 21
70.0
 31
0.0
  0
LINE
  5
4EC5
  8
250
  6
CONTINUOUS
 10
2.23
 20
70.37166666666667
 30
0.0
 11
0.0000000000000007
 21
70.0
 31
0.0
  0
LINE
  5
4EC6
  8
250
  6
CONTINUOUS
 10
0.0000000000000007
 20
70.0
 30
0.0
 11
2.23
 21
70.0
 31
0.0
  0
TEXT
  5
4EC7
  8
250
  6
CONTINUOUS
 10
-32.316666666666663
 20
71.000000000000014
 30
0.0
 40
2.7999999999999989
  1
55.3
  0
LINE
  5
4EC8
  8
250
  6
CONTINUOUS
 10
-2.2299999999999991
 20
70.37166666666667
 30
0.0
 11
0.0000000000000007
 21
70.0
 31
0.0
  0
LINE
  5
4EC9
  8
250
  6
CONTINUOUS
 10
-2.2299999999999991
 20
69.62833333333333
 30
0.0
 11
0.0000000000000007
 21
70.0
 31
0.0
  0
LINE
  5
4ECA
  8
250
  6
CONTINUOUS
 10
0.0000000000000007
 20
70.0
 30
0.0
 11
-2.2299999999999991
 21
70.0
 31
0.0
  0
LINE
  5
4ECB
  8
250
  6
CONTINUOUS
 10
-53.069999999999993
 20
69.62833333333333
 30
0.0
 11
-55.29999999999999
 21
70.0
 31
0.0
  0
LINE
  5
4ECC
  8
250
  6
CONTINUOUS
 10
-53.069999999999993
 20
70.37166666666667
 30
0.0
 11
-55.29999999999999
 21
70.0
 31
0.0
  0
LINE
  5
4ECD
  8
250
  6
CONTINUOUS
 10
-55.29999999999999
 20
70.0
 30
0.0
 11
-53.069999999999993
 21
70.0
 31
0.0
  0
TEXT
  5
4ECE
  8
250
  6
CONTINUOUS
 10
-3.933333333333048
 20
141.0
 30
0.0
 40
2.7999999999999989
  1
\U+220585
  0
LINE
  5
4ECF
  8
250
  6
CONTINUOUS
 10
40.27000000000028
 20
140.37166666666661
 30
0.0
 11
42.50000000000027
 21
140.0
 31
0.0
  0
LINE
  5
4ED0
  8
250
  6
CONTINUOUS
 10
40.27000000000028
 20
139.6283333333333
 30
0.0
 11
42.50000000000027
 21
140.0
 31
0.0
  0
LINE
  5
4ED1
  8
250
  6
CONTINUOUS
 10
42.50000000000027
 20
140.0
 30
0.0
 11
40.27000000000028
 21
140.0
 31
0.0
  0
LINE
  5
4ED2
  8
250
  6
CONTINUOUS
 10
-40.269999999999712
 20
139.6283333333333
 30
0.0
 11
-42.499999999999702
 21
140.0
 31
0.0
  0
LINE
  5
4ED3
  8
250
  6
CONTINUOUS
 10
-40.269999999999712
 20
140.37166666666661
 30
0.0
 11
-42.499999999999702
 21
140.0
 31
0.0
  0
LINE
  5
4ED4
  8
250
  6
CONTINUOUS
 10
-42.499999999999702
 20
140.0
 30
0.0
 11
-40.269999999999712
 21
140.0
 31
0.0
  0
TEXT
  5
4ED7
  8
241
  6
CONTINUOUS
 10
-49.0
 20
154.0
 30
0.0
 40
4.0
  1
MGR85L
  7
YOKO
  0
VIEWPORT
  5
22
 67
     1
  8
0
 10
261.51769911504419
 20
148.5
 30
0.0
 40
523.0353982300885
 41
297.0
 68
     1
 69
     1
1001
ACAD
1000
MVIEW
1002
{
1070
    16
1010
0.0
1020
0.0
1030
0.0
1010
0.0
1020
0.0
1030
1.0
1040
0.0
1040
297.0
1040
261.51769911504419
1040
148.5
1040
50.0
1040
0.0
1040
0.0
1070
     0
1070
   100
1070
     1
1070
     1
1070
     0
1070
     0
1070
     0
1070
     0
1040
0.0
1040
0.0
1040
0.0
1040
1.0
1040
1.0
1040
10.0
1040
10.0
1070
     0
1002
{
1002
}
1002
}
1001
GENIUS_GENODEF_13
1002
{
1000
HIER
1070
     0
1002
}
1002
{
1000
MANEDIT
1070
     0
1002
}
1002
{
1000
NOSEL
1070
     0
1002
}
1002
{
1000
BEHIND
1070
     0
1002
}
1002
{
1000
OTHER
1070
     0
1002
}
1002
{
1000
REACTOR
1002
}
1001
GENIUS_GENOBJ-N-SDF_13
1002
{
1000
OWNER
1000
GEN
1002
}
1001
GENIUS_GENSCREG_15
1000
PF
1040
1.0
1000
DF
1040
1.0
1000
MIN
1011
0.0
1021
0.0
1031
0.0
1021
0.0
1031
0.0
1000
MAX
1011
523.0353982300885
1021
0.0
1031
0.0
1021
297.0
1031
0.0
1000
FLAGS
1070
     4
  0
ENDSEC
  0
EOF
