  0
SECTION
  2
HEADER
  9
$ACADVER
  1
AC1009
  9
$INSBASE
 10
0.0
 20
0.0
 30
0.0
  9
$EXTMIN
 10
-58.852423237434351
 20
-57.160313901186839
 30
0.0
  9
$EXTMAX
 10
355.67870237174088
 20
158.0
 30
0.0
  9
$LIMMIN
 10
0.0
 20
0.0
  9
$LIMMAX
 10
297.0
 20
210.0
  9
$ORTHOMODE
 70
     0
  9
$REGENMODE
 70
     1
  9
$FILLMODE
 70
     1
  9
$QTEXTMODE
 70
     0
  9
$MIRRTEXT
 70
     1
  9
$DRAGMODE
 70
     2
  9
$LTSCALE
 40
10.0
  9
$OSMODE
 70
    37
  9
$ATTMODE
 70
     1
  9
$TEXTSIZE
 40
4.0
  9
$TRACEWID
 40
1.0
  9
$TEXTSTYLE
  7
YOKO
  9
$CLAYER
  8
240
  9
$CELTYPE
  6
BYLAYER
  9
$CECOLOR
 62
   256
  9
$DIMSCALE
 40
1.0
  9
$DIMASZ
 40
2.2299999999999991
  9
$DIMEXO
 40
0.5
  9
$DIMDLI
 40
7.0
  9
$DIMRND
 40
0.0
  9
$DIMDLE
 40
0.0
  9
$DIMEXE
 40
1.0
  9
$DIMTP
 40
0.0
  9
$DIMTM
 40
0.01
  9
$DIMTXT
 40
2.7999999999999989
  9
$DIMCEN
 40
0.0
  9
$DIMTSZ
 40
0.0
  9
$DIMTOL
 70
     0
  9
$DIMLIM
 70
     0
  9
$DIMTIH
 70
     0
  9
$DIMTOH
 70
     0
  9
$DIMSE1
 70
     0
  9
$DIMSE2
 70
     0
  9
$DIMTAD
 70
     3
  9
$DIMZIN
 70
     9
  9
$DIMBLK
  1
OPEN
  9
$DIMASO
 70
     1
  9
$DIMSHO
 70
     1
  9
$DIMPOST
  1

  9
$DIMAPOST
  1

  9
$DIMALT
 70
     0
  9
$DIMALTD
 70
     2
  9
$DIMALTF
 40
25.399999999999999
  9
$DIMLFAC
 40
1.0
  9
$DIMTOFL
 70
     1
  9
$DIMTVP
 40
0.0
  9
$DIMTIX
 70
     1
  9
$DIMSOXD
 70
     0
  9
$DIMSAH
 70
     0
  9
$DIMBLK1
  1

  9
$DIMBLK2
  1

  9
$DIMSTYLE
  2
BIGT
  9
$DIMCLRD
 70
   256
  9
$DIMCLRE
 70
   256
  9
$DIMCLRT
 70
    40
  9
$DIMTFAC
 40
1.0
  9
$DIMGAP
 40
1.0
  9
$LUNITS
 70
     2
  9
$LUPREC
 70
     6
  9
$SKETCHINC
 40
1.0
  9
$FILLETRAD
 40
0.0
  9
$AUNITS
 70
     0
  9
$AUPREC
 70
     6
  9
$MENU
  1
.
  9
$ELEVATION
 40
0.0
  9
$PELEVATION
 40
0.0
  9
$THICKNESS
 40
0.0
  9
$LIMCHECK
 70
     0
  9
$BLIPMODE
 70
     0
  9
$CHAMFERA
 40
0.2
  9
$CHAMFERB
 40
0.2
  9
$SKPOLY
 70
     0
  9
$TDCREATE
 40
2459495.4894198258
  9
$TDUPDATE
 40
2459495.5238286462
  9
$TDINDWG
 40
0.0343
  9
$TDUSRTIMER
 40
0.034299919
  9
$USRTIMER
 70
     1
  9
$ANGBASE
 50
0.0
  9
$ANGDIR
 70
     0
  9
$PDMODE
 70
     1
  9
$PDSIZE
 40
0.0
  9
$PLINEWID
 40
0.0
  9
$COORDS
 70
     1
  9
$SPLFRAME
 70
     0
  9
$SPLINETYPE
 70
     6
  9
$SPLINESEGS
 70
     4
  9
$ATTDIA
 70
     1
  9
$ATTREQ
 70
     1
  9
$HANDLING
 70
     1
  9
$HANDSEED
  5
504C
  9
$SURFTAB1
 70
     6
  9
$SURFTAB2
 70
     6
  9
$SURFTYPE
 70
     6
  9
$SURFU
 70
     6
  9
$SURFV
 70
     6
  9
$UCSNAME
  2

  9
$UCSORG
 10
0.0
 20
0.0
 30
0.0
  9
$UCSXDIR
 10
1.0
 20
0.0
 30
0.0
  9
$UCSYDIR
 10
0.0
 20
1.0
 30
0.0
  9
$PUCSNAME
  2

  9
$PUCSORG
 10
0.0
 20
0.0
 30
0.0
  9
$PUCSXDIR
 10
1.0
 20
0.0
 30
0.0
  9
$PUCSYDIR
 10
0.0
 20
1.0
 30
0.0
  9
$USERI1
 70
     1
  9
$USERI2
 70
     0
  9
$USERI3
 70
     0
  9
$USERI4
 70
     0
  9
$USERI5
 70
     0
  9
$USERR1
 40
0.0
  9
$USERR2
 40
0.0
  9
$USERR3
 40
0.0
  9
$USERR4
 40
0.0
  9
$USERR5
 40
0.0
  9
$WORLDVIEW
 70
     1
  9
$SHADEDGE
 70
     3
  9
$SHADEDIF
 70
    70
  9
$TILEMODE
 70
     1
  9
$MAXACTVP
 70
    16
  9
$PLIMCHECK
 70
     0
  9
$PEXTMIN
 10
1.0000000000000000E+020
 20
1.0000000000000000E+020
 30
1.0000000000000000E+020
  9
$PEXTMAX
 10
-1.0000000000000000E+020
 20
-1.0000000000000000E+020
 30
-1.0000000000000000E+020
  9
$PLIMMIN
 10
0.0
 20
0.0
  9
$PLIMMAX
 10
420.0
 20
297.0
  9
$UNITMODE
 70
     0
  9
$VISRETAIN
 70
     1
  9
$PLINEGEN
 70
     0
  9
$PSLTSCALE
 70
     1
  0
ENDSEC
  0
SECTION
  2
TABLES
  0
TABLE
  2
VPORT
 70
     1
  0
VPORT
  2
*ACTIVE
 70
     0
 10
0.0
 20
0.0
 11
1.0
 21
1.0
 12
167.0374089263901
 22
131.18898045160719
 13
0.0
 23
0.0
 14
7.0
 24
7.0
 15
7.0
 25
7.0
 16
0.0
 26
0.0
 36
1.0
 17
0.0
 27
0.0
 37
0.0
 40
428.22372822457783
 41
1.7200474495848159
 42
50.0
 43
0.0
 44
0.0
 50
0.0
 51
0.0
 71
     0
 72
  2000
 73
     1
 74
     0
 75
     1
 76
     1
 77
     0
 78
     0
  0
ENDTAB
  0
TABLE
  2
LTYPE
 70
    13
  0
LTYPE
  2
CONTINUOUS
 70
     0
  3
Solid line
 72
    65
 73
     0
 40
0.0
  0
LTYPE
  2
CENTER2
 70
     0
  3
___ _ ___ _ ___ _ ___ _ ___ _ ___ _ ___ _ ___ _
 72
    65
 73
     4
 40
1.125
 49
0.75
 49
-0.125
 49
0.125
 49
-0.125
  0
LTYPE
  2
HIDDEN2
 70
     0
  3
_ _ _ _ _ _ _ _ _ _ _ _ _ _ _ _ _ _ _ _ _ _ _ _
 72
    65
 73
     2
 40
0.1875
 49
0.125
 49
-0.0625
  0
LTYPE
  2
PHANTOM2
 70
     0
  3
___ _ _ ___ _ _ ___ _ _ ___ _ _ ___ _ _ ___ _ _
 72
    65
 73
     6
 40
1.25
 49
0.625
 49
-0.125
 49
0.125
 49
-0.125
 49
0.125
 49
-0.125
  0
LTYPE
  2
AM_ISO02W050
 70
     0
  3
__ __ __ __ __ __ __ __ __ __ __ __ __ __ __
 72
    65
 73
     2
 40
7.5
 49
6.0
 49
-1.5
  0
LTYPE
  2
AMCONSTR
 70
     0
  3
_______________________
 72
    65
 73
     2
 40
9999.0
 49
9999.0
 49
0.0
  0
LTYPE
  2
ACISOWELD
 70
     0
  3
_ _ _ _ _
 72
    65
 73
     2
 40
2.0
 49
2.0
 49
-1.0
  0
LTYPE
  2
ACISOTGB
 70
     0
  3
__ . . __ . .
 72
    65
 73
     6
 40
9.0
 49
4.0
 49
-1.0
 49
1.0
 49
-1.0
 49
1.0
 49
-1.0
  0
LTYPE
  2
ACISOTGL
 70
     0
  3
_ _ _ _ _
 72
    65
 73
     2
 40
3.0
 49
2.0
 49
-1.0
  0
LTYPE
  2
ACJISTGB
 70
     0
  3
__ . . __ . .
 72
    65
 73
     6
 40
9.0
 49
4.0
 49
-1.0
 49
1.0
 49
-1.0
 49
1.0
 49
-1.0
  0
LTYPE
  2
ACJISTGL
 70
     0
  3
_ _ _ _ _
 72
    65
 73
     2
 40
3.0
 49
2.0
 49
-1.0
  0
ENDTAB
  0
TABLE
  2
LAYER
 70
     7
  0
LAYER
  2
0
 70
     0
 62
     7
  6
CONTINUOUS
  0
LAYER
  2
DEFPOINTS
 70
     0
 62
     7
  6
CONTINUOUS
  0
LAYER
  2
245
 70
     0
 62
     2
  6
CENTER2
  0
LAYER
  2
240
 70
     0
 62
     4
  6
CONTINUOUS
  0
LAYER
  2
241
 70
     0
 62
   211
  6
CONTINUOUS
  0
LAYER
  2
246
 70
     0
 62
     3
  6
PHANTOM2
  0
LAYER
  2
250
 70
     0
 62
     3
  6
CONTINUOUS
  0
ENDTAB
  0
TABLE
  2
STYLE
 70
     6
  0
STYLE
  2
STANDARD
 70
     0
 40
0.0
 41
1.0
 50
0.0
 71
     0
 42
3.0
  3
romans.shx
  4
extfont.shx
  0
STYLE
  2
ACISOTS
 70
     0
 40
1.0
 41
1.0
 50
0.0
 71
     0
 42
3.0
  3
amgdt.shx
  4
extfont.shx
  0
STYLE
  2
ACISOGDT
 70
     0
 40
0.0
 41
1.0
 50
0.0
 71
     0
 42
3.0
  3
amgdt.shx
  4
extfont.shx
  0
STYLE
  2
ACJISTS
 70
     0
 40
1.0
 41
1.0
 50
0.0
 71
     0
 42
3.0
  3
amgdt.shx
  4
extfont.shx
  0
STYLE
  2
ACJISGDT
 70
     0
 40
0.0
 41
1.0
 50
0.0
 71
     0
 42
3.0
  3
amgdt.shx
  4
extfont.shx
  0
STYLE
  2
YOKO
 70
     0
 40
0.0
 41
1.0
 50
0.0
 71
     0
 42
4.0
  3
romans.shx
  4
extfont.shx
  0
ENDTAB
  0
TABLE
  2
VIEW
 70
     0
  0
ENDTAB
  0
TABLE
  2
UCS
 70
     0
  0
ENDTAB
  0
TABLE
  2
APPID
 70
    39
  0
APPID
  2
ACAD
 70
     0
  0
APPID
  2
GLOBAL
 70
     0
  0
APPID
  2
DETAIL
 70
     0
  0
APPID
  2
GRPNAME
 70
     0
  0
APPID
  2
GPARA
 70
     0
  0
APPID
  2
MCAD_NO_VIS
 70
     0
  0
APPID
  2
ACAD_TEMP_GRAPHIC
 70
     0
  0
APPID
  2
ACATTRIBSERVICES
 70
     0
  0
APPID
  2
GENIUS_GENSCREG_15
 70
     0
  0
APPID
  2
GENIUS_GENODEF_13
 70
     0
  0
APPID
  2
GENIUS_GENOBJ-N-SDF_13
 70
     0
  0
APPID
  2
GENIUS_GENREC_14
 70
     0
  0
APPID
  2
GENIUS_GENOBJ-N-REC_13
 70
     0
  0
APPID
  2
GENIUS_GENDIMSH_14
 70
     0
  0
APPID
  2
GENIUS_GENOBJ-N-DIM_13
 70
     0
  0
APPID
  2
GENIUS_GENDIM_13
 70
     0
  0
APPID
  2
GENIUS_GENDTOL_13
 70
     0
  0
APPID
  2
GENIUS_GENOLIS_13
 70
     0
  0
APPID
  2
GENIUS_GENOENT_13
 70
     0
  0
APPID
  2
GENIUS_GENOBJ-F-FEM_13
 70
     0
  0
APPID
  2
GENIUS_GENOREF_13
 70
     0
  0
APPID
  2
GENIUS_GEFFEM_13
 70
     0
  0
APPID
  2
GENIUS_GEFFEMP_13
 70
     0
  0
APPID
  2
AD_DRAW
 70
     0
  0
APPID
  2
DESIGNERASSEMBLIES
 70
     0
  0
APPID
  2
ACADM_DIM_EDIT
 70
     0
  0
APPID
  2
AMDT_DM_ADJ
 70
     0
  0
APPID
  2
ITEMNAME
 70
     0
  0
APPID
  2
GENIUS_GENOBJ-N-FIL_13
 70
     0
  0
APPID
  2
GENIUS_GENFIL_13
 70
     0
  0
APPID
  2
GENIUS_GENOBJ-N-CHA_13
 70
     0
  0
APPID
  2
ACAD_NAV_VCDISPLAY
 70
     0
  0
APPID
  2
ACAECLAYERSTANDARD
 70
     0
  0
APPID
  2
LAYER_SCALE
 70
     0
  0
APPID
  2
ASK_MEN_XD
 70
     0
  0
APPID
  2
ACAD_EXEMPT_FROM_CAD_STANDARDS
 70
     0
  0
APPID
  2
ACAD_DSTYLE_DIMINSPECT
 70
     0
  0
APPID
  2
ACAD_DSTYLE_DIMRADIAL_EXTENSION
 70
     0
  0
APPID
  2
ACAD_MLEADERVER
 70
     0
  0
ENDTAB
  0
TABLE
  2
DIMSTYLE
 70
    24
  0
DIMSTYLE
  2
BIGT
 70
     0
  3

  4

  5
OPEN
  6

  7

 40
1.0
 41
2.2299999999999991
 42
0.5
 43
7.0
 44
1.0
 45
0.0
 46
0.0
 47
0.0
 48
0.01
140
2.7999999999999989
141
0.0
142
0.0
143
25.399999999999999
144
1.0
145
0.0
146
1.0
147
1.0
 71
     0
 72
     0
 73
     0
 74
     0
 75
     0
 76
     0
 77
     3
 78
     9
170
     0
171
     2
172
     1
173
     0
174
     1
175
     0
176
   256
177
   256
178
    40
  0
DIMSTYLE
  2
AM_ISO
 70
     0
  3

  4
"
  5

  6

  7

 40
1.0
 41
2.5
 42
1.0
 43
10.0
 44
1.0
 45
0.0
 46
0.0
 47
0.1
 48
0.1
140
3.5
141
0.0
142
0.0
143
0.0393701
144
1.0
145
0.0
146
0.71
147
1.5
 71
     0
 72
     0
 73
     0
 74
     0
 75
     0
 76
     0
 77
     1
 78
     8
170
     0
171
     2
172
     1
173
     0
174
     0
175
     0
176
   256
177
   256
178
     2
  0
DIMSTYLE
  2
AM_ISO$3
 70
     0
  3

  4
"
  5

  6

  7

 40
1.0
 41
2.5
 42
1.0
 43
10.0
 44
1.0
 45
0.0
 46
0.0
 47
0.1
 48
0.1
140
3.5
141
0.0
142
0.0
143
0.0393701
144
1.0
145
0.0
146
0.71
147
1.5
 71
     0
 72
     0
 73
     0
 74
     1
 75
     0
 76
     0
 77
     1
 78
     8
170
     0
171
     2
172
     0
173
     0
174
     0
175
     0
176
   256
177
   256
178
     2
  0
DIMSTYLE
  2
AM_ISO$4
 70
     0
  3

  4
"
  5

  6

  7

 40
1.0
 41
2.5
 42
1.0
 43
10.0
 44
1.0
 45
0.0
 46
0.0
 47
0.1
 48
0.1
140
3.5
141
0.0
142
0.0
143
0.0393701
144
1.0
145
0.0
146
0.71
147
1.5
 71
     0
 72
     0
 73
     0
 74
     1
 75
     0
 76
     0
 77
     1
 78
     8
170
     0
171
     2
172
     0
173
     0
174
     0
175
     0
176
   256
177
   256
178
     2
  0
DIMSTYLE
  2
AM_ISO$6
 70
     0
  3

  4
"
  5

  6

  7

 40
1.0
 41
2.5
 42
1.0
 43
10.0
 44
1.0
 45
0.0
 46
0.0
 47
0.1
 48
0.1
140
3.5
141
0.0
142
0.0
143
0.0393701
144
1.0
145
0.0
146
0.71
147
1.5
 71
     0
 72
     0
 73
     0
 74
     0
 75
     0
 76
     0
 77
     0
 78
     8
170
     0
171
     2
172
     1
173
     0
174
     0
175
     0
176
   256
177
   256
178
     2
  0
DIMSTYLE
  2
AM_ISO$7
 70
     0
  3

  4
"
  5

  6

  7

 40
1.0
 41
2.5
 42
1.0
 43
10.0
 44
1.0
 45
0.0
 46
0.0
 47
0.1
 48
0.1
140
5.0
141
0.0
142
0.0
143
0.0393701
144
1.0
145
0.0
146
0.71
147
1.5
 71
     0
 72
     0
 73
     0
 74
     0
 75
     0
 76
     0
 77
     1
 78
     8
170
     0
171
     2
172
     1
173
     0
174
     0
175
     0
176
   256
177
   256
178
     2
  0
DIMSTYLE
  2
AM_ISO$SF
 70
     0
  3

  4
"
  5

  6

  7

 40
1.0
 41
2.5
 42
1.0
 43
10.0
 44
1.0
 45
0.0
 46
0.0
 47
0.1
 48
0.1
140
3.5
141
0.0
142
0.0
143
0.0393701
144
1.0
145
0.0
146
0.71
147
1.5
 71
     0
 72
     0
 73
     0
 74
     0
 75
     1
 76
     1
 77
     1
 78
     8
170
     0
171
     2
172
     1
173
     0
174
     0
175
     0
176
   256
177
   256
178
     2
  0
DIMSTYLE
  2
AM_ISO$SH
 70
     0
  3

  4
"
  5

  6
GENAXEH
  7

 40
1.0
 41
2.5
 42
1.0
 43
10.0
 44
1.0
 45
0.0
 46
0.0
 47
0.1
 48
0.1
140
3.5
141
0.0
142
0.0
143
0.0393701
144
2.0
145
0.0
146
0.71
147
1.5
 71
     0
 72
     0
 73
     0
 74
     0
 75
     1
 76
     1
 77
     1
 78
     8
170
     0
171
     2
172
     1
173
     1
174
     0
175
     0
176
   256
177
   256
178
     2
  0
DIMSTYLE
  2
BIGT$2
 70
     0
  3

  4

  5
OPEN
  6

  7

 40
1.0
 41
2.2299999999999991
 42
0.5
 43
7.0
 44
1.0
 45
0.0
 46
0.0
 47
0.0
 48
0.01
140
2.7999999999999989
141
0.0
142
0.0
143
25.399999999999999
144
1.0
145
0.0
146
1.0
147
1.0
 71
     0
 72
     0
 73
     0
 74
     0
 75
     0
 76
     0
 77
     3
 78
     9
170
     0
171
     2
172
     1
173
     0
174
     0
175
     0
176
   256
177
   256
178
    40
  0
DIMSTYLE
  2
BIGT$3
 70
     0
  3

  4

  5
OPEN
  6

  7

 40
1.0
 41
2.2299999999999991
 42
0.5
 43
2.5
 44
1.0
 45
0.0
 46
0.0
 47
0.0
 48
0.01
140
2.7999999999999989
141
0.0
142
0.0
143
25.399999999999999
144
1.0
145
0.0
146
1.0
147
1.0
 71
     0
 72
     0
 73
     0
 74
     0
 75
     0
 76
     0
 77
     3
 78
     9
170
     0
171
     2
172
     1
173
     0
174
     0
175
     0
176
   256
177
   256
178
    40
  0
DIMSTYLE
  2
BIGT$7
 70
     0
  3

  4

  5
OPEN
  6

  7

 40
0.0
 41
2.2299999999999991
 42
0.5
 43
7.0
 44
1.0
 45
0.0
 46
0.0
 47
0.0
 48
0.01
140
2.7999999999999989
141
0.0
142
0.0
143
25.399999999999999
144
1.0
145
0.0
146
1.0
147
1.0
 71
     0
 72
     0
 73
     0
 74
     0
 75
     0
 76
     0
 77
     3
 78
     9
170
     0
171
     2
172
     0
173
     0
174
     0
175
     0
176
   256
177
   256
178
    40
  0
DIMSTYLE
  2
BIGT$6
 70
     0
  3

  4

  5
OPEN
  6

  7

 40
1.0
 41
2.2299999999999991
 42
0.5
 43
2.5
 44
1.0
 45
0.0
 46
0.0
 47
0.0
 48
0.01
140
2.7999999999999989
141
0.0
142
0.0
143
25.399999999999999
144
1.0
145
0.0
146
1.0
147
1.0
 71
     0
 72
     0
 73
     0
 74
     0
 75
     0
 76
     0
 77
     3
 78
     9
170
     0
171
     2
172
     1
173
     0
174
     0
175
     0
176
   256
177
   256
178
    40
  0
DIMSTYLE
  2
BIGT$0
 70
     0
  3

  4

  5
OPEN
  6

  7

 40
1.0
 41
2.2299999999999991
 42
0.5
 43
7.0
 44
1.0
 45
0.0
 46
0.0
 47
0.0
 48
0.01
140
2.7999999999999989
141
0.0
142
0.0
143
25.399999999999999
144
1.0
145
0.0
146
1.0
147
1.0
 71
     0
 72
     0
 73
     0
 74
     0
 75
     0
 76
     0
 77
     3
 78
     9
170
     0
171
     2
172
     1
173
     0
174
     1
175
     0
176
   256
177
   256
178
    40
  0
DIMSTYLE
  2
BIGT$4
 70
     0
  3

  4

  5
OPEN
  6

  7

 40
1.0
 41
2.2299999999999991
 42
0.5
 43
2.5
 44
1.0
 45
0.0
 46
0.0
 47
0.0
 48
0.01
140
2.7999999999999989
141
0.0
142
0.0
143
25.399999999999999
144
1.0
145
0.0
146
1.0
147
1.0
 71
     0
 72
     0
 73
     0
 74
     0
 75
     0
 76
     0
 77
     3
 78
     9
170
     0
171
     2
172
     1
173
     0
174
     0
175
     0
176
   256
177
   256
178
    40
  0
DIMSTYLE
  2
BIGT$SH
 70
     0
  3

  4

  5
OPEN
  6

  7

 40
1.0
 41
2.2299999999999991
 42
0.5
 43
7.0
 44
1.0
 45
0.0
 46
0.0
 47
0.0
 48
0.0
140
2.7999999999999989
141
0.0
142
0.0
143
25.399999999999999
144
1.0
145
0.0
146
1.0
147
1.0
 71
     0
 72
     0
 73
     0
 74
     0
 75
     0
 76
     0
 77
     3
 78
     9
170
     0
171
     2
172
     1
173
     0
174
     0
175
     0
176
   256
177
   256
178
    40
  0
DIMSTYLE
  2
BIGT$SF
 70
     0
  3

  4

  5
OPEN
  6

  7

 40
1.0
 41
2.2299999999999991
 42
0.5
 43
7.0
 44
1.0
 45
0.0
 46
0.0
 47
0.0
 48
0.0
140
2.7999999999999989
141
0.0
142
0.0
143
25.399999999999999
144
1.0
145
0.0
146
1.0
147
1.0
 71
     0
 72
     0
 73
     0
 74
     0
 75
     0
 76
     0
 77
     3
 78
     9
170
     0
171
     2
172
     1
173
     0
174
     0
175
     0
176
   256
177
   256
178
    40
  0
DIMSTYLE
  2
TECHNICAL_OSAKA
 70
     0
  3

  4
"
  5
OPEN30
  6

  7

 40
1.0
 41
2.5
 42
1.0
 43
10.0
 44
1.0
 45
0.0
 46
0.0
 47
0.1
 48
0.1
140
2.7999999999999989
141
0.0
142
0.0
143
0.0393701
144
1.0
145
0.0
146
0.71
147
1.5
 71
     0
 72
     0
 73
     0
 74
     0
 75
     0
 76
     0
 77
     3
 78
     8
170
     0
171
     2
172
     1
173
     0
174
     0
175
     0
176
   256
177
   256
178
    40
  0
DIMSTYLE
  2
TECHNICAL_OSAKA$3
 70
     0
  3

  4
"
  5
OPEN30
  6

  7

 40
1.0
 41
2.5
 42
1.0
 43
10.0
 44
1.0
 45
0.0
 46
0.0
 47
0.1
 48
0.1
140
2.7999999999999989
141
0.0
142
0.0
143
0.0393701
144
1.0
145
0.0
146
0.71
147
1.5
 71
     0
 72
     0
 73
     0
 74
     1
 75
     0
 76
     0
 77
     3
 78
     8
170
     0
171
     2
172
     0
173
     0
174
     0
175
     0
176
   256
177
   256
178
    40
  0
DIMSTYLE
  2
TECHNICAL_OSAKA$4
 70
     0
  3

  4
"
  5
OPEN30
  6

  7

 40
1.0
 41
2.5
 42
1.0
 43
10.0
 44
1.0
 45
0.0
 46
0.0
 47
0.1
 48
0.1
140
2.7999999999999989
141
0.0
142
0.0
143
0.0393701
144
1.0
145
0.0
146
0.71
147
1.5
 71
     0
 72
     0
 73
     0
 74
     1
 75
     0
 76
     0
 77
     3
 78
     8
170
     0
171
     2
172
     0
173
     0
174
     0
175
     0
176
   256
177
   256
178
    40
  0
DIMSTYLE
  2
TECHNICAL_OSAKA$6
 70
     0
  3

  4
"
  5
OPEN30
  6

  7

 40
1.0
 41
2.5
 42
1.0
 43
10.0
 44
1.0
 45
0.0
 46
0.0
 47
0.1
 48
0.1
140
2.7999999999999989
141
0.0
142
0.0
143
0.0393701
144
1.0
145
0.0
146
0.71
147
1.5
 71
     0
 72
     0
 73
     0
 74
     0
 75
     0
 76
     0
 77
     0
 78
     8
170
     0
171
     2
172
     1
173
     0
174
     0
175
     0
176
   256
177
   256
178
    40
  0
DIMSTYLE
  2
TECHNICAL_OSAKA$7
 70
     0
  3

  4
"
  5
OPEN30
  6

  7

 40
1.0
 41
2.5
 42
1.0
 43
10.0
 44
1.0
 45
0.0
 46
0.0
 47
0.1
 48
0.1
140
2.7999999999999989
141
0.0
142
0.0
143
0.0393701
144
1.0
145
0.0
146
0.71
147
1.5
 71
     0
 72
     0
 73
     0
 74
     0
 75
     0
 76
     0
 77
     3
 78
     8
170
     0
171
     2
172
     1
173
     0
174
     0
175
     0
176
   256
177
   256
178
    40
  0
DIMSTYLE
  2
TECHNICAL_OSAKA$SF
 70
     0
  3

  4
"
  5
OPEN30
  6
OPEN30
  7
OPEN30
 40
1.0
 41
2.5
 42
1.0
 43
10.0
 44
1.0
 45
0.0
 46
0.0
 47
0.1
 48
0.1
140
3.5
141
0.0
142
0.0
143
0.0393701
144
1.0
145
0.0
146
0.71
147
1.5
 71
     0
 72
     0
 73
     0
 74
     0
 75
     1
 76
     1
 77
     3
 78
     8
170
     0
171
     2
172
     1
173
     0
174
     0
175
     0
176
   256
177
   256
178
    40
  0
DIMSTYLE
  2
TECHNICAL_OSAKA$SH
 70
     0
  3

  4
"
  5
OPEN30
  6
GENAXEH
  7
OPEN30
 40
1.0
 41
2.5
 42
1.0
 43
10.0
 44
1.0
 45
0.0
 46
0.0
 47
0.1
 48
0.1
140
3.5
141
0.0
142
0.0
143
0.0393701
144
2.0
145
0.0
146
0.71
147
1.5
 71
     0
 72
     0
 73
     0
 74
     0
 75
     1
 76
     1
 77
     3
 78
     8
170
     0
171
     2
172
     1
173
     1
174
     0
175
     0
176
   256
177
   256
178
    40
  0
DIMSTYLE
  2
STANDARD
 70
     0
  3

  4

  5

  6

  7

 40
1.0
 41
0.18
 42
0.0625
 43
0.38
 44
0.18
 45
0.0
 46
0.0
 47
0.0
 48
0.0
140
0.18
141
0.09
142
0.0
143
25.399999999999999
144
1.0
145
0.0
146
1.0
147
0.09
 71
     0
 72
     0
 73
     1
 74
     1
 75
     0
 76
     0
 77
     0
 78
     0
170
     0
171
     2
172
     0
173
     0
174
     0
175
     0
176
     0
177
     0
178
     0
  0
ENDTAB
  0
ENDSEC
  0
SECTION
  2
BLOCKS
  0
BLOCK
  8
0
  2
$MODEL_SPACE
 70
     0
 10
0.0
 20
0.0
 30
0.0
  3
$MODEL_SPACE
  1

  0
ENDBLK
  5
1C
  8
0
  0
BLOCK
 67
     1
  8
0
  2
$PAPER_SPACE
 70
     0
 10
0.0
 20
0.0
 30
0.0
  3
$PAPER_SPACE
  1

  0
ENDBLK
  5
19
 67
     1
  8
0
  0
BLOCK
  8
0
  2
_OPEN
 70
     0
 10
0.0
 20
0.0
 30
0.0
  3
_OPEN
  1

  0
LINE
  5
4F5F
  8
0
  6
BYBLOCK
 62
     0
 10
-1.0
 20
0.1666666666666666
 30
0.0
 11
0.0
 21
0.0
 31
0.0
  0
LINE
  5
4F60
  8
0
  6
BYBLOCK
 62
     0
 10
-1.0
 20
-0.1666666666666666
 30
0.0
 11
0.0
 21
0.0
 31
0.0
  0
LINE
  5
4F61
  8
0
  6
BYBLOCK
 62
     0
 10
0.0
 20
0.0
 30
0.0
 11
-1.0
 21
0.0
 31
0.0
  0
ENDBLK
  5
4F62
  8
0
  0
BLOCK
  8
0
  2
GENAXEH
 70
     0
 10
0.0
 20
0.0
 30
0.0
  3
GENAXEH
  1

  0
LINE
  5
4F9A
  8
0
 10
-1.0
 20
0.0
 30
0.0
 11
1.0
 21
0.0
 31
0.0
  0
ENDBLK
  5
4F9B
  8
0
  0
BLOCK
  8
0
  2
_OPEN30
 70
     0
 10
0.0
 20
0.0
 30
0.0
  3
_OPEN30
  1

  0
LINE
  5
4FD6
  8
0
  6
BYBLOCK
 62
     0
 10
-1.0
 20
0.26794919
 30
0.0
 11
0.0
 21
0.0
 31
0.0
  0
LINE
  5
4FD7
  8
0
  6
BYBLOCK
 62
     0
 10
0.0
 20
0.0
 30
0.0
 11
-1.0
 21
-0.26794919
 31
0.0
  0
LINE
  5
4FD8
  8
0
  6
BYBLOCK
 62
     0
 10
0.0
 20
0.0
 30
0.0
 11
-1.0
 21
0.0
 31
0.0
  0
ENDBLK
  5
4FD9
  8
0
  0
ENDSEC
  0
SECTION
  2
ENTITIES
  0
LINE
  5
46D9
  8
245
  6
CENTER2
 10
-58.852423237434351
 20
0.0000000000026716
 30
0.0
 11
355.67870237174088
 21
0.0000000000026716
 31
0.0
  0
LINE
  5
46DA
  8
245
  6
CENTER2
 10
-56.943734872447102
 20
112.0
 30
0.0
 11
355.67870237174088
 21
112.0
 31
0.0
  0
LINE
  5
46DC
  8
245
  6
CENTER2
 10
-0.0000000000045191
 20
58.674005742550378
 30
0.0
 11
-0.0000000000045191
 21
-57.160313901186839
 31
0.0
  0
LINE
  5
46DD
  8
245
  6
CENTER2
 10
-0.0000000000042348
 20
124.0924692851252
 30
0.0
 11
-0.0000000000042348
 21
99.529422140724733
 31
0.0
  0
LINE
  5
46EB
  8
240
  6
CONTINUOUS
 10
-52.072248296093107
 20
122.0
 30
0.0
 11
52.072248296084631
 21
122.0
 31
0.0
  0
LINE
  5
46EC
  8
240
  6
CONTINUOUS
 10
-52.072248296093157
 20
102.0000000000001
 30
0.0
 11
52.072248296084688
 21
102.0000000000001
 31
0.0
  0
CIRCLE
  5
46EE
  8
241
  6
CONTINUOUS
 10
-0.0000000000045191
 20
0.0000000000026716
 30
0.0
 40
53.5
  0
ARC
  5
46EF
  8
240
  6
CONTINUOUS
 10
-0.0000000000045191
 20
0.0000000000026716
 30
0.0
 40
55.299999999999997
 50
46.800480176669218
 51
313.19951982333077
  0
ARC
  5
46F0
  8
240
  6
CONTINUOUS
 10
82.350281898627628
 20
87.695616031910546
 30
0.0
 40
65.0
 50
226.8004801766692
 51
261.00000000000131
1001
ASK_MEN_XD
1005
4750
1070
     1
1005
46EF
1070
     1
  0
ARC
  5
46F2
  8
241
  6
CONTINUOUS
 10
-0.0000000000045191
 20
0.0000000000026716
 30
0.0
 40
58.5
 50
345.01625852624142
 51
14.983741473758631
  0
ARC
  5
46F3
  8
241
  6
CONTINUOUS
 10
59.408952714922087
 20
15.900513743766171
 30
0.0
 40
3.0
 50
81.000000000001293
 51
194.98374147375861
1001
ASK_MEN_XD
1005
46F1
1070
     1
1005
4755
1070
     1
  0
ARC
  5
46F4
  8
241
  6
CONTINUOUS
 10
59.408952714922087
 20
-15.900513743760881
 30
0.0
 40
3.0
 50
165.01625852624181
 51
278.99999999999881
1001
ASK_MEN_XD
1005
4756
1070
     1
1005
46F1
1070
     1
  0
ARC
  5
46F8
  8
240
  6
CONTINUOUS
 10
26.62222222221806
 20
112.0
 30
0.0
 40
28.67777777777771
 50
342.54990138190948
 51
343.45515984455079
  0
ARC
  5
46F9
  8
240
  6
CONTINUOUS
 10
26.62222222221806
 20
112.0
 30
0.0
 40
28.67777777777771
 50
16.13403401196171
 51
17.450098618090522
  0
ARC
  5
46FA
  8
240
  6
CONTINUOUS
 10
55.611425836875831
 20
120.3859612086417
 30
0.0
 40
1.5
 50
196.13403401196169
 51
268.99999999999977
1001
ASK_MEN_XD
1005
46F9
1070
     1
1005
4742
1070
     1
  0
ARC
  5
46FB
  8
241
  6
CONTINUOUS
 10
-0.0000000000045475
 20
0.0000000000026148
 30
0.0
 40
54.393818869710209
 50
331.0414975535902
 51
26.118073606178349
  0
ARC
  5
4700
  8
240
  6
CONTINUOUS
 10
-26.622222222226561
 20
112.0
 30
0.0
 40
28.677777777777649
 50
162.54990138190939
 51
197.45009861809049
  0
LINE
  5
4701
  8
241
  6
CONTINUOUS
 10
349.96871942266699
 20
113.0000000000001
 30
0.0
 11
-55.282559594134753
 21
113.0
 31
0.0
  0
LINE
  5
4702
  8
241
  6
CONTINUOUS
 10
349.96871942266699
 20
111.0
 30
0.0
 11
-55.282559594134753
 21
110.9999999999999
 31
0.0
  0
ARC
  5
4703
  8
240
  6
CONTINUOUS
 10
52.072248296084631
 20
120.0
 30
0.0
 40
2.0
 50
17.450098618090522
 51
90.0
  0
ARC
  5
4704
  8
240
  6
CONTINUOUS
 10
52.072248296084688
 20
104.0000000000001
 30
0.0
 40
2.0
 50
270.0
 51
342.54990138190948
  0
ARC
  5
4705
  8
240
  6
CONTINUOUS
 10
-52.072248296093157
 20
104.0000000000001
 30
0.0
 40
2.0
 50
197.45009861809049
 51
270.0
  0
ARC
  5
4706
  8
240
  6
CONTINUOUS
 10
-52.072248296093129
 20
120.0
 30
0.0
 40
2.0
 50
90.0
 51
162.54990138190939
  0
LINE
  5
4709
  8
245
  6
CENTER2
 10
332.99999999999562
 20
19.800000000002679
 30
0.0
 11
332.99999999999562
 21
-19.79999999999734
 31
0.0
  0
LINE
  5
470D
  8
241
  6
CONTINUOUS
 10
134.99999999999551
 20
13.92940681683393
 30
0.0
 11
134.99999999999551
 21
-13.929406816828591
 31
0.0
  0
ARC
  5
4711
  8
240
  6
CONTINUOUS
 10
333.99999999999579
 20
112.0
 30
0.0
 40
16.0
 50
352.81924421854171
 51
7.1807557814582808
  0
ARC
  5
4712
  8
240
  6
CONTINUOUS
 10
345.90588089978638
 20
110.5
 30
0.0
 40
4.0
 50
270.0
 51
352.81924421854171
1001
ASK_MEN_XD
1005
4711
1070
     1
1005
4716
1070
     1
  0
ARC
  5
4713
  8
240
  6
CONTINUOUS
 10
345.90588089978638
 20
113.5
 30
0.0
 40
4.0
 50
7.1807557814582808
 51
90.0
1001
ASK_MEN_XD
1005
4714
1070
     1
1005
4711
1070
     1
  0
LINE
  5
4714
  8
240
  6
CONTINUOUS
 10
345.90588089978638
 20
117.5
 30
0.0
 11
135.8726867790717
 21
117.5
 31
0.0
  0
ARC
  5
4715
  8
240
  6
CONTINUOUS
 10
135.8726867790717
 20
217.5
 30
0.0
 40
100.0
 50
268.99999999999977
 51
270.0
1001
ASK_MEN_XD
1005
4742
1070
     1
1005
4714
1070
     1
  0
LINE
  5
4716
  8
240
  6
CONTINUOUS
 10
345.90588089978638
 20
106.5
 30
0.0
 11
135.87268677906999
 21
106.5
 31
0.0
  0
ARC
  5
4717
  8
240
  6
CONTINUOUS
 10
135.87268677906999
 20
6.5
 30
0.0
 40
100.0
 50
90.0
 51
91.000000000000128
1001
ASK_MEN_XD
1005
4745
1070
     1
1005
4716
1070
     1
  0
LINE
  5
4718
  8
240
  6
CONTINUOUS
 10
349.99999999999579
 20
111.17740096951199
 30
0.0
 11
349.61768705123819
 21
109.0091964938178
 31
0.0
  0
LINE
  5
4742
  8
240
  6
CONTINUOUS
 10
134.12744613534329
 20
117.5152304843608
 30
0.0
 11
55.585247227219917
 21
118.8861896659071
 31
0.0
  0
ARC
  5
4744
  8
240
  6
CONTINUOUS
 10
55.611425836875831
 20
103.6140387913582
 30
0.0
 40
1.5
 50
91.000000000000128
 51
163.86596598803831
1001
ASK_MEN_XD
1005
46F9
1070
     1
1005
4742
1070
     1
  0
LINE
  5
4745
  8
240
  6
CONTINUOUS
 10
134.12744613534159
 20
106.4847695156391
 30
0.0
 11
55.585247227219917
 21
105.1138103340928
 31
0.0
  0
LINE
  5
4746
  8
240
  6
CONTINUOUS
 10
54.112658798401611
 20
103.8335543152218
 30
0.0
 11
54.170504449549327
 21
104.0308667601236
 31
0.0
  0
ARC
  5
474C
  8
240
  6
CONTINUOUS
 10
332.99999999999562
 20
0.0000000000026716
 30
0.0
 40
17.0
 50
268.99999999999977
 51
91.000000000000128
  0
LINE
  5
474D
  8
240
  6
CONTINUOUS
 10
332.99999999999562
 20
17.00258957674907
 30
0.0
 11
143.74753385786519
 21
13.6991754924129
 31
0.0
  0
ARC
  5
474E
  8
240
  6
CONTINUOUS
 10
142.0022932141369
 20
113.68394500805201
 30
0.0
 40
100.0
 50
261.00000000000131
 51
271.00000000000011
1001
ASK_MEN_XD
1005
4750
1070
     1
1005
474D
1070
     1
  0
LINE
  5
474F
  8
240
  6
CONTINUOUS
 10
332.99999999999562
 20
-17.002589576743731
 30
0.0
 11
143.74753385786531
 21
-13.6991754924075
 31
0.0
  0
LINE
  5
4750
  8
240
  6
CONTINUOUS
 10
126.358846710116
 20
14.91511094853791
 30
0.0
 11
72.182041671014034
 21
23.49587389322636
 31
0.0
  0
ARC
  5
4751
  8
240
  6
CONTINUOUS
 10
82.350281898627628
 20
-87.695616031905217
 30
0.0
 40
65.0
 50
98.999999999998721
 51
133.1995198233308
1001
ASK_MEN_XD
1005
4750
1070
     1
1005
46EF
1070
     1
  0
ARC
  5
4752
  8
240
  6
CONTINUOUS
 10
142.0022932141369
 20
-113.68394500804671
 30
0.0
 40
100.0
 50
88.999999999999872
 51
98.999999999998721
1001
ASK_MEN_XD
1005
4750
1070
     1
1005
474D
1070
     1
  0
LINE
  5
4753
  8
240
  6
CONTINUOUS
 10
126.358846710116
 20
-14.91511094853257
 30
0.0
 11
72.182041671014034
 21
-23.49587389322102
 31
0.0
  0
LINE
  5
4755
  8
241
  6
CONTINUOUS
 10
118.2817534879387
 20
9.613373520359346
 30
0.0
 11
59.87825611004277
 21
18.863578765551662
 31
0.0
  0
LINE
  5
4756
  8
241
  6
CONTINUOUS
 10
118.2817534879387
 20
-9.6133735203541164
 30
0.0
 11
59.87825611004272
 21
-18.863578765546261
 31
0.0
  0
LINE
  5
4759
  8
241
  6
CONTINUOUS
 10
305.7966909094294
 20
10.02676391802544
 30
0.0
 11
154.25385240266081
 21
7.3815738324834106
 31
0.0
  0
LINE
  5
475A
  8
241
  6
CONTINUOUS
 10
305.79669090942917
 20
-10.02676391802021
 30
0.0
 11
154.2538524026607
 21
-7.3815738324780114
 31
0.0
  0
ARC
  5
475B
  8
241
  6
CONTINUOUS
 10
154.38269825317909
 20
0.0000000000027285
 30
0.0
 40
7.382698253183662
 50
91.000000000000128
 51
268.99999999999977
  0
CIRCLE
  5
475E
  8
241
  6
CONTINUOUS
 10
332.99999999999642
 20
0.000000000003979
 30
0.0
 40
10.0
  0
ARC
  5
4760
  8
241
  6
CONTINUOUS
 10
305.97170872463829
 20
0.0000000000026148
 30
0.0
 40
10.02829127535716
 50
268.99999999999977
 51
91.000000000000128
  0
ARC
  5
4763
  8
241
  6
CONTINUOUS
 10
-0.0000000000045759
 20
0.000000000002558
 30
0.0
 40
121.0
 50
356.76918126477921
 51
3.2308187352208808
  0
ARC
  5
4764
  8
241
  6
CONTINUOUS
 10
117.812450092818
 20
6.6503084985739056
 30
0.0
 40
3.0
 50
3.2308187352208808
 51
81.000000000001293
1001
ASK_MEN_XD
1005
4763
1070
     1
1005
4755
1070
     1
  0
ARC
  5
4765
  8
241
  6
CONTINUOUS
 10
117.8124500928181
 20
-6.6503084985686201
 30
0.0
 40
3.0
 50
278.99999999999881
 51
356.76918126477921
1001
ASK_MEN_XD
1005
4756
1070
     1
1005
4763
1070
     1
  0
POINT
  5
4769
  8
0
  6
CONTINUOUS
 62
     7
 10
63.351848990218372
 20
14.345833333335911
 30
0.0
 50
90.0
  0
POINT
  5
476A
  8
0
  6
CONTINUOUS
 62
     7
 10
72.751373034827878
 20
-0.3320418527866877
 30
0.0
 50
90.0
  0
POINT
  5
476B
  8
0
  6
CONTINUOUS
 62
     7
 10
71.238873034827876
 20
-0.3320418527866877
 30
0.0
 50
90.0
  0
POINT
  5
479B
  8
0
  6
CONTINUOUS
 62
     7
 10
88.069737784362488
 20
5.9337555752417179
 30
0.0
  0
POINT
  5
47DC
  8
0
  6
CONTINUOUS
 62
     7
 10
76.267929055831331
 20
-2.2499037870436491
 30
0.0
  0
POINT
  5
47DD
  8
0
  6
CONTINUOUS
 62
     7
 10
76.267929055831331
 20
-0.4499037868109213
 30
0.0
  0
POINT
  5
48C9
  8
0
  6
CONTINUOUS
 62
     7
 10
85.27411009923307
 20
-5.2977812667422191
 30
0.0
  0
POINT
  5
48F9
  8
0
  6
CONTINUOUS
 62
     7
 10
60.995943821345612
 20
-181.65416666666059
 30
0.0
 50
90.0
  0
POINT
  5
48FA
  8
0
  6
CONTINUOUS
 62
     7
 10
60.995943821338443
 20
-181.65416666666059
 30
0.0
 50
90.0
  0
POINT
  5
48FB
  8
0
  6
CONTINUOUS
 62
     7
 10
60.995943821338443
 20
-210.34583333333401
 30
0.0
 50
90.0
  0
POINT
  5
48FC
  8
0
  6
CONTINUOUS
 62
     7
 10
73.145467865947552
 20
-197.04295814721141
 30
0.0
 50
90.0
  0
POINT
  5
48FD
  8
0
  6
CONTINUOUS
 62
     7
 10
71.632967865947506
 20
-197.04295814721141
 30
0.0
 50
90.0
  0
LINE
  5
48FE
  8
241
  6
CONTINUOUS
 10
71.439468579145597
 20
-9.3788006547391376
 30
0.0
 11
74.593166043560387
 21
-7.002319157630466
 31
0.0
  0
LINE
  5
48FF
  8
241
  6
CONTINUOUS
 10
66.495943821337875
 20
-14.34583333333401
 30
0.0
 11
66.495943821337875
 21
-9.8541666666671972
 31
0.0
  0
LINE
  5
4900
  8
241
  6
CONTINUOUS
 10
70.83972577258524
 20
6.5042362294730358
 30
0.0
 11
72.31917401869552
 21
6.8187026618349194
 31
0.0
  0
LINE
  5
4901
  8
241
  6
CONTINUOUS
 10
60.995943821338152
 20
-14.34583333333401
 30
0.0
 11
66.495943821338045
 21
-14.34583333333401
 31
0.0
  0
LINE
  5
4902
  8
241
  6
CONTINUOUS
 10
72.738724858077347
 20
-6.5741876755960504
 30
0.0
 11
74.593166043558227
 21
-7.0023191576368333
 31
0.0
  0
LINE
  5
4903
  8
241
  6
CONTINUOUS
 10
69.646724993510162
 20
-5.860343259902975
 30
0.0
 11
71.260052972633986
 21
-6.2328093721355344
 31
0.0
  0
LINE
  5
4904
  8
241
  6
CONTINUOUS
 10
69.646724993515107
 20
-5.8603432598968928
 30
0.0
 11
71.439468579149121
 21
-9.3788006547390808
 31
0.0
  0
LINE
  5
4905
  8
241
  6
CONTINUOUS
 10
60.995943821338152
 20
-13.52083333333402
 30
0.0
 11
65.670943821337829
 21
-13.52083333333402
 31
0.0
  0
LINE
  5
4906
  8
241
  6
CONTINUOUS
 10
65.670943821337829
 20
-13.52083333333402
 30
0.0
 11
65.670943821337829
 21
-9.8541666666671972
 31
0.0
  0
LINE
  5
4907
  8
241
  6
CONTINUOUS
 10
65.670943821337829
 20
-9.8541666666671972
 30
0.0
 11
66.495943821337875
 21
-9.8541666666671972
 31
0.0
  0
LINE
  5
4908
  8
241
  6
CONTINUOUS
 10
60.995943821338152
 20
-14.34583333333401
 30
0.0
 11
60.995943821338152
 21
-13.52083333333402
 31
0.0
  0
LINE
  5
4909
  8
241
  6
CONTINUOUS
 10
60.995943821338152
 20
11.091666666666271
 30
0.0
 11
63.40856384354791
 21
11.091666666666271
 31
0.0
  0
LINE
  5
490A
  8
241
  6
CONTINUOUS
 10
60.995943821338152
 20
10.26666666666622
 30
0.0
 11
66.495943821338045
 21
10.26666666666622
 31
0.0
  0
LINE
  5
490B
  8
241
  6
CONTINUOUS
 10
63.395614660664563
 20
12.32939572310781
 30
0.0
 11
61.605194353828857
 21
14.290332249642089
 31
0.0
  0
LINE
  5
490C
  8
241
  6
CONTINUOUS
 10
63.40856384354791
 20
11.091666666666271
 30
0.0
 11
60.995943821338152
 21
13.73406002432446
 31
0.0
  0
LINE
  5
490D
  8
241
  6
CONTINUOUS
 10
63.952626956184453
 20
11.71933463753837
 30
0.0
 11
66.495943821338045
 21
13.811680287289249
 31
0.0
  0
LINE
  5
490E
  8
241
  6
CONTINUOUS
 10
63.395614660664563
 20
12.32939572310775
 30
0.0
 11
65.971806419766466
 21
14.448787016396549
 31
0.0
  0
LINE
  5
490F
  8
241
  6
CONTINUOUS
 10
66.495943821338045
 20
10.26666666666622
 30
0.0
 11
66.495943821338045
 21
11.091666666666271
 31
0.0
  0
LINE
  5
4910
  8
241
  6
CONTINUOUS
 10
60.995943821338152
 20
10.26666666666622
 30
0.0
 11
60.995943821338152
 21
11.091666666666271
 31
0.0
  0
LINE
  5
4911
  8
241
  6
CONTINUOUS
 10
65.971806419766466
 20
14.448787016396549
 30
0.0
 11
66.495943821338045
 21
13.811680287289249
 31
0.0
  0
LINE
  5
4912
  8
241
  6
CONTINUOUS
 10
60.995943821338152
 20
13.73406002432446
 30
0.0
 11
61.605194353828857
 21
14.290332249642089
 31
0.0
  0
LINE
  5
4913
  8
241
  6
CONTINUOUS
 10
64.525715103502449
 20
11.091666666666271
 30
0.0
 11
63.952626956184453
 21
11.71933463753837
 31
0.0
  0
LINE
  5
4914
  8
241
  6
CONTINUOUS
 10
64.525715103502449
 20
11.091666666666271
 30
0.0
 11
66.495943821338045
 21
11.091666666666271
 31
0.0
  0
LINE
  5
4915
  8
241
  6
CONTINUOUS
 10
63.241777154670977
 20
-6.417365030477157
 30
0.0
 11
64.250110488004523
 21
-6.417365030477157
 31
0.0
  0
LINE
  5
4916
  8
241
  6
CONTINUOUS
 10
63.241777154670977
 20
-1.925698363810511
 30
0.0
 11
64.250110488004523
 21
-1.925698363810511
 31
0.0
  0
LINE
  5
4917
  8
241
  6
CONTINUOUS
 10
63.241777154670977
 20
-5.5923650304771684
 30
0.0
 11
64.250110488004523
 21
-5.5923650304771684
 31
0.0
  0
LINE
  5
4918
  8
241
  6
CONTINUOUS
 10
63.241777154670977
 20
-2.7506983638105562
 30
0.0
 11
64.250110488004523
 21
-2.7506983638105562
 31
0.0
  0
LINE
  5
4919
  8
241
  6
CONTINUOUS
 10
63.241777154670977
 20
2.749650818094636
 30
0.0
 11
64.250110488004523
 21
2.749650818094636
 31
0.0
  0
LINE
  5
491A
  8
241
  6
CONTINUOUS
 10
63.241777154670977
 20
1.9246508180946471
 30
0.0
 11
64.250110488004523
 21
1.9246508180946471
 31
0.0
  0
LINE
  5
491B
  8
241
  6
CONTINUOUS
 10
62.87403842808785
 20
5.5429037629470201
 30
0.0
 11
62.660512715878241
 21
6.3397925696354767
 31
0.0
  0
LINE
  5
491C
  8
241
  6
CONTINUOUS
 10
64.617849214587721
 20
5.5429037629470201
 30
0.0
 11
64.831374926797281
 21
6.3397925696354767
 31
0.0
  0
ARC
  5
491D
  8
241
  6
CONTINUOUS
 10
35.332967865947268
 20
-1.0429581472113789
 30
0.0
 40
36.300000000000011
 50
351.78019184719892
 51
11.99999999999627
  0
ARC
  5
491E
  8
241
  6
CONTINUOUS
 10
35.332967865947268
 20
-1.0429581472113789
 30
0.0
 40
37.8125
 50
351.58856573578402
 51
11.99999999999627
  0
ARC
  5
491F
  8
241
  6
CONTINUOUS
 10
64.250110488004523
 20
-4.1715316971438483
 30
0.0
 40
2.2458333333333069
 50
270.0
 51
90.0
  0
ARC
  5
4920
  8
241
  6
CONTINUOUS
 10
63.241777154670977
 20
-4.1715316971438483
 30
0.0
 40
2.2458333333333069
 50
90.0
 51
270.0
  0
ARC
  5
4921
  8
241
  6
CONTINUOUS
 10
64.250110488004523
 20
-4.1715316971438483
 30
0.0
 40
1.420833333333307
 50
270.0
 51
90.0
  0
ARC
  5
4922
  8
241
  6
CONTINUOUS
 10
63.241777154670977
 20
-4.1715316971438483
 30
0.0
 40
1.420833333333307
 50
90.0
 51
270.0
  0
ARC
  5
4923
  8
241
  6
CONTINUOUS
 10
63.241777154670977
 20
4.170484151427984
 30
0.0
 40
1.420833333333307
 50
105.00000000000151
 51
270.0
  0
ARC
  5
4924
  8
241
  6
CONTINUOUS
 10
63.241777154670977
 20
4.170484151427984
 30
0.0
 40
2.2458333333333069
 50
105.00000000000151
 51
270.0
  0
ARC
  5
4925
  8
241
  6
CONTINUOUS
 10
64.250110488004523
 20
4.170484151427984
 30
0.0
 40
2.2458333333333069
 50
270.0
 51
74.999999999998494
  0
ARC
  5
4926
  8
241
  6
CONTINUOUS
 10
64.250110488004523
 20
4.170484151427984
 30
0.0
 40
1.420833333333307
 50
270.0
 51
74.999999999998494
  0
CIRCLE
  5
4985
  8
241
  6
CONTINUOUS
 10
-0.0000000000034674
 20
0.000000000002899
 30
0.0
 40
40.499999999999993
  0
CIRCLE
  5
4D8A
  8
246
  6
PHANTOM2
 10
-0.0000000000045191
 20
0.0000000000026787
 30
0.0
 40
40.0
  0
LINE
  5
4D8B
  8
246
  6
PHANTOM2
 10
-40.000000000004228
 20
122.0
 30
0.0
 11
-40.000000000004228
 21
102.0000000000001
 31
0.0
  0
LINE
  5
4D8C
  8
246
  6
PHANTOM2
 10
39.999999999995772
 20
122.0
 30
0.0
 11
39.999999999995772
 21
102.0000000000001
 31
0.0
  0
LINE
  5
4E57
  8
250
  6
CONTINUOUS
 10
-55.300000000004523
 20
0.5000000000026718
 30
0.0
 11
-55.300000000004509
 21
77.999999999999901
 31
0.0
  0
LINE
  5
4E58
  8
250
  6
CONTINUOUS
 10
349.99999999999562
 20
0.5000000000026718
 30
0.0
 11
349.99999999999562
 21
77.999999999999901
 31
0.0
  0
LINE
  5
4E59
  8
250
  6
CONTINUOUS
 10
-53.070000000004512
 20
76.999999999999901
 30
0.0
 11
347.7699999999956
 21
76.999999999999901
 31
0.0
  0
LINE
  5
4E5D
  8
250
  6
CONTINUOUS
 10
-0.000000000004519
 20
59.174005742550371
 30
0.0
 11
-0.0000000000045183
 21
71.0
 31
0.0
  0
LINE
  5
4E5E
  8
250
  6
CONTINUOUS
 10
349.99999999999562
 20
0.5000000000026718
 30
0.0
 11
349.99999999999562
 21
71.0
 31
0.0
  0
LINE
  5
4E5F
  8
250
  6
CONTINUOUS
 10
2.2299999999954809
 20
70.0
 30
0.0
 11
347.7699999999956
 21
70.0
 31
0.0
  0
LINE
  5
4E63
  8
250
  6
CONTINUOUS
 10
-55.300000000004523
 20
0.5000000000026718
 30
0.0
 11
-55.300000000004509
 21
71.0
 31
0.0
  0
LINE
  5
4E64
  8
250
  6
CONTINUOUS
 10
-0.000000000004519
 20
59.174005742550371
 30
0.0
 11
-0.0000000000045183
 21
71.0
 31
0.0
  0
LINE
  5
4E65
  8
250
  6
CONTINUOUS
 10
-53.070000000004512
 20
70.0
 30
0.0
 11
-2.2300000000045181
 21
70.0
 31
0.0
  0
LINE
  5
4E69
  8
250
  6
CONTINUOUS
 10
-40.000000000004228
 20
122.5
 30
0.0
 11
-40.000000000004228
 21
141.0
 31
0.0
  0
LINE
  5
4E6A
  8
250
  6
CONTINUOUS
 10
39.999999999995772
 20
122.5
 30
0.0
 11
39.999999999995772
 21
141.0
 31
0.0
  0
LINE
  5
4E6B
  8
250
  6
CONTINUOUS
 10
-37.770000000004238
 20
140.0
 30
0.0
 11
37.769999999995768
 21
140.0
 31
0.0
  0
TEXT
  5
4E6F
  8
250
  6
CONTINUOUS
 10
141.3499999999955
 20
77.999999999999915
 30
0.0
 40
2.7999999999999989
  1
405.3
  0
LINE
  5
4E70
  8
250
  6
CONTINUOUS
 10
347.7699999999956
 20
77.37166666666657
 30
0.0
 11
349.99999999999562
 21
76.999999999999901
 31
0.0
  0
LINE
  5
4E71
  8
250
  6
CONTINUOUS
 10
347.7699999999956
 20
76.628333333333231
 30
0.0
 11
349.99999999999562
 21
76.999999999999901
 31
0.0
  0
LINE
  5
4E72
  8
250
  6
CONTINUOUS
 10
349.99999999999562
 20
76.999999999999901
 30
0.0
 11
347.7699999999956
 21
76.999999999999901
 31
0.0
  0
LINE
  5
4E73
  8
250
  6
CONTINUOUS
 10
-53.070000000004512
 20
76.628333333333231
 30
0.0
 11
-55.300000000004509
 21
76.999999999999901
 31
0.0
  0
LINE
  5
4E74
  8
250
  6
CONTINUOUS
 10
-53.070000000004512
 20
77.37166666666657
 30
0.0
 11
-55.300000000004509
 21
76.999999999999901
 31
0.0
  0
LINE
  5
4E75
  8
250
  6
CONTINUOUS
 10
-55.300000000004509
 20
76.999999999999901
 30
0.0
 11
-53.070000000004512
 21
76.999999999999901
 31
0.0
  0
TEXT
  5
4E76
  8
250
  6
CONTINUOUS
 10
170.99999999999551
 20
71.000000000000014
 30
0.0
 40
2.7999999999999989
  1
350
  0
LINE
  5
4E77
  8
250
  6
CONTINUOUS
 10
347.7699999999956
 20
70.37166666666667
 30
0.0
 11
349.99999999999562
 21
70.0
 31
0.0
  0
LINE
  5
4E78
  8
250
  6
CONTINUOUS
 10
347.7699999999956
 20
69.62833333333333
 30
0.0
 11
349.99999999999562
 21
70.0
 31
0.0
  0
LINE
  5
4E79
  8
250
  6
CONTINUOUS
 10
349.99999999999562
 20
70.0
 30
0.0
 11
347.7699999999956
 21
70.0
 31
0.0
  0
LINE
  5
4E7A
  8
250
  6
CONTINUOUS
 10
2.2299999999954809
 20
69.62833333333333
 30
0.0
 11
-0.0000000000045184
 21
70.0
 31
0.0
  0
LINE
  5
4E7B
  8
250
  6
CONTINUOUS
 10
2.2299999999954809
 20
70.37166666666667
 30
0.0
 11
-0.0000000000045184
 21
70.0
 31
0.0
  0
LINE
  5
4E7C
  8
250
  6
CONTINUOUS
 10
-0.0000000000045184
 20
70.0
 30
0.0
 11
2.2299999999954809
 21
70.0
 31
0.0
  0
TEXT
  5
4E7D
  8
250
  6
CONTINUOUS
 10
-32.316666666671182
 20
71.000000000000014
 30
0.0
 40
2.7999999999999989
  1
55.3
  0
LINE
  5
4E7E
  8
250
  6
CONTINUOUS
 10
-2.2300000000045181
 20
70.37166666666667
 30
0.0
 11
-0.0000000000045184
 21
70.0
 31
0.0
  0
LINE
  5
4E7F
  8
250
  6
CONTINUOUS
 10
-2.2300000000045181
 20
69.62833333333333
 30
0.0
 11
-0.0000000000045184
 21
70.0
 31
0.0
  0
LINE
  5
4E80
  8
250
  6
CONTINUOUS
 10
-0.0000000000045184
 20
70.0
 30
0.0
 11
-2.2300000000045181
 21
70.0
 31
0.0
  0
LINE
  5
4E81
  8
250
  6
CONTINUOUS
 10
-53.070000000004512
 20
69.62833333333333
 30
0.0
 11
-55.300000000004509
 21
70.0
 31
0.0
  0
LINE
  5
4E82
  8
250
  6
CONTINUOUS
 10
-53.070000000004512
 20
70.37166666666667
 30
0.0
 11
-55.300000000004509
 21
70.0
 31
0.0
  0
LINE
  5
4E83
  8
250
  6
CONTINUOUS
 10
-55.300000000004509
 20
70.0
 30
0.0
 11
-53.070000000004512
 21
70.0
 31
0.0
  0
TEXT
  5
4E84
  8
250
  6
CONTINUOUS
 10
-3.933333333337568
 20
141.0
 30
0.0
 40
2.7999999999999989
  1
\U+220580
  0
LINE
  5
4E85
  8
250
  6
CONTINUOUS
 10
37.769999999995768
 20
140.37166666666661
 30
0.0
 11
39.999999999995772
 21
140.0
 31
0.0
  0
LINE
  5
4E86
  8
250
  6
CONTINUOUS
 10
37.769999999995768
 20
139.6283333333333
 30
0.0
 11
39.999999999995772
 21
140.0
 31
0.0
  0
LINE
  5
4E87
  8
250
  6
CONTINUOUS
 10
39.999999999995772
 20
140.0
 30
0.0
 11
37.769999999995768
 21
140.0
 31
0.0
  0
LINE
  5
4E88
  8
250
  6
CONTINUOUS
 10
-37.770000000004238
 20
139.6283333333333
 30
0.0
 11
-40.000000000004228
 21
140.0
 31
0.0
  0
LINE
  5
4E89
  8
250
  6
CONTINUOUS
 10
-37.770000000004238
 20
140.37166666666661
 30
0.0
 11
-40.000000000004228
 21
140.0
 31
0.0
  0
LINE
  5
4E8A
  8
250
  6
CONTINUOUS
 10
-40.000000000004228
 20
140.0
 30
0.0
 11
-37.770000000004238
 21
140.0
 31
0.0
  0
TEXT
  5
4EA3
  8
241
  6
CONTINUOUS
 10
-49.0
 20
154.0
 30
0.0
 40
4.0
  1
MGR80L
  7
YOKO
  0
VIEWPORT
  5
22
 67
     1
  8
0
 10
261.51769911504419
 20
148.5
 30
0.0
 40
523.0353982300885
 41
297.0
 68
     1
 69
     1
1001
ACAD
1000
MVIEW
1002
{
1070
    16
1010
0.0
1020
0.0
1030
0.0
1010
0.0
1020
0.0
1030
1.0
1040
0.0
1040
297.0
1040
261.51769911504419
1040
148.5
1040
50.0
1040
0.0
1040
0.0
1070
     0
1070
   100
1070
     1
1070
     1
1070
     0
1070
     0
1070
     0
1070
     0
1040
0.0
1040
0.0
1040
0.0
1040
1.0
1040
1.0
1040
10.0
1040
10.0
1070
     0
1002
{
1002
}
1002
}
1001
GENIUS_GENODEF_13
1002
{
1000
HIER
1070
     0
1002
}
1002
{
1000
MANEDIT
1070
     0
1002
}
1002
{
1000
NOSEL
1070
     0
1002
}
1002
{
1000
BEHIND
1070
     0
1002
}
1002
{
1000
OTHER
1070
     0
1002
}
1002
{
1000
REACTOR
1002
}
1001
GENIUS_GENOBJ-N-SDF_13
1002
{
1000
OWNER
1000
GEN
1002
}
1001
GENIUS_GENSCREG_15
1000
PF
1040
1.0
1000
DF
1040
1.0
1000
MIN
1011
0.0
1021
0.0
1031
0.0
1021
0.0
1031
0.0
1000
MAX
1011
523.0353982300885
1021
0.0
1031
0.0
1021
297.0
1031
0.0
1000
FLAGS
1070
     4
  0
ENDSEC
  0
EOF
