  0
SECTION
  2
HEADER
  9
$ACADVER
  1
AC1009
  9
$INSBASE
 10
0.0
 20
0.0
 30
0.0
  9
$EXTMIN
 10
-49.293444990781829
 20
-47.799999999999997
 30
0.0
  9
$EXTMAX
 10
345.95793072194181
 20
151.0
 30
0.0
  9
$LIMMIN
 10
0.0
 20
0.0
  9
$LIMMAX
 10
297.0
 20
210.0
  9
$ORTHOMODE
 70
     0
  9
$REGENMODE
 70
     1
  9
$FILLMODE
 70
     1
  9
$QTEXTMODE
 70
     0
  9
$MIRRTEXT
 70
     1
  9
$DRAGMODE
 70
     2
  9
$LTSCALE
 40
10.0
  9
$OSMODE
 70
    37
  9
$ATTMODE
 70
     1
  9
$TEXTSIZE
 40
4.0
  9
$TRACEWID
 40
1.0
  9
$TEXTSTYLE
  7
YOKO
  9
$CLAYER
  8
240
  9
$CELTYPE
  6
BYLAYER
  9
$CECOLOR
 62
   256
  9
$DIMSCALE
 40
1.0
  9
$DIMASZ
 40
2.2299999999999991
  9
$DIMEXO
 40
0.5
  9
$DIMDLI
 40
7.0
  9
$DIMRND
 40
0.0
  9
$DIMDLE
 40
0.0
  9
$DIMEXE
 40
1.0
  9
$DIMTP
 40
0.0
  9
$DIMTM
 40
0.01
  9
$DIMTXT
 40
2.7999999999999989
  9
$DIMCEN
 40
0.0
  9
$DIMTSZ
 40
0.0
  9
$DIMTOL
 70
     0
  9
$DIMLIM
 70
     0
  9
$DIMTIH
 70
     0
  9
$DIMTOH
 70
     0
  9
$DIMSE1
 70
     0
  9
$DIMSE2
 70
     0
  9
$DIMTAD
 70
     3
  9
$DIMZIN
 70
     9
  9
$DIMBLK
  1
OPEN
  9
$DIMASO
 70
     1
  9
$DIMSHO
 70
     1
  9
$DIMPOST
  1

  9
$DIMAPOST
  1

  9
$DIMALT
 70
     0
  9
$DIMALTD
 70
     2
  9
$DIMALTF
 40
25.399999999999999
  9
$DIMLFAC
 40
1.0
  9
$DIMTOFL
 70
     1
  9
$DIMTVP
 40
0.0
  9
$DIMTIX
 70
     1
  9
$DIMSOXD
 70
     0
  9
$DIMSAH
 70
     0
  9
$DIMBLK1
  1

  9
$DIMBLK2
  1

  9
$DIMSTYLE
  2
BIGT
  9
$DIMCLRD
 70
   256
  9
$DIMCLRE
 70
   256
  9
$DIMCLRT
 70
    40
  9
$DIMTFAC
 40
1.0
  9
$DIMGAP
 40
1.0
  9
$LUNITS
 70
     2
  9
$LUPREC
 70
     6
  9
$SKETCHINC
 40
1.0
  9
$FILLETRAD
 40
0.0
  9
$AUNITS
 70
     0
  9
$AUPREC
 70
     6
  9
$MENU
  1
.
  9
$ELEVATION
 40
0.0
  9
$PELEVATION
 40
0.0
  9
$THICKNESS
 40
0.0
  9
$LIMCHECK
 70
     0
  9
$BLIPMODE
 70
     0
  9
$CHAMFERA
 40
0.2
  9
$CHAMFERB
 40
0.2
  9
$SKPOLY
 70
     0
  9
$TDCREATE
 40
2459495.4566373611
  9
$TDUPDATE
 40
2459495.4702099878
  9
$TDINDWG
 40
0.0134720718
  9
$TDUSRTIMER
 40
0.013472037
  9
$USRTIMER
 70
     1
  9
$ANGBASE
 50
0.0
  9
$ANGDIR
 70
     0
  9
$PDMODE
 70
     1
  9
$PDSIZE
 40
0.0
  9
$PLINEWID
 40
0.0
  9
$COORDS
 70
     1
  9
$SPLFRAME
 70
     0
  9
$SPLINETYPE
 70
     6
  9
$SPLINESEGS
 70
     4
  9
$ATTDIA
 70
     1
  9
$ATTREQ
 70
     1
  9
$HANDLING
 70
     1
  9
$HANDSEED
  5
5107
  9
$SURFTAB1
 70
     6
  9
$SURFTAB2
 70
     6
  9
$SURFTYPE
 70
     6
  9
$SURFU
 70
     6
  9
$SURFV
 70
     6
  9
$UCSNAME
  2

  9
$UCSORG
 10
0.0
 20
0.0
 30
0.0
  9
$UCSXDIR
 10
1.0
 20
0.0
 30
0.0
  9
$UCSYDIR
 10
0.0
 20
1.0
 30
0.0
  9
$PUCSNAME
  2

  9
$PUCSORG
 10
0.0
 20
0.0
 30
0.0
  9
$PUCSXDIR
 10
1.0
 20
0.0
 30
0.0
  9
$PUCSYDIR
 10
0.0
 20
1.0
 30
0.0
  9
$USERI1
 70
     1
  9
$USERI2
 70
     0
  9
$USERI3
 70
     0
  9
$USERI4
 70
     0
  9
$USERI5
 70
     0
  9
$USERR1
 40
0.0
  9
$USERR2
 40
0.0
  9
$USERR3
 40
0.0
  9
$USERR4
 40
0.0
  9
$USERR5
 40
0.0
  9
$WORLDVIEW
 70
     1
  9
$SHADEDGE
 70
     3
  9
$SHADEDIF
 70
    70
  9
$TILEMODE
 70
     1
  9
$MAXACTVP
 70
    16
  9
$PLIMCHECK
 70
     0
  9
$PEXTMIN
 10
1.0000000000000000E+020
 20
1.0000000000000000E+020
 30
1.0000000000000000E+020
  9
$PEXTMAX
 10
-1.0000000000000000E+020
 20
-1.0000000000000000E+020
 30
-1.0000000000000000E+020
  9
$PLIMMIN
 10
0.0
 20
0.0
  9
$PLIMMAX
 10
420.0
 20
297.0
  9
$UNITMODE
 70
     0
  9
$VISRETAIN
 70
     1
  9
$PLINEGEN
 70
     0
  9
$PSLTSCALE
 70
     1
  0
ENDSEC
  0
SECTION
  2
TABLES
  0
TABLE
  2
VPORT
 70
     1
  0
VPORT
  2
*ACTIVE
 70
     0
 10
0.0
 20
0.0
 11
1.0
 21
1.0
 12
127.8559962678854
 22
29.587892198489929
 13
0.0
 23
0.0
 14
7.0
 24
7.0
 15
7.0
 25
7.0
 16
0.0
 26
0.0
 36
1.0
 17
0.0
 27
0.0
 37
0.0
 40
272.91590100102218
 41
1.7200474495848159
 42
50.0
 43
0.0
 44
0.0
 50
0.0
 51
0.0
 71
     0
 72
  2000
 73
     1
 74
     0
 75
     1
 76
     1
 77
     0
 78
     0
  0
ENDTAB
  0
TABLE
  2
LTYPE
 70
    18
  0
LTYPE
  2
CONTINUOUS
 70
     0
  3
Solid line
 72
    65
 73
     0
 40
0.0
  0
LTYPE
  2
CENTER2
 70
     0
  3
___ _ ___ _ ___ _ ___ _ ___ _ ___ _ ___ _ ___ _
 72
    65
 73
     4
 40
1.125
 49
0.75
 49
-0.125
 49
0.125
 49
-0.125
  0
LTYPE
  2
HIDDEN2
 70
     0
  3
_ _ _ _ _ _ _ _ _ _ _ _ _ _ _ _ _ _ _ _ _ _ _ _
 72
    65
 73
     2
 40
0.1875
 49
0.125
 49
-0.0625
  0
LTYPE
  2
PHANTOM2
 70
     0
  3
___ _ _ ___ _ _ ___ _ _ ___ _ _ ___ _ _ ___ _ _
 72
    65
 73
     6
 40
1.25
 49
0.625
 49
-0.125
 49
0.125
 49
-0.125
 49
0.125
 49
-0.125
  0
LTYPE
  2
AM_ISO02W050
 70
     0
  3
__ __ __ __ __ __ __ __ __ __ __ __ __ __ __
 72
    65
 73
     2
 40
7.5
 49
6.0
 49
-1.5
  0
LTYPE
  2
AMCONSTR
 70
     0
  3
_______________________
 72
    65
 73
     2
 40
9999.0
 49
9999.0
 49
0.0
  0
LTYPE
  2
ACISOWELD
 70
     0
  3
_ _ _ _ _
 72
    65
 73
     2
 40
2.0
 49
2.0
 49
-1.0
  0
LTYPE
  2
ACISOTGB
 70
     0
  3
__ . . __ . .
 72
    65
 73
     6
 40
9.0
 49
4.0
 49
-1.0
 49
1.0
 49
-1.0
 49
1.0
 49
-1.0
  0
LTYPE
  2
ACISOTGL
 70
     0
  3
_ _ _ _ _
 72
    65
 73
     2
 40
3.0
 49
2.0
 49
-1.0
  0
LTYPE
  2
ACJISTGB
 70
     0
  3
__ . . __ . .
 72
    65
 73
     6
 40
9.0
 49
4.0
 49
-1.0
 49
1.0
 49
-1.0
 49
1.0
 49
-1.0
  0
LTYPE
  2
ACJISTGL
 70
     0
  3
_ _ _ _ _
 72
    65
 73
     2
 40
3.0
 49
2.0
 49
-1.0
  0
ENDTAB
  0
TABLE
  2
LAYER
 70
    16
  0
LAYER
  2
0
 70
     0
 62
     7
  6
CONTINUOUS
  0
LAYER
  2
DEFPOINTS
 70
     0
 62
     7
  6
CONTINUOUS
  0
LAYER
  2
245
 70
     0
 62
     2
  6
CENTER2
  0
LAYER
  2
240
 70
     0
 62
     4
  6
CONTINUOUS
  0
LAYER
  2
241
 70
     0
 62
   211
  6
CONTINUOUS
  0
LAYER
  2
246
 70
     0
 62
     3
  6
PHANTOM2
  0
LAYER
  2
250
 70
     0
 62
     3
  6
CONTINUOUS
  0
ENDTAB
  0
TABLE
  2
STYLE
 70
     7
  0
STYLE
  2
STANDARD
 70
     0
 40
0.0
 41
1.0
 50
0.0
 71
     0
 42
3.0
  3
romans.shx
  4
extfont.shx
  0
STYLE
  2
ACISOTS
 70
     0
 40
1.0
 41
1.0
 50
0.0
 71
     0
 42
3.0
  3
amgdt.shx
  4
extfont.shx
  0
STYLE
  2
ACISOGDT
 70
     0
 40
0.0
 41
1.0
 50
0.0
 71
     0
 42
3.0
  3
amgdt.shx
  4
extfont.shx
  0
STYLE
  2
ACJISTS
 70
     0
 40
1.0
 41
1.0
 50
0.0
 71
     0
 42
3.0
  3
amgdt.shx
  4
extfont.shx
  0
STYLE
  2
ACJISGDT
 70
     0
 40
0.0
 41
1.0
 50
0.0
 71
     0
 42
3.0
  3
amgdt.shx
  4
extfont.shx
  0
STYLE
  2
YOKO
 70
     0
 40
0.0
 41
1.0
 50
0.0
 71
     0
 42
4.0
  3
romans.shx
  4
extfont.shx
  0
ENDTAB
  0
TABLE
  2
VIEW
 70
     0
  0
ENDTAB
  0
TABLE
  2
UCS
 70
     0
  0
ENDTAB
  0
TABLE
  2
APPID
 70
    42
  0
APPID
  2
ACAD
 70
     0
  0
APPID
  2
GLOBAL
 70
     0
  0
APPID
  2
DETAIL
 70
     0
  0
APPID
  2
GRPNAME
 70
     0
  0
APPID
  2
GPARA
 70
     0
  0
APPID
  2
MCAD_NO_VIS
 70
     0
  0
APPID
  2
ACAD_TEMP_GRAPHIC
 70
     0
  0
APPID
  2
ACATTRIBSERVICES
 70
     0
  0
APPID
  2
GENIUS_GENSCREG_15
 70
     0
  0
APPID
  2
GENIUS_GENODEF_13
 70
     0
  0
APPID
  2
GENIUS_GENOBJ-N-SDF_13
 70
     0
  0
APPID
  2
GENIUS_GENREC_14
 70
     0
  0
APPID
  2
GENIUS_GENOBJ-N-REC_13
 70
     0
  0
APPID
  2
GENIUS_GENDIMSH_14
 70
     0
  0
APPID
  2
GENIUS_GENOBJ-N-DIM_13
 70
     0
  0
APPID
  2
GENIUS_GENDIM_13
 70
     0
  0
APPID
  2
GENIUS_GENDTOL_13
 70
     0
  0
APPID
  2
GENIUS_GENOLIS_13
 70
     0
  0
APPID
  2
GENIUS_GENOENT_13
 70
     0
  0
APPID
  2
GENIUS_GENOBJ-F-FEM_13
 70
     0
  0
APPID
  2
GENIUS_GENOREF_13
 70
     0
  0
APPID
  2
GENIUS_GEFFEM_13
 70
     0
  0
APPID
  2
GENIUS_GEFFEMP_13
 70
     0
  0
APPID
  2
AD_DRAW
 70
     0
  0
APPID
  2
DESIGNERASSEMBLIES
 70
     0
  0
APPID
  2
ACADM_DIM_EDIT
 70
     0
  0
APPID
  2
AMDT_DM_ADJ
 70
     0
  0
APPID
  2
ITEMNAME
 70
     0
  0
APPID
  2
GENIUS_GENOBJ-N-FIL_13
 70
     0
  0
APPID
  2
GENIUS_GENFIL_13
 70
     0
  0
APPID
  2
GENIUS_GENOBJ-N-CHA_13
 70
     0
  0
APPID
  2
ACAD_NAV_VCDISPLAY
 70
     0
  0
APPID
  2
ACAECLAYERSTANDARD
 70
     0
  0
APPID
  2
LAYER_SCALE
 70
     0
  0
APPID
  2
ACAD_PSEXT
 70
     0
  0
APPID
  2
ASK_MEN_XD
 70
     0
  0
APPID
  2
ACAD_DSTYLE_DIMJAG
 70
     0
  0
APPID
  2
ACAD_DSTYLE_DIMTALN
 70
     0
  0
APPID
  2
ACAD_EXEMPT_FROM_CAD_STANDARDS
 70
     0
  0
APPID
  2
ACAD_DSTYLE_DIMINSPECT
 70
     0
  0
APPID
  2
ACAD_DSTYLE_DIMRADIAL_EXTENSION
 70
     0
  0
APPID
  2
ACAD_MLEADERVER
 70
     0
  0
ENDTAB
  0
TABLE
  2
DIMSTYLE
 70
    27
  0
DIMSTYLE
  2
BIGT
 70
     0
  3

  4

  5
OPEN
  6

  7

 40
1.0
 41
2.2299999999999991
 42
0.5
 43
7.0
 44
1.0
 45
0.0
 46
0.0
 47
0.0
 48
0.01
140
2.7999999999999989
141
0.0
142
0.0
143
25.399999999999999
144
1.0
145
0.0
146
1.0
147
1.0
 71
     0
 72
     0
 73
     0
 74
     0
 75
     0
 76
     0
 77
     3
 78
     9
170
     0
171
     2
172
     1
173
     0
174
     1
175
     0
176
   256
177
   256
178
    40
  0
DIMSTYLE
  2
AM_ISO
 70
     0
  3

  4
"
  5

  6

  7

 40
1.0
 41
2.5
 42
1.0
 43
10.0
 44
1.0
 45
0.0
 46
0.0
 47
0.1
 48
0.1
140
3.5
141
0.0
142
0.0
143
0.0393701
144
1.0
145
0.0
146
0.71
147
1.5
 71
     0
 72
     0
 73
     0
 74
     0
 75
     0
 76
     0
 77
     1
 78
     8
170
     0
171
     2
172
     1
173
     0
174
     0
175
     0
176
   256
177
   256
178
     2
  0
DIMSTYLE
  2
AM_ISO$3
 70
     0
  3

  4
"
  5

  6

  7

 40
1.0
 41
2.5
 42
1.0
 43
10.0
 44
1.0
 45
0.0
 46
0.0
 47
0.1
 48
0.1
140
3.5
141
0.0
142
0.0
143
0.0393701
144
1.0
145
0.0
146
0.71
147
1.5
 71
     0
 72
     0
 73
     0
 74
     1
 75
     0
 76
     0
 77
     1
 78
     8
170
     0
171
     2
172
     0
173
     0
174
     0
175
     0
176
   256
177
   256
178
     2
  0
DIMSTYLE
  2
AM_ISO$4
 70
     0
  3

  4
"
  5

  6

  7

 40
1.0
 41
2.5
 42
1.0
 43
10.0
 44
1.0
 45
0.0
 46
0.0
 47
0.1
 48
0.1
140
3.5
141
0.0
142
0.0
143
0.0393701
144
1.0
145
0.0
146
0.71
147
1.5
 71
     0
 72
     0
 73
     0
 74
     1
 75
     0
 76
     0
 77
     1
 78
     8
170
     0
171
     2
172
     0
173
     0
174
     0
175
     0
176
   256
177
   256
178
     2
  0
DIMSTYLE
  2
AM_ISO$6
 70
     0
  3

  4
"
  5

  6

  7

 40
1.0
 41
2.5
 42
1.0
 43
10.0
 44
1.0
 45
0.0
 46
0.0
 47
0.1
 48
0.1
140
3.5
141
0.0
142
0.0
143
0.0393701
144
1.0
145
0.0
146
0.71
147
1.5
 71
     0
 72
     0
 73
     0
 74
     0
 75
     0
 76
     0
 77
     0
 78
     8
170
     0
171
     2
172
     1
173
     0
174
     0
175
     0
176
   256
177
   256
178
     2
  0
DIMSTYLE
  2
AM_ISO$7
 70
     0
  3

  4
"
  5

  6

  7

 40
1.0
 41
2.5
 42
1.0
 43
10.0
 44
1.0
 45
0.0
 46
0.0
 47
0.1
 48
0.1
140
5.0
141
0.0
142
0.0
143
0.0393701
144
1.0
145
0.0
146
0.71
147
1.5
 71
     0
 72
     0
 73
     0
 74
     0
 75
     0
 76
     0
 77
     1
 78
     8
170
     0
171
     2
172
     1
173
     0
174
     0
175
     0
176
   256
177
   256
178
     2
  0
DIMSTYLE
  2
AM_ISO$SF
 70
     0
  3

  4
"
  5

  6

  7

 40
1.0
 41
2.5
 42
1.0
 43
10.0
 44
1.0
 45
0.0
 46
0.0
 47
0.1
 48
0.1
140
3.5
141
0.0
142
0.0
143
0.0393701
144
1.0
145
0.0
146
0.71
147
1.5
 71
     0
 72
     0
 73
     0
 74
     0
 75
     1
 76
     1
 77
     1
 78
     8
170
     0
171
     2
172
     1
173
     0
174
     0
175
     0
176
   256
177
   256
178
     2
  0
DIMSTYLE
  2
AM_ISO$SH
 70
     0
  3

  4
"
  5

  6
GENAXEH
  7

 40
1.0
 41
2.5
 42
1.0
 43
10.0
 44
1.0
 45
0.0
 46
0.0
 47
0.1
 48
0.1
140
3.5
141
0.0
142
0.0
143
0.0393701
144
2.0
145
0.0
146
0.71
147
1.5
 71
     0
 72
     0
 73
     0
 74
     0
 75
     1
 76
     1
 77
     1
 78
     8
170
     0
171
     2
172
     1
173
     1
174
     0
175
     0
176
   256
177
   256
178
     2
  0
DIMSTYLE
  2
BIGT$2
 70
     0
  3

  4

  5
OPEN
  6

  7

 40
1.0
 41
2.2299999999999991
 42
0.5
 43
7.0
 44
1.0
 45
0.0
 46
0.0
 47
0.0
 48
0.01
140
2.7999999999999989
141
0.0
142
0.0
143
25.399999999999999
144
1.0
145
0.0
146
1.0
147
1.0
 71
     0
 72
     0
 73
     0
 74
     0
 75
     0
 76
     0
 77
     3
 78
     9
170
     0
171
     2
172
     1
173
     0
174
     0
175
     0
176
   256
177
   256
178
    40
  0
DIMSTYLE
  2
BIGT$3
 70
     0
  3

  4

  5
OPEN
  6

  7

 40
1.0
 41
2.2299999999999991
 42
0.5
 43
2.5
 44
1.0
 45
0.0
 46
0.0
 47
0.0
 48
0.01
140
2.7999999999999989
141
0.0
142
0.0
143
25.399999999999999
144
1.0
145
0.0
146
1.0
147
1.0
 71
     0
 72
     0
 73
     0
 74
     0
 75
     0
 76
     0
 77
     3
 78
     9
170
     0
171
     2
172
     1
173
     0
174
     0
175
     0
176
   256
177
   256
178
    40
  0
DIMSTYLE
  2
BIGT$7
 70
     0
  3

  4

  5
OPEN
  6

  7

 40
0.0
 41
2.2299999999999991
 42
0.5
 43
7.0
 44
1.0
 45
0.0
 46
0.0
 47
0.0
 48
0.01
140
2.7999999999999989
141
0.0
142
0.0
143
25.399999999999999
144
1.0
145
0.0
146
1.0
147
1.0
 71
     0
 72
     0
 73
     0
 74
     0
 75
     0
 76
     0
 77
     3
 78
     9
170
     0
171
     2
172
     0
173
     0
174
     0
175
     0
176
   256
177
   256
178
    40
  0
DIMSTYLE
  2
BIGT$6
 70
     0
  3

  4

  5
OPEN
  6

  7

 40
1.0
 41
2.2299999999999991
 42
0.5
 43
2.5
 44
1.0
 45
0.0
 46
0.0
 47
0.0
 48
0.01
140
2.7999999999999989
141
0.0
142
0.0
143
25.399999999999999
144
1.0
145
0.0
146
1.0
147
1.0
 71
     0
 72
     0
 73
     0
 74
     0
 75
     0
 76
     0
 77
     3
 78
     9
170
     0
171
     2
172
     1
173
     0
174
     0
175
     0
176
   256
177
   256
178
    40
  0
DIMSTYLE
  2
BIGT$0
 70
     0
  3

  4

  5
OPEN
  6

  7

 40
1.0
 41
2.2299999999999991
 42
0.5
 43
7.0
 44
1.0
 45
0.0
 46
0.0
 47
0.0
 48
0.01
140
2.7999999999999989
141
0.0
142
0.0
143
25.399999999999999
144
1.0
145
0.0
146
1.0
147
1.0
 71
     0
 72
     0
 73
     0
 74
     0
 75
     0
 76
     0
 77
     3
 78
     9
170
     0
171
     2
172
     1
173
     0
174
     1
175
     0
176
   256
177
   256
178
    40
  0
DIMSTYLE
  2
BIGT$4
 70
     0
  3

  4

  5
OPEN
  6

  7

 40
1.0
 41
2.2299999999999991
 42
0.5
 43
2.5
 44
1.0
 45
0.0
 46
0.0
 47
0.0
 48
0.01
140
2.7999999999999989
141
0.0
142
0.0
143
25.399999999999999
144
1.0
145
0.0
146
1.0
147
1.0
 71
     0
 72
     0
 73
     0
 74
     0
 75
     0
 76
     0
 77
     3
 78
     9
170
     0
171
     2
172
     1
173
     0
174
     0
175
     0
176
   256
177
   256
178
    40
  0
DIMSTYLE
  2
BIGT$SH
 70
     0
  3

  4

  5
OPEN
  6

  7

 40
1.0
 41
2.2299999999999991
 42
0.5
 43
7.0
 44
1.0
 45
0.0
 46
0.0
 47
0.0
 48
0.0
140
2.7999999999999989
141
0.0
142
0.0
143
25.399999999999999
144
1.0
145
0.0
146
1.0
147
1.0
 71
     0
 72
     0
 73
     0
 74
     0
 75
     0
 76
     0
 77
     3
 78
     9
170
     0
171
     2
172
     1
173
     0
174
     0
175
     0
176
   256
177
   256
178
    40
  0
DIMSTYLE
  2
BIGT$SF
 70
     0
  3

  4

  5
OPEN
  6

  7

 40
1.0
 41
2.2299999999999991
 42
0.5
 43
7.0
 44
1.0
 45
0.0
 46
0.0
 47
0.0
 48
0.0
140
2.7999999999999989
141
0.0
142
0.0
143
25.399999999999999
144
1.0
145
0.0
146
1.0
147
1.0
 71
     0
 72
     0
 73
     0
 74
     0
 75
     0
 76
     0
 77
     3
 78
     9
170
     0
171
     2
172
     1
173
     0
174
     0
175
     0
176
   256
177
   256
178
    40
  0
DIMSTYLE
  2
TECHNICAL_OSAKA
 70
     0
  3

  4
"
  5
OPEN30
  6

  7

 40
1.0
 41
2.5
 42
1.0
 43
10.0
 44
1.0
 45
0.0
 46
0.0
 47
0.1
 48
0.1
140
2.7999999999999989
141
0.0
142
0.0
143
0.0393701
144
1.0
145
0.0
146
0.71
147
1.5
 71
     0
 72
     0
 73
     0
 74
     0
 75
     0
 76
     0
 77
     3
 78
     8
170
     0
171
     2
172
     1
173
     0
174
     0
175
     0
176
   256
177
   256
178
    40
  0
DIMSTYLE
  2
TECHNICAL_OSAKA$3
 70
     0
  3

  4
"
  5
OPEN30
  6

  7

 40
1.0
 41
2.5
 42
1.0
 43
10.0
 44
1.0
 45
0.0
 46
0.0
 47
0.1
 48
0.1
140
2.7999999999999989
141
0.0
142
0.0
143
0.0393701
144
1.0
145
0.0
146
0.71
147
1.5
 71
     0
 72
     0
 73
     0
 74
     1
 75
     0
 76
     0
 77
     3
 78
     8
170
     0
171
     2
172
     0
173
     0
174
     0
175
     0
176
   256
177
   256
178
    40
  0
DIMSTYLE
  2
TECHNICAL_OSAKA$4
 70
     0
  3

  4
"
  5
OPEN30
  6

  7

 40
1.0
 41
2.5
 42
1.0
 43
10.0
 44
1.0
 45
0.0
 46
0.0
 47
0.1
 48
0.1
140
2.7999999999999989
141
0.0
142
0.0
143
0.0393701
144
1.0
145
0.0
146
0.71
147
1.5
 71
     0
 72
     0
 73
     0
 74
     1
 75
     0
 76
     0
 77
     3
 78
     8
170
     0
171
     2
172
     0
173
     0
174
     0
175
     0
176
   256
177
   256
178
    40
  0
DIMSTYLE
  2
TECHNICAL_OSAKA$6
 70
     0
  3

  4
"
  5
OPEN30
  6

  7

 40
1.0
 41
2.5
 42
1.0
 43
10.0
 44
1.0
 45
0.0
 46
0.0
 47
0.1
 48
0.1
140
2.7999999999999989
141
0.0
142
0.0
143
0.0393701
144
1.0
145
0.0
146
0.71
147
1.5
 71
     0
 72
     0
 73
     0
 74
     0
 75
     0
 76
     0
 77
     0
 78
     8
170
     0
171
     2
172
     1
173
     0
174
     0
175
     0
176
   256
177
   256
178
    40
  0
DIMSTYLE
  2
TECHNICAL_OSAKA$7
 70
     0
  3

  4
"
  5
OPEN30
  6

  7

 40
1.0
 41
2.5
 42
1.0
 43
10.0
 44
1.0
 45
0.0
 46
0.0
 47
0.1
 48
0.1
140
2.7999999999999989
141
0.0
142
0.0
143
0.0393701
144
1.0
145
0.0
146
0.71
147
1.5
 71
     0
 72
     0
 73
     0
 74
     0
 75
     0
 76
     0
 77
     3
 78
     8
170
     0
171
     2
172
     1
173
     0
174
     0
175
     0
176
   256
177
   256
178
    40
  0
DIMSTYLE
  2
TECHNICAL_OSAKA$SF
 70
     0
  3

  4
"
  5
OPEN30
  6
OPEN30
  7
OPEN30
 40
1.0
 41
2.5
 42
1.0
 43
10.0
 44
1.0
 45
0.0
 46
0.0
 47
0.1
 48
0.1
140
3.5
141
0.0
142
0.0
143
0.0393701
144
1.0
145
0.0
146
0.71
147
1.5
 71
     0
 72
     0
 73
     0
 74
     0
 75
     1
 76
     1
 77
     3
 78
     8
170
     0
171
     2
172
     1
173
     0
174
     0
175
     0
176
   256
177
   256
178
    40
  0
DIMSTYLE
  2
TECHNICAL_OSAKA$SH
 70
     0
  3

  4
"
  5
OPEN30
  6
GENAXEH
  7
OPEN30
 40
1.0
 41
2.5
 42
1.0
 43
10.0
 44
1.0
 45
0.0
 46
0.0
 47
0.1
 48
0.1
140
3.5
141
0.0
142
0.0
143
0.0393701
144
2.0
145
0.0
146
0.71
147
1.5
 71
     0
 72
     0
 73
     0
 74
     0
 75
     1
 76
     1
 77
     3
 78
     8
170
     0
171
     2
172
     1
173
     1
174
     0
175
     0
176
   256
177
   256
178
    40
  0
DIMSTYLE
  2
STANDARD
 70
     0
  3

  4

  5

  6

  7

 40
1.0
 41
0.18
 42
0.0625
 43
0.38
 44
0.18
 45
0.0
 46
0.0
 47
0.0
 48
0.0
140
0.18
141
0.09
142
0.0
143
25.399999999999999
144
1.0
145
0.0
146
1.0
147
0.09
 71
     0
 72
     0
 73
     1
 74
     1
 75
     0
 76
     0
 77
     0
 78
     0
170
     0
171
     2
172
     0
173
     0
174
     0
175
     0
176
     0
177
     0
178
     0
  0
ENDTAB
  0
ENDSEC
  0
SECTION
  2
BLOCKS
  0
BLOCK
  8
0
  2
$MODEL_SPACE
 70
     0
 10
0.0
 20
0.0
 30
0.0
  3
$MODEL_SPACE
  1

  0
ENDBLK
  5
1C
  8
0
  0
BLOCK
 67
     1
  8
0
  2
$PAPER_SPACE
 70
     0
 10
0.0
 20
0.0
 30
0.0
  3
$PAPER_SPACE
  1

  0
ENDBLK
  5
19
 67
     1
  8
0
  0
BLOCK
  8
0
  2
_OPEN
 70
     0
 10
0.0
 20
0.0
 30
0.0
  3
_OPEN
  1

  0
LINE
  5
4EA1
  8
0
  6
BYBLOCK
 62
     0
 10
-1.0
 20
0.1666666666666666
 30
0.0
 11
0.0
 21
0.0
 31
0.0
  0
LINE
  5
4EA2
  8
0
  6
BYBLOCK
 62
     0
 10
-1.0
 20
-0.1666666666666666
 30
0.0
 11
0.0
 21
0.0
 31
0.0
  0
LINE
  5
4EA3
  8
0
  6
BYBLOCK
 62
     0
 10
0.0
 20
0.0
 30
0.0
 11
-1.0
 21
0.0
 31
0.0
  0
ENDBLK
  5
4EA4
  8
0
  0
BLOCK
  8
0
  2
GENAXEH
 70
     0
 10
0.0
 20
0.0
 30
0.0
  3
GENAXEH
  1

  0
LINE
  5
4EDC
  8
0
 10
-1.0
 20
0.0
 30
0.0
 11
1.0
 21
0.0
 31
0.0
  0
ENDBLK
  5
4EDD
  8
0
  0
BLOCK
  8
0
  2
_OPEN30
 70
     0
 10
0.0
 20
0.0
 30
0.0
  3
_OPEN30
  1

  0
LINE
  5
4F18
  8
0
  6
BYBLOCK
 62
     0
 10
-1.0
 20
0.26794919
 30
0.0
 11
0.0
 21
0.0
 31
0.0
  0
LINE
  5
4F19
  8
0
  6
BYBLOCK
 62
     0
 10
0.0
 20
0.0
 30
0.0
 11
-1.0
 21
-0.26794919
 31
0.0
  0
LINE
  5
4F1A
  8
0
  6
BYBLOCK
 62
     0
 10
0.0
 20
0.0
 30
0.0
 11
-1.0
 21
0.0
 31
0.0
  0
ENDBLK
  5
4F1B
  8
0
  0
BLOCK
  8
0
  2
*U115
 70
     1
 10
0.0
 20
0.0
 30
0.0
  3
*U115
  1

  0
TEXT
  5
4F8F
  8
250
 62
    40
 10
540.88333333333424
 20
260.0
 30
0.0
 40
2.7999999999999989
  1
16.5
  7
YOKO
  0
ENDBLK
  5
4F91
  8
0
  0
BLOCK
  8
0
  2
*U116
 70
     1
 10
0.0
 20
0.0
 30
0.0
  3
*U116
  1

  0
TEXT
  5
4F93
  8
250
 62
    40
 10
374.75000000000091
 20
260.0
 30
0.0
 40
2.7999999999999989
  1
313.5
  7
YOKO
  0
ENDBLK
  5
4F95
  8
0
  0
BLOCK
  8
0
  2
*U117
 70
     1
 10
0.0
 20
0.0
 30
0.0
  3
*U117
  1

  0
TEXT
  5
4F97
  8
250
 62
    40
 10
195.43333333333419
 20
260.0
 30
0.0
 40
2.7999999999999989
  1
47.8
  7
YOKO
  0
ENDBLK
  5
4F99
  8
0
  0
BLOCK
  8
0
  2
*U118
 70
     1
 10
0.0
 20
0.0
 30
0.0
  3
*U118
  1

  0
TEXT
  5
4F9B
  8
250
 62
    40
 10
356.98793333333418
 20
253.0
 30
0.0
 40
2.7999999999999989
  1
377.8
  7
YOKO
  0
TEXT
  5
4F9C
  8
250
 62
    40
 10
368.9879333333343
 20
253.4661999999999
 30
0.0
 40
1.867599999999999
  1
\U+00B12
  7
YOKO
  0
ENDBLK
  5
4F9E
  8
0
  0
BLOCK
  8
0
  2
*U119
 70
     1
 10
0.0
 20
0.0
 30
0.0
  3
*U119
  1

  0
TEXT
  5
4FA0
  8
250
 62
    40
 10
284.80000000000081
 20
266.99999999999989
 30
0.0
 40
2.7999999999999989
  1
130
  7
YOKO
  0
ENDBLK
  5
4FA2
  8
0
  0
BLOCK
  8
0
  2
*U120
 70
     1
 10
0.0
 20
0.0
 30
0.0
  3
*U120
  1

  0
TEXT
  5
4FA4
  8
250
 62
    40
 10
526.13333333333435
 20
379.0
 30
0.0
 40
2.7999999999999989
  1
17
  7
YOKO
  0
ENDBLK
  5
4FA6
  8
0
  0
BLOCK
  8
0
  2
*U121
 70
     1
 10
0.0
 20
0.0
 30
0.0
  3
*U121
  1

  0
TEXT
  5
4FA8
  8
250
 62
    40
 10
439.2333333333342
 20
379.0
 30
0.0
 40
2.7999999999999989
  1
154
  7
YOKO
  0
ENDBLK
  5
4FAA
  8
0
  0
BLOCK
  8
0
  2
*U122
 70
     1
 10
0.0
 20
0.0
 30
0.0
  3
*U122
  1

  0
TEXT
  5
4FAC
  8
250
 62
    40
 10
282.39692813352508
 20
379.0
 30
0.0
 40
2.7999999999999989
  1
142.5
  7
YOKO
  0
ENDBLK
  5
4FAE
  8
0
  0
BLOCK
  8
0
  2
*U123
 70
     1
 10
0.0
 20
0.0
 30
0.0
  3
*U123
  1

  0
TEXT
  5
4FB0
  8
250
 62
    40
 10
158.9891949032031
 20
207.206943962249
 30
0.0
 40
2.7999999999999989
  1
20
 50
90.0
  7
YOKO
  0
TEXT
  5
4FB1
  8
250
 62
    40
 10
157.27792823653641
 20
212.18454396224899
 30
0.0
 40
1.867599999999999
  1
+0.5
 50
90.0
  7
YOKO
  0
TEXT
  5
4FB2
  8
250
 62
    40
 10
159.7680615698697
 20
212.5402772955824
 30
0.0
 40
1.867599999999999
  1
 0
 50
90.0
  7
YOKO
  0
ENDBLK
  5
4FB4
  8
0
  0
BLOCK
  8
0
  2
*U124
 70
     1
 10
0.0
 20
0.0
 30
0.0
  3
*U124
  1

  0
TEXT
  5
4FB6
  8
250
 62
    40
 10
240.6734438691378
 20
318.6660554205979
 30
0.0
 40
2.7999999999999989
  1
R51
 50
9.0424251529934772
  7
YOKO
  0
ENDBLK
  5
4FB8
  8
0
  0
BLOCK
  8
0
  2
*U125
 70
     1
 10
0.0
 20
0.0
 30
0.0
  3
*U125
  1

  0
TEXT
  5
4FBA
  8
250
 62
    40
 10
171.07080425230859
 20
229.9034242779872
 30
0.0
 40
2.7999999999999989
  1
R2
 50
318.3832788366459
  7
YOKO
  0
ENDBLK
  5
4FBC
  8
0
  0
BLOCK
  8
0
  2
*U126
 70
     1
 10
0.0
 20
0.0
 30
0.0
  3
*U126
  1

  0
TEXT
  5
4FBE
  8
250
 62
    40
 10
171.0045319430867
 20
196.44389057264331
 30
0.0
 40
2.7999999999999989
  1
R2
 50
50.656647173124647
  7
YOKO
  0
ENDBLK
  5
4FC0
  8
0
  0
BLOCK
  8
0
  2
*U127
 70
     1
 10
0.0
 20
0.0
 30
0.0
  3
*U127
  1

  0
TEXT
  5
4FC2
  8
250
 62
    40
 10
568.53691520680127
 20
312.33333333333331
 30
0.0
 40
2.7999999999999989
  1
33
 50
90.0
  7
YOKO
  0
ENDBLK
  5
4FC4
  8
0
  0
BLOCK
  8
0
  2
*U128
 70
     1
 10
0.0
 20
0.0
 30
0.0
  3
*U128
  1

  0
TEXT
  5
4FC6
  8
250
 62
    40
 10
565.30769021347305
 20
335.53696593601973
 30
0.0
 40
2.7999999999999989
  1
1\U+00B0
 50
274.24972954708591
  7
YOKO
  0
ENDBLK
  5
4FC8
  8
0
  0
BLOCK
  8
0
  2
*U129
 70
     1
 10
0.0
 20
0.0
 30
0.0
  3
*U129
  1

  0
TEXT
  5
4FCA
  8
240
 62
    40
 10
563.78118040308095
 20
301.12532726183019
 30
0.0
 40
2.7999999999999989
  1
1\U+00B0
 50
271.2834667198573
  7
YOKO
  0
ENDBLK
  5
4FCC
  8
0
  0
BLOCK
  8
0
  2
*U130
 70
     1
 10
0.0
 20
0.0
 30
0.0
  3
*U130
  1

  0
TEXT
  5
4FCE
  8
250
 62
    40
 10
246.7412203455157
 20
311.37309589958772
 30
0.0
 40
2.7999999999999989
  1
R112
 50
348.4496386225984
  7
YOKO
  0
ENDBLK
  5
4FD0
  8
0
  0
BLOCK
  8
0
  2
*U131
 70
     1
 10
0.0
 20
0.0
 30
0.0
  3
*U131
  1

  0
TEXT
  5
4FD2
  8
250
 62
    40
 10
548.73846095186605
 20
196.25811470846509
 30
0.0
 40
2.7999999999999989
  1
10\U+00B0
 50
353.4669493059443
  7
YOKO
  0
ENDBLK
  5
4FD4
  8
0
  0
BLOCK
  8
0
  2
*U132
 70
     1
 10
0.0
 20
0.0
 30
0.0
  3
*U132
  1

  0
TEXT
  5
4FD6
  8
250
 62
    40
 10
520.3266666666666
 20
235.8774028915841
 30
0.0
 40
2.7999999999999989
  1
鍛造後ドリル加工\U+220520
  7
YOKO
  0
ENDBLK
  5
4FD8
  8
0
  0
BLOCK
  8
0
  2
*U133
 70
     1
 10
0.0
 20
0.0
 30
0.0
  3
*U133
  1

  0
TEXT
  5
4FDA
  8
250
 62
    40
 10
529.58842313169976
 20
221.77484619128259
 30
0.0
 40
2.7999999999999989
  1
R1
 50
35.562553309601533
  7
YOKO
  0
ENDBLK
  5
4FDC
  8
0
  0
BLOCK
  8
0
  2
*U134
 70
     1
 10
0.0
 20
0.0
 30
0.0
  3
*U134
  1

  0
TEXT
  5
4FDE
  8
250
 62
    40
 10
540.20433567389955
 20
222.82299434257081
 30
0.0
 40
2.7999999999999989
  1
R1
 50
316.05473469045751
  7
YOKO
  0
ENDBLK
  5
4FE0
  8
0
  0
BLOCK
  8
0
  2
*U135
 70
     1
 10
0.0
 20
0.0
 30
0.0
  3
*U135
  1

  0
TEXT
  5
4FE2
  8
250
 62
    40
 10
573.85344897478512
 20
207.0069439622491
 30
0.0
 40
2.7999999999999989
  1
11
 50
90.0
  7
YOKO
  0
TEXT
  5
4FE3
  8
250
 62
    40
 10
572.14218230811844
 20
211.98454396224909
 30
0.0
 40
1.867599999999999
  1
+0.5
 50
90.0
  7
YOKO
  0
TEXT
  5
4FE4
  8
250
 62
    40
 10
574.63231564145178
 20
212.34027729558241
 30
0.0
 40
1.867599999999999
  1
 0
 50
90.0
  7
YOKO
  0
ENDBLK
  5
4FE6
  8
0
  0
BLOCK
  8
0
  2
*U136
 70
     1
 10
0.0
 20
0.0
 30
0.0
  3
*U136
  1

  0
TEXT
  5
4FE8
  8
250
 62
    40
 10
564.41952564410565
 20
218.7684772955825
 30
0.0
 40
2.7999999999999989
  1
バリ厚2
 50
90.0
  7
YOKO
  0
ENDBLK
  5
4FEA
  8
0
  0
BLOCK
  8
0
  2
*U137
 70
     1
 10
0.0
 20
0.0
 30
0.0
  3
*U137
  1

  0
TEXT
  5
4FEC
  8
250
 62
    40
 10
529.33405353434625
 20
204.59334932316949
 30
0.0
 40
2.7999999999999989
  1
R1
 50
302.87421387004838
  7
YOKO
  0
ENDBLK
  5
4FEE
  8
0
  0
BLOCK
  8
0
  2
*U138
 70
     1
 10
0.0
 20
0.0
 30
0.0
  3
*U138
  1

  0
TEXT
  5
4FF0
  8
250
 62
    40
 10
542.13096344823089
 20
201.6837329251064
 30
0.0
 40
2.7999999999999989
  1
R1
 50
69.510918174654051
  7
YOKO
  0
ENDBLK
  5
4FF2
  8
0
  0
BLOCK
  8
0
  2
*U139
 70
     1
 10
0.0
 20
0.0
 30
0.0
  3
*U139
  1

  0
TEXT
  5
4FF4
  8
250
 62
    40
 10
336.78452519975588
 20
232.2474356233424
 30
0.0
 40
2.7999999999999989
  1
30\U+00B0
 50
345.00000000000011
  7
YOKO
  0
ENDBLK
  5
4FF6
  8
0
  0
BLOCK
  8
0
  2
*U140
 70
     1
 10
0.0
 20
0.0
 30
0.0
  3
*U140
  1

  0
TEXT
  5
4FF8
  8
250
 62
    40
 10
272.7089987302258
 20
224.6422421535876
 30
0.0
 40
2.7999999999999989
  1
R1.5
 50
60.13085781373924
  7
YOKO
  0
ENDBLK
  5
4FFA
  8
0
  0
BLOCK
  8
0
  2
*U141
 70
     1
 10
0.0
 20
0.0
 30
0.0
  3
*U141
  1

  0
TEXT
  5
4FFC
  8
250
 62
    40
 10
274.29833901640859
 20
202.48427584806419
 30
0.0
 40
2.7999999999999989
  1
R1.5
 50
296.00878852226077
  7
YOKO
  0
ENDBLK
  5
4FFE
  8
0
  0
BLOCK
  8
0
  2
*U142
 70
     1
 10
0.0
 20
0.0
 30
0.0
  3
*U142
  1

  0
TEXT
  5
5000
  8
250
 62
    40
 10
276.59133936358518
 20
223.09559806093449
 30
0.0
 40
2.7999999999999989
  1
R0.5
 50
32.846062006095472
  7
YOKO
  0
ENDBLK
  5
5002
  8
0
  0
BLOCK
  8
0
  2
*U143
 70
     1
 10
0.0
 20
0.0
 30
0.0
  3
*U143
  1

  0
TEXT
  5
5004
  8
250
 62
    40
 10
327.97123764001782
 20
196.72894923413011
 30
0.0
 40
2.7999999999999989
  1
R0.5
 50
53.554487735409353
  7
YOKO
  0
ENDBLK
  5
5006
  8
0
  0
BLOCK
  8
0
  2
*U144
 70
     1
 10
0.0
 20
0.0
 30
0.0
  3
*U144
  1

  0
TEXT
  5
5008
  8
250
 62
    40
 10
300.02848846759917
 20
219.59432978301939
 30
0.0
 40
2.7999999999999989
  1
0.121\U+00B0
 50
89.907840935306055
  7
YOKO
  0
ENDBLK
  5
500A
  8
0
  0
BLOCK
  8
0
  2
*U145
 70
     1
 10
0.0
 20
0.0
 30
0.0
  3
*U145
  1

  0
TEXT
  5
500C
  8
250
 62
    40
 10
264.61544821507442
 20
214.5669099089568
 30
0.0
 40
2.7999999999999989
  1
2\U+00B0
 50
89.533712467254205
  7
YOKO
  0
ENDBLK
  5
500E
  8
0
  0
BLOCK
  8
0
  2
*U146
 70
     1
 10
0.0
 20
0.0
 30
0.0
  3
*U146
  1

  0
TEXT
  5
5010
  8
250
 62
    40
 10
549.50533317730969
 20
333.54916561838331
 30
0.0
 40
2.7999999999999989
  1
R16.5
 50
54.494360035118767
  7
YOKO
  0
ENDBLK
  5
5012
  8
0
  0
BLOCK
  8
0
  2
*U147
 70
     1
 10
0.0
 20
0.0
 30
0.0
  3
*U147
  1

  0
TEXT
  5
5014
  8
250
 62
    40
 10
521.6088382901097
 20
302.06340756016027
 30
0.0
 40
2.7999999999999989
  1
\U+220520
 50
41.94540646317644
  7
YOKO
  0
ENDBLK
  5
5016
  8
0
  0
BLOCK
  8
0
  2
*U148
 70
     1
 10
0.0
 20
0.0
 30
0.0
  3
*U148
  1

  0
TEXT
  5
5018
  8
250
 62
    40
 10
523.71775559552532
 20
335.75080188996299
 30
0.0
 40
2.7999999999999989
  1
(R9.537)
 50
53.240610394034988
  7
YOKO
  0
ENDBLK
  5
501A
  8
0
  0
BLOCK
  8
0
  2
*U149
 70
     1
 10
0.0
 20
0.0
 30
0.0
  3
*U149
  1

  0
TEXT
  5
501C
  8
250
 62
    40
 10
381.43789758320071
 20
328.36725809709748
 30
0.0
 40
2.7999999999999989
  1
(R7.14)
 50
51.570376310564342
  7
YOKO
  0
ENDBLK
  5
501E
  8
0
  0
BLOCK
  8
0
  2
*U150
 70
     1
 10
0.0
 20
0.0
 30
0.0
  3
*U150
  1

  0
TEXT
  5
5020
  8
250
 62
    40
 10
337.51325392427231
 20
330.74356232387561
 30
0.0
 40
2.7999999999999989
  1
4-R2.5
 50
57.802519421070002
  7
YOKO
  0
ENDBLK
  5
5022
  8
0
  0
BLOCK
  8
0
  2
*U151
 70
     1
 10
0.0
 20
0.0
 30
0.0
  3
*U151
  1

  0
TEXT
  5
5024
  8
250
 62
    40
 10
297.0363497153902
 20
341.42168768192897
 30
0.0
 40
2.7999999999999989
  1
6.5
 50
81.999999999999218
  7
YOKO
  0
ENDBLK
  5
5026
  8
0
  0
BLOCK
  8
0
  2
*U152
 70
     1
 10
0.0
 20
0.0
 30
0.0
  3
*U152
  1

  0
TEXT
  5
5028
  8
250
 62
    40
 10
294.97791321246802
 20
288.28901793376838
 30
0.0
 40
2.7999999999999989
  1
6.5
 50
278.00000000000131
  7
YOKO
  0
ENDBLK
  5
502A
  8
0
  0
BLOCK
  8
0
  2
*U153
 70
     1
 10
0.0
 20
0.0
 30
0.0
  3
*U153
  1

  0
TEXT
  5
502C
  8
250
 62
    40
 10
554.8135607175484
 20
221.80857522453911
 30
0.0
 40
2.7999999999999989
  1
R3.5
 50
48.976764155288272
  7
YOKO
  0
ENDBLK
  5
502E
  8
0
  0
BLOCK
  8
0
  2
*U154
 70
     1
 10
0.0
 20
0.0
 30
0.0
  3
*U154
  1

  0
TEXT
  5
5030
  8
250
 62
    40
 10
556.4753387962536
 20
205.96371581243289
 30
0.0
 40
2.7999999999999989
  1
R3.5
 50
312.68660376060973
  7
YOKO
  0
ENDBLK
  5
5032
  8
0
  0
BLOCK
  8
0
  2
*U155
 70
     1
 10
0.0
 20
0.0
 30
0.0
  3
*U155
  1

  0
TEXT
  5
5034
  8
250
 62
    40
 10
267.5321741616969
 20
312.39823712295629
 30
0.0
 40
2.7999999999999989
  1
16\U+00B0
 50
89.747445994986236
  7
YOKO
  0
ENDBLK
  5
5036
  8
0
  0
BLOCK
  8
0
  2
*U156
 70
     1
 10
0.0
 20
0.0
 30
0.0
  3
*U156
  1

  0
TEXT
  5
5038
  8
250
 62
    40
 10
521.50972320189726
 20
230.00710197602029
 30
0.0
 40
2.7999999999999989
  1
15\U+00B0
 50
9.1195135952841664
  7
YOKO
  0
ENDBLK
  5
503A
  8
0
  0
BLOCK
  8
0
  2
*U157
 70
     1
 10
0.0
 20
0.0
 30
0.0
  3
*U157
  1

  0
TEXT
  5
503C
  8
250
 62
    40
 10
569.94552081645907
 20
219.33285307054371
 30
0.0
 40
2.7999999999999989
  1
R16
 50
9.2068962213461258
  7
YOKO
  0
ENDBLK
  5
503E
  8
0
  0
BLOCK
  8
0
  2
*U158
 70
     1
 10
0.0
 20
0.0
 30
0.0
  3
*U158
  1

  0
TEXT
  5
5040
  8
250
 62
    40
 10
290.01366283779532
 20
198.30847729558209
 30
0.0
 40
2.7999999999999989
  1
3.4
 50
90.0
  7
YOKO
  0
ENDBLK
  5
5042
  8
0
  0
BLOCK
  8
0
  2
*U159
 70
     1
 10
0.0
 20
0.0
 30
0.0
  3
*U159
  1

  0
TEXT
  5
5044
  8
250
 62
    40
 10
345.94552081645583
 20
-95.667146929456365
 30
0.0
 40
2.7999999999999989
  1
R16
 50
9.2068962213461774
  0
ENDBLK
  5
5046
  8
0
  0
BLOCK
  8
0
  2
*U160
 70
     1
 10
0.0
 20
0.0
 30
0.0
  3
*U160
  1

  0
TEXT
  5
5048
  8
250
 62
    40
 10
66.013662837791742
 20
-117.1181893710845
 30
0.0
 40
2.7999999999999989
  1
3.4
 50
90.0
  0
ENDBLK
  5
504A
  8
0
  0
BLOCK
  8
0
  2
*U161
 70
     1
 10
0.0
 20
0.0
 30
0.0
  3
*U161
  1

  0
TEXT
  5
504C
  8
250
 62
    40
 10
316.88333333333082
 20
-55.0
 30
0.0
 40
2.7999999999999989
  1
16.5
  0
ENDBLK
  5
504E
  8
0
  0
BLOCK
  8
0
  2
*U162
 70
     1
 10
0.0
 20
0.0
 30
0.0
  3
*U162
  1

  0
TEXT
  5
5050
  8
250
 62
    40
 10
150.74999999999741
 20
-55.0
 30
0.0
 40
2.7999999999999989
  1
313.5
  0
ENDBLK
  5
5052
  8
0
  0
BLOCK
  8
0
  2
*U163
 70
     1
 10
0.0
 20
0.0
 30
0.0
  3
*U163
  1

  0
TEXT
  5
5054
  8
250
 62
    40
 10
-28.566666666669281
 20
-55.0
 30
0.0
 40
2.7999999999999989
  1
47.8
  0
ENDBLK
  5
5056
  8
0
  0
BLOCK
  8
0
  2
*U164
 70
     1
 10
0.0
 20
0.0
 30
0.0
  3
*U164
  1

  0
TEXT
  5
5058
  8
250
 62
    40
 10
132.03333333333069
 20
-62.000000000000021
 30
0.0
 40
2.7999999999999989
  1
377.8\U+00B12
  0
ENDBLK
  5
505A
  8
0
  0
BLOCK
  8
0
  2
*U165
 70
     1
 10
0.0
 20
0.0
 30
0.0
  3
*U165
  1

  0
TEXT
  5
505C
  8
250
 62
    40
 10
60.799999999997361
 20
-48.0
 30
0.0
 40
2.7999999999999989
  1
130
  0
ENDBLK
  5
505E
  8
0
  0
BLOCK
  8
0
  2
*U166
 70
     1
 10
0.0
 20
0.0
 30
0.0
  3
*U166
  1

  0
TEXT
  5
5060
  8
250
 62
    40
 10
302.133333333331
 20
64.000000000000014
 30
0.0
 40
2.7999999999999989
  1
17
  0
ENDBLK
  5
5062
  8
0
  0
BLOCK
  8
0
  2
*U167
 70
     1
 10
0.0
 20
0.0
 30
0.0
  3
*U167
  1

  0
TEXT
  5
5064
  8
250
 62
    40
 10
215.23333333333079
 20
64.000000000000014
 30
0.0
 40
2.7999999999999989
  1
154
  0
ENDBLK
  5
5066
  8
0
  0
BLOCK
  8
0
  2
*U168
 70
     1
 10
0.0
 20
0.0
 30
0.0
  3
*U168
  1

  0
TEXT
  5
5068
  8
250
 62
    40
 10
58.396928133521662
 20
64.000000000000014
 30
0.0
 40
2.7999999999999989
  1
142.5
  0
ENDBLK
  5
506A
  8
0
  0
BLOCK
  8
0
  2
*U169
 70
     1
 10
0.0
 20
0.0
 30
0.0
  3
*U169
  1

  0
TEXT
  5
506C
  8
250
 62
    40
 10
-66.098605096800298
 20
-109.324856037751
 30
0.0
 40
2.7999999999999989
  1
20
 50
90.0
  0
TEXT
  5
506D
  8
250
 62
    40
 10
-67.965271763466973
 20
-104.52485603775099
 30
0.0
 40
2.7999999999999989
  1
+0.5
 50
90.0
  0
TEXT
  5
506E
  8
250
 62
    40
 10
-64.231938430133638
 20
-103.9915227044176
 30
0.0
 40
2.7999999999999989
  1
 0
 50
90.0
  0
ENDBLK
  5
5070
  8
0
  0
BLOCK
  8
0
  2
*U170
 70
     1
 10
0.0
 20
0.0
 30
0.0
  3
*U170
  1

  0
TEXT
  5
5072
  8
250
 62
    40
 10
16.67344386913441
 20
3.6660554205977558
 30
0.0
 40
2.7999999999999989
  1
R51
 50
9.0424251529935784
  0
ENDBLK
  5
5074
  8
0
  0
BLOCK
  8
0
  2
*U171
 70
     1
 10
0.0
 20
0.0
 30
0.0
  3
*U171
  1

  0
TEXT
  5
5076
  8
250
 62
    40
 10
-53.273093725169709
 20
-84.791069288220072
 30
0.0
 40
2.7999999999999989
  1
R2
 50
318.38327883664618
  0
ENDBLK
  5
5078
  8
0
  0
BLOCK
  8
0
  2
*U172
 70
     1
 10
0.0
 20
0.0
 30
0.0
  3
*U172
  1

  0
TEXT
  5
507A
  8
250
 62
    40
 10
-53.287092516792661
 20
-118.9118553681655
 30
0.0
 40
2.7999999999999989
  1
R2
 50
50.656647173124732
  0
ENDBLK
  5
507C
  8
0
  0
BLOCK
  8
0
  2
*U173
 70
     1
 10
0.0
 20
0.0
 30
0.0
  3
*U173
  1

  0
TEXT
  5
507E
  8
250
 62
    40
 10
344.53691520679808
 20
-2.6666666666667038
 30
0.0
 40
2.7999999999999989
  1
33
 50
90.0
  0
ENDBLK
  5
5080
  8
0
  0
BLOCK
  8
0
  2
*U174
 70
     1
 10
0.0
 20
0.0
 30
0.0
  3
*U174
  1

  0
TEXT
  5
5082
  8
250
 62
    40
 10
341.30769021346981
 20
20.536965936019641
 30
0.0
 40
2.7999999999999989
  1
1\U+00B0
 50
274.24972954708591
  0
ENDBLK
  5
5084
  8
0
  0
BLOCK
  8
0
  2
*U175
 70
     1
 10
0.0
 20
0.0
 30
0.0
  3
*U175
  1

  0
TEXT
  5
5086
  8
240
 62
    40
 10
339.78118040307731
 20
-13.874672738169791
 30
0.0
 40
2.7999999999999989
  1
1\U+00B0
 50
271.28346671985742
  0
ENDBLK
  5
5088
  8
0
  0
BLOCK
  8
0
  2
*U176
 70
     1
 10
0.0
 20
0.0
 30
0.0
  3
*U176
  1

  0
TEXT
  5
508A
  8
250
 62
    40
 10
22.741220345512321
 20
-3.626904100412268
 30
0.0
 40
2.7999999999999989
  1
R112
 50
348.4496386225984
  0
ENDBLK
  5
508C
  8
0
  0
BLOCK
  8
0
  2
*U177
 70
     1
 10
0.0
 20
0.0
 30
0.0
  3
*U177
  1

  0
TEXT
  5
508E
  8
250
 62
    40
 10
324.73846095186258
 20
-118.7418852915349
 30
0.0
 40
2.7999999999999989
  1
10\U+00B0
 50
353.46694930594452
  0
ENDBLK
  5
5090
  8
0
  0
BLOCK
  8
0
  2
*U178
 70
     1
 10
0.0
 20
0.0
 30
0.0
  3
*U178
  1

  0
TEXT
  5
5092
  8
250
 62
    40
 10
296.32666666666307
 20
-79.122597108415874
 30
0.0
 40
2.7999999999999989
  1
鍛造後ドリル加工\U+220520
  0
ENDBLK
  5
5094
  8
0
  0
BLOCK
  8
0
  2
*U179
 70
     1
 10
0.0
 20
0.0
 30
0.0
  3
*U179
  1

  0
TEXT
  5
5096
  8
250
 62
    40
 10
305.7665412062828
 20
-93.097809789718582
 30
0.0
 40
2.7999999999999989
  1
R1
 50
35.562553309602862
  0
ENDBLK
  5
5098
  8
0
  0
BLOCK
  8
0
  2
*U180
 70
     1
 10
0.0
 20
0.0
 30
0.0
  3
*U180
  1

  0
TEXT
  5
509A
  8
250
 62
    40
 10
316.20433567389659
 20
-92.177005657428779
 30
0.0
 40
2.7999999999999989
  1
R1
 50
316.05473469045398
  0
ENDBLK
  5
509C
  8
0
  0
BLOCK
  8
0
  2
*U181
 70
     1
 10
0.0
 20
0.0
 30
0.0
  3
*U181
  1

  0
TEXT
  5
509E
  8
250
 62
    40
 10
349.85344897478149
 20
-107.9930560377509
 30
0.0
 40
2.7999999999999989
  1
11
 50
90.0
  0
TEXT
  5
509F
  8
250
 62
    40
 10
348.1421823081148
 20
-103.01545603775089
 30
0.0
 40
1.867599999999999
  1
+0.5
 50
90.0
  0
TEXT
  5
50A0
  8
250
 62
    40
 10
350.63231564144809
 20
-102.6597227044176
 30
0.0
 40
1.867599999999999
  1
 0
 50
90.0
  0
ENDBLK
  5
50A2
  8
0
  0
BLOCK
  8
0
  2
*U182
 70
     1
 10
0.0
 20
0.0
 30
0.0
  3
*U182
  1

  0
TEXT
  5
50A4
  8
250
 62
    40
 10
340.41952564410241
 20
-95.771522704417521
 30
0.0
 40
2.7999999999999989
  1
バリ厚2
 50
90.0
  0
ENDBLK
  5
50A6
  8
0
  0
BLOCK
  8
0
  2
*U183
 70
     1
 10
0.0
 20
0.0
 30
0.0
  3
*U183
  1

  0
TEXT
  5
50A8
  8
250
 62
    40
 10
305.58373993428961
 20
-110.7929882257196
 30
0.0
 40
2.7999999999999989
  1
R1
 50
302.87421387003752
  0
ENDBLK
  5
50AA
  8
0
  0
BLOCK
  8
0
  2
*U184
 70
     1
 10
0.0
 20
0.0
 30
0.0
  3
*U184
  1

  0
TEXT
  5
50AC
  8
250
 62
    40
 10
318.13096344822782
 20
-113.3162670748937
 30
0.0
 40
2.7999999999999989
  1
R1
 50
69.510918174656084
  0
ENDBLK
  5
50AE
  8
0
  0
BLOCK
  8
0
  2
*U185
 70
     1
 10
0.0
 20
0.0
 30
0.0
  3
*U185
  1

  0
TEXT
  5
50B0
  8
250
 62
    40
 10
112.7845251997523
 20
-82.752564376657503
 30
0.0
 40
2.7999999999999989
  1
30\U+00B0
 50
345.00000000000011
  0
ENDBLK
  5
50B2
  8
0
  0
BLOCK
  8
0
  2
*U186
 70
     1
 10
0.0
 20
0.0
 30
0.0
  3
*U186
  1

  0
TEXT
  5
50B4
  8
250
 62
    40
 10
48.938088290176609
 20
-89.958861903189089
 30
0.0
 40
2.7999999999999989
  1
R1.5
 50
60.130857813739482
  0
ENDBLK
  5
50B6
  8
0
  0
BLOCK
  8
0
  2
*U187
 70
     1
 10
0.0
 20
0.0
 30
0.0
  3
*U187
  1

  0
TEXT
  5
50B8
  8
250
 62
    40
 10
50.500053159366018
 20
-112.92913847743679
 30
0.0
 40
2.7999999999999989
  1
R1.5
 50
296.00878852226077
  0
ENDBLK
  5
50BA
  8
0
  0
BLOCK
  8
0
  2
*U188
 70
     1
 10
0.0
 20
0.0
 30
0.0
  3
*U188
  1

  0
TEXT
  5
50BC
  8
250
 62
    40
 10
44.59609425580917
 20
-97.066087720967005
 30
0.0
 40
2.7999999999999989
  1
R0.5
 50
32.846062006098059
  0
ENDBLK
  5
50BE
  8
0
  0
BLOCK
  8
0
  2
*U189
 70
     1
 10
0.0
 20
0.0
 30
0.0
  3
*U189
  1

  0
TEXT
  5
50C0
  8
250
 62
    40
 10
109.62469015624529
 20
-110.6156331357751
 30
0.0
 40
2.7999999999999989
  1
R0.5
 50
53.554487735401189
  0
ENDBLK
  5
50C2
  8
0
  0
BLOCK
  8
0
  2
*U190
 70
     1
 10
0.0
 20
0.0
 30
0.0
  3
*U190
  1

  0
TEXT
  5
50C4
  8
250
 62
    40
 10
76.028903730364163
 20
-95.175607349462581
 30
0.0
 40
2.7999999999999989
  1
0.121\U+00B0
 50
89.904218153315483
  0
ENDBLK
  5
50C6
  8
0
  0
BLOCK
  8
0
  2
*U191
 70
     1
 10
0.0
 20
0.0
 30
0.0
  3
*U191
  1

  0
TEXT
  5
50C8
  8
250
 62
    40
 10
40.615448215070849
 20
-100.4330900910432
 30
0.0
 40
2.7999999999999989
  1
2\U+00B0
 50
89.533712467254205
  0
ENDBLK
  5
50CA
  8
0
  0
BLOCK
  8
0
  2
*U192
 70
     1
 10
0.0
 20
0.0
 30
0.0
  3
*U192
  1

  0
TEXT
  5
50CC
  8
250
 62
    40
 10
325.50533317730628
 20
18.549165618383348
 30
0.0
 40
2.7999999999999989
  1
R16.5
 50
54.49436003511849
  0
ENDBLK
  5
50CE
  8
0
  0
BLOCK
  8
0
  2
*U193
 70
     1
 10
0.0
 20
0.0
 30
0.0
  3
*U193
  1

  0
TEXT
  5
50D0
  8
250
 62
    40
 10
297.43776841621229
 20
-13.090329547415781
 30
0.0
 40
2.7999999999999989
  1
\U+220520
 50
41.945406463176283
  0
ENDBLK
  5
50D2
  8
0
  0
BLOCK
  8
0
  2
*U194
 70
     1
 10
0.0
 20
0.0
 30
0.0
  3
*U194
  1

  0
TEXT
  5
50D4
  8
250
 62
    40
 10
299.71775559552179
 20
20.750801889962919
 30
0.0
 40
2.7999999999999989
  1
(R9.537)
 50
53.240610394035031
  0
ENDBLK
  5
50D6
  8
0
  0
BLOCK
  8
0
  2
*U195
 70
     1
 10
0.0
 20
0.0
 30
0.0
  3
*U195
  1

  0
TEXT
  5
50D8
  8
250
 62
    40
 10
157.43789758319721
 20
13.36725809709754
 30
0.0
 40
2.7999999999999989
  1
(R7.14)
 50
51.570376310564583
  0
ENDBLK
  5
50DA
  8
0
  0
BLOCK
  8
0
  2
*U196
 70
     1
 10
0.0
 20
0.0
 30
0.0
  3
*U196
  1

  0
TEXT
  5
50DC
  8
250
 62
    40
 10
113.5132539242688
 20
15.74356232387562
 30
0.0
 40
2.7999999999999989
  1
4-R2.5
 50
57.802519421069853
  0
ENDBLK
  5
50DE
  8
0
  0
BLOCK
  8
0
  2
*U197
 70
     1
 10
0.0
 20
0.0
 30
0.0
  3
*U197
  1

  0
TEXT
  5
50E0
  8
250
 62
    40
 10
73.100369341828326
 20
26.877210993549809
 30
0.0
 40
2.7999999999999989
  1
6.5
 50
81.999999999999176
  0
ENDBLK
  5
50E2
  8
0
  0
BLOCK
  8
0
  2
*U198
 70
     1
 10
0.0
 20
0.0
 30
0.0
  3
*U198
  1

  0
TEXT
  5
50E4
  8
250
 62
    40
 10
71.041932838906092
 20
-27.166505377852509
 30
0.0
 40
2.7999999999999989
  1
6.5
 50
278.00000000000131
  0
ENDBLK
  5
50E6
  8
0
  0
BLOCK
  8
0
  2
*U199
 70
     1
 10
0.0
 20
0.0
 30
0.0
  3
*U199
  1

  0
TEXT
  5
50E8
  8
250
 62
    40
 10
331.11548863661727
 20
-92.844380784467518
 30
0.0
 40
2.7999999999999989
  1
R3.5
 50
48.976764155287462
  0
ENDBLK
  5
50EA
  8
0
  0
BLOCK
  8
0
  2
*U200
 70
     1
 10
0.0
 20
0.0
 30
0.0
  3
*U200
  1

  0
TEXT
  5
50EC
  8
250
 62
    40
 10
332.78721319440018
 20
-109.3744178294582
 30
0.0
 40
2.7999999999999989
  1
R3.5
 50
312.68660376060888
  0
ENDBLK
  5
50EE
  8
0
  0
BLOCK
  8
0
  2
*U201
 70
     1
 10
0.0
 20
0.0
 30
0.0
  3
*U201
  1

  0
TEXT
  5
50F0
  8
250
 62
    40
 10
43.532174161693327
 20
-2.601762877043801
 30
0.0
 40
2.7999999999999989
  1
16\U+00B0
 50
89.747445994986236
  0
ENDBLK
  5
50F2
  8
0
  0
BLOCK
  8
0
  2
*U202
 70
     1
 10
0.0
 20
0.0
 30
0.0
  3
*U202
  1

  0
TEXT
  5
50F4
  8
250
 62
    40
 10
297.50972320189379
 20
-84.992898023979762
 30
0.0
 40
2.7999999999999989
  1
15\U+00B0
 50
9.1195135952844062
  0
ENDBLK
  5
50F6
  8
0
  0
BLOCK
  8
0
  2
*U203
 70
     1
 10
0.0
 20
0.0
 30
0.0
  3
*U203
  1

  0
TEXT
  5
50F8
  8
240
 62
    40
 10
-28.566666666669281
 20
64.000000000000014
 30
0.0
 40
2.7999999999999989
  1
47.8
  0
ENDBLK
  5
50FA
  8
0
  0
BLOCK
  8
0
  2
*U204
 70
     1
 10
0.0
 20
0.0
 30
0.0
  3
*U204
  1

  0
TEXT
  5
50FC
  8
240
 62
    40
 10
160.99999999999741
 20
64.000000000000014
 30
0.0
 40
2.7999999999999989
  1
330
  0
ENDBLK
  5
50FE
  8
0
  0
BLOCK
  8
0
  2
*U205
 70
     1
 10
0.0
 20
0.0
 30
0.0
  3
*U205
  1

  0
TEXT
  5
5100
  8
240
 62
    40
 10
135.09999999999741
 20
70.999999999999929
 30
0.0
 40
2.7999999999999989
  1
377.8
  0
ENDBLK
  5
5102
  8
0
  0
BLOCK
  8
0
  2
*U206
 70
     1
 10
0.0
 20
0.0
 30
0.0
  3
*U206
  1

  0
TEXT
  5
5104
  8
240
 62
    40
 10
-3.9333333333367961
 20
134.0
 30
0.0
 40
2.7999999999999989
  1
\U+220568
  0
ENDBLK
  5
5106
  8
0
  0
ENDSEC
  0
SECTION
  2
ENTITIES
  0
LINE
  5
4688
  8
245
  6
CENTER2
 10
-49.293444990781829
 20
0.0
 30
0.0
 11
334.77986634184572
 21
0.0
 31
0.0
  0
LINE
  5
4689
  8
245
  6
CENTER2
 10
-48.173152158537732
 20
105.0
 30
0.0
 11
345.95793072194181
 21
105.0
 31
0.0
  0
LINE
  5
468B
  8
245
  6
CENTER2
 10
-0.0000000000026148
 20
49.85519830595706
 30
0.0
 11
-0.0000000000026148
 21
-45.068392009916913
 31
0.0
  0
LINE
  5
468C
  8
245
  6
CENTER2
 10
-0.0000000000034674
 20
117.0924692851252
 30
0.0
 11
-0.0000000000034674
 21
92.529422140724733
 31
0.0
  0
LINE
  5
469D
  8
240
  6
CONTINUOUS
 10
-44.572248296092368
 20
115.0
 30
0.0
 11
44.572248296085426
 21
115.0
 31
0.0
  0
LINE
  5
469E
  8
240
  6
CONTINUOUS
 10
-44.572248296092368
 20
95.0
 30
0.0
 11
44.572248296085426
 21
95.000000000000028
 31
0.0
  0
CIRCLE
  5
46A0
  8
241
  6
CONTINUOUS
 10
-0.0000000000026148
 20
0.3012999935724565
 30
0.0
 40
46.0
  0
ARC
  5
46A1
  8
240
  6
CONTINUOUS
 10
-0.0000000000026148
 20
0.0
 30
0.0
 40
47.799999999999997
 50
49.842873491775592
 51
310.15712650822439
  0
ARC
  5
46A2
  8
240
  6
CONTINUOUS
 10
69.518707677613861
 20
82.389254656381638
 30
0.0
 40
60.0
 50
229.84287349177549
 51
261.9999999999992
1001
ASK_MEN_XD
1005
471E
1070
     1
1005
46A1
1070
     1
  0
ARC
  5
46A3
  8
241
  6
CONTINUOUS
 10
-0.0000000000026148
 20
0.0
 30
0.0
 40
51.0
 50
343.40994090965103
 51
16.590059090348969
  0
ARC
  5
46A4
  8
241
  6
CONTINUOUS
 10
51.272908817544533
 20
-15.27543195420327
 30
0.0
 40
2.5
 50
163.409940909651
 51
278.00000000000091
1001
ASK_MEN_XD
1005
4724
1070
     1
1005
46A3
1070
     1
  0
ARC
  5
46A5
  8
241
  6
CONTINUOUS
 10
51.272908817544533
 20
15.27543195420327
 30
0.0
 40
2.5
 50
81.999999999999119
 51
196.59005909034889
1001
ASK_MEN_XD
1005
46A3
1070
     1
1005
4722
1070
     1
  0
ARC
  5
46A9
  8
240
  6
CONTINUOUS
 10
19.122222222218682
 20
105.0
 30
0.0
 40
28.67777777777782
 50
342.54990138190612
 51
343.77926026132718
  0
ARC
  5
46AA
  8
240
  6
CONTINUOUS
 10
48.098702169408448
 20
96.57017903659596
 30
0.0
 40
1.5
 50
91.000000000000128
 51
163.77926026132721
1001
ASK_MEN_XD
1005
46A9
1070
     1
1005
46F9
1070
     1
  0
ARC
  5
46AB
  8
240
  6
CONTINUOUS
 10
19.122222222218682
 20
105.0
 30
0.0
 40
28.67777777777782
 50
16.220739738672819
 51
17.450098618090522
  0
ARC
  5
46AC
  8
240
  6
CONTINUOUS
 10
48.098702169408448
 20
113.429820963404
 30
0.0
 40
1.5
 50
196.22073973866941
 51
268.99999999999977
1001
ASK_MEN_XD
1005
46AB
1070
     1
1005
46F7
1070
     1
  0
ARC
  5
46AD
  8
241
  6
CONTINUOUS
 10
-0.0000000000026148
 20
0.0
 30
0.0
 40
46.9478448891428
 50
330.62193175347238
 51
26.386008865748249
  0
ARC
  5
46B0
  8
240
  6
CONTINUOUS
 10
-19.12222222222567
 20
105.0
 30
0.0
 40
28.67777777777782
 50
162.54990138190939
 51
197.45009861809049
  0
ARC
  5
46B2
  8
240
  6
CONTINUOUS
 10
-44.572248296092368
 20
97.0
 30
0.0
 40
2.0
 50
197.45009861809049
 51
270.0
  0
ARC
  5
46B3
  8
240
  6
CONTINUOUS
 10
-44.572248296092368
 20
113.0
 30
0.0
 40
2.0
 50
90.0
 51
162.54990138190939
  0
ARC
  5
46B6
  8
240
  6
CONTINUOUS
 10
44.572248296085426
 20
113.0
 30
0.0
 40
2.0
 50
17.450098618090522
 51
90.0
  0
ARC
  5
46B7
  8
240
  6
CONTINUOUS
 10
44.572248296085426
 20
97.000000000000014
 30
0.0
 40
2.0
 50
270.0
 51
342.54990138190612
  0
LINE
  5
46B8
  8
241
  6
CONTINUOUS
 10
129.9999999999973
 20
13.60930847362016
 30
0.0
 11
129.9999999999973
 21
-13.60930847362016
 31
0.0
  0
LINE
  5
46B9
  8
245
  6
CENTER2
 10
313.49999999999739
 20
-20.00304656087803
 30
0.0
 11
313.49999999999739
 21
20.00304656087809
 31
0.0
  0
ARC
  5
46BE
  8
241
  6
CONTINUOUS
 10
-0.0000000000026148
 20
0.0
 30
0.0
 40
112.0
 50
356.26934075406928
 51
3.7306592459306831
  0
ARC
  5
46BF
  8
241
  6
CONTINUOUS
 10
109.2679633522925
 20
-7.1247585812780008
 30
0.0
 40
2.5
 50
278.00000000000091
 51
356.26934075406928
1001
ASK_MEN_XD
1005
4724
1070
     1
1005
46BE
1070
     1
  0
ARC
  5
46C0
  8
241
  6
CONTINUOUS
 10
109.2679633522925
 20
7.1247585812781153
 30
0.0
 40
2.5
 50
3.7306592459306831
 51
81.999999999997513
1001
ASK_MEN_XD
1005
4722
1070
     1
1005
46BE
1070
     1
  0
LINE
  5
46C5
  8
241
  6
CONTINUOUS
 10
329.96871942266779
 20
106.0000000000001
 30
0.0
 11
-47.782559594134042
 21
106.0
 31
0.0
  0
LINE
  5
46C6
  8
241
  6
CONTINUOUS
 10
329.96871942266779
 20
104.0
 30
0.0
 11
-47.782559594134042
 21
104.0
 31
0.0
  0
ARC
  5
46C7
  8
240
  6
CONTINUOUS
 10
313.99999999999648
 20
105.0
 30
0.0
 40
16.0
 50
350.79310377865272
 51
9.2068962213473533
  0
ARC
  5
46C8
  8
240
  6
CONTINUOUS
 10
326.33896267924962
 20
103.0
 30
0.0
 40
3.5
 50
270.0
 51
350.79310377865272
1001
ASK_MEN_XD
1005
46C7
1070
     1
1005
46CC
1070
     1
  0
ARC
  5
46C9
  8
240
  6
CONTINUOUS
 10
326.33896267924962
 20
107.0
 30
0.0
 40
3.5
 50
9.2068962213473533
 51
90.0
1001
ASK_MEN_XD
1005
46C7
1070
     1
1005
46CA
1070
     1
  0
LINE
  5
46CA
  8
240
  6
CONTINUOUS
 10
326.33896267924962
 20
110.5
 30
0.0
 11
130.8726867790725
 21
110.5
 31
0.0
  0
ARC
  5
46CB
  8
240
  6
CONTINUOUS
 10
130.8726867790725
 20
210.5
 30
0.0
 40
100.0
 50
268.99999999999977
 51
270.0
1001
ASK_MEN_XD
1005
46F7
1070
     1
1005
46CA
1070
     1
  0
LINE
  5
46CC
  8
240
  6
CONTINUOUS
 10
326.33896267924962
 20
99.500000000000014
 30
0.0
 11
130.8726867790725
 21
99.500000000000014
 31
0.0
  0
LINE
  5
46CD
  8
240
  6
CONTINUOUS
 10
329.99999999999648
 20
104.17740096951189
 30
0.0
 11
329.5447029802703
 21
101.59528325901211
 31
0.0
  0
LINE
  5
46F7
  8
240
  6
CONTINUOUS
 10
129.12744613534409
 20
110.5152304843608
 30
0.0
 11
48.072523559752597
 21
111.93004942066941
 31
0.0
  0
ARC
  5
46F8
  8
240
  6
CONTINUOUS
 10
130.8726867790725
 20
-0.5000000000000285
 30
0.0
 40
100.0
 50
90.0
 51
91.000000000000128
1001
ASK_MEN_XD
1005
46F7
1070
     1
1005
46CA
1070
     1
  0
LINE
  5
46F9
  8
240
  6
CONTINUOUS
 10
129.12744613534409
 20
99.484769515639115
 30
0.0
 11
48.07252355975254
 21
98.069950579330495
 31
0.0
  0
ARC
  5
4711
  8
240
  6
CONTINUOUS
 10
313.49999999999739
 20
-0.0000000000001705
 30
0.0
 40
16.5
 50
268.99999999999977
 51
91.000000000000128
  0
LINE
  5
4712
  8
240
  6
CONTINUOUS
 10
313.49999999999739
 20
16.50251341272428
 30
0.0
 11
137.86897201734419
 21
13.436862415877551
 31
0.0
  0
ARC
  5
4713
  8
240
  6
CONTINUOUS
 10
136.1237313736159
 20
113.4216319315167
 30
0.0
 40
100.0
 50
261.9999999999992
 51
271.00000000000011
1001
ASK_MEN_XD
1005
471E
1070
     1
1005
4712
1070
     1
  0
LINE
  5
4714
  8
240
  6
CONTINUOUS
 10
313.49999999999739
 20
-16.50251341272428
 30
0.0
 11
137.8689720173443
 21
-13.436862415877441
 31
0.0
  0
LINE
  5
4715
  8
241
  6
CONTINUOUS
 10
286.7966909094315
 20
9.5354152864647972
 30
0.0
 11
149.51563849922201
 21
7.1391656032305937
 31
0.0
  0
LINE
  5
4716
  8
241
  6
CONTINUOUS
 10
286.7966909094315
 20
-9.535415286464854
 30
0.0
 11
149.51563849922189
 21
-7.1391656032305937
 31
0.0
  0
CIRCLE
  5
4718
  8
241
  6
CONTINUOUS
 10
313.49999999999773
 20
0.0000000000001705
 30
0.0
 40
10.0
  0
ARC
  5
471A
  8
241
  6
CONTINUOUS
 10
286.9631322023742
 20
-0.0000000000000568
 30
0.0
 40
9.5368677976233016
 50
268.99999999999977
 51
91.000000000000128
  0
ARC
  5
471C
  8
241
  6
CONTINUOUS
 10
149.64025309835961
 20
0.0000000000000568
 30
0.0
 40
7.1402530983621091
 50
91.000000000000128
 51
268.99999999999977
  0
LINE
  5
471E
  8
240
  6
CONTINUOUS
 10
122.2064212776079
 20
14.394825057359871
 30
0.0
 11
61.16832162000901
 21
22.973170531887551
 31
0.0
  0
ARC
  5
471F
  8
240
  6
CONTINUOUS
 10
69.518707677613861
 20
-82.389254656381638
 30
0.0
 40
60.0
 50
98.000000000000895
 51
130.15712650822439
1001
ASK_MEN_XD
1005
471E
1070
     1
1005
46A1
1070
     1
  0
ARC
  5
4720
  8
240
  6
CONTINUOUS
 10
136.1237313736159
 20
-113.4216319315167
 30
0.0
 40
100.0
 50
88.999999999999872
 51
98.000000000000895
1001
ASK_MEN_XD
1005
471E
1070
     1
1005
4712
1070
     1
  0
LINE
  5
4721
  8
240
  6
CONTINUOUS
 10
122.2064212776079
 20
-14.394825057359871
 30
0.0
 11
61.16832162000901
 21
-22.973170531887551
 31
0.0
  0
LINE
  5
4722
  8
241
  6
CONTINUOUS
 10
109.61589610469269
 20
9.6004287531321211
 30
0.0
 11
51.62084156994473
 21
17.751102126057098
 31
0.0
  0
LINE
  5
4724
  8
241
  6
CONTINUOUS
 10
109.61589610469269
 20
-9.6004287531320074
 30
0.0
 11
51.62084156994473
 21
-17.751102126057159
 31
0.0
  0
LINE
  5
48B4
  8
241
  6
CONTINUOUS
 10
62.34986457640241
 20
-8.5261824134016138
 30
0.0
 11
65.216862271324942
 21
-6.3657446887573883
 31
0.0
  0
LINE
  5
48B5
  8
241
  6
CONTINUOUS
 10
57.855751160213522
 20
-13.04166666666964
 30
0.0
 11
57.855751160213522
 21
-8.9583333333362134
 31
0.0
  0
LINE
  5
48B6
  8
241
  6
CONTINUOUS
 10
61.804643843165707
 20
5.9129420267913133
 30
0.0
 11
63.149596794175011
 21
6.1988206016657719
 31
0.0
  0
LINE
  5
48B7
  8
241
  6
CONTINUOUS
 10
52.855751160213849
 20
-13.04166666666964
 30
0.0
 11
57.855751160213742
 21
-13.04166666666964
 31
0.0
  0
LINE
  5
48B8
  8
241
  6
CONTINUOUS
 10
63.531006648158552
 20
-5.9765342505442609
 30
0.0
 11
65.216862271323009
 21
-6.3657446887631286
 31
0.0
  0
LINE
  5
48B9
  8
241
  6
CONTINUOUS
 10
60.720097680370202
 20
-5.3275847817323552
 30
0.0
 11
62.186759479573588
 21
-5.6661903383074437
 31
0.0
  0
LINE
  5
48BA
  8
241
  6
CONTINUOUS
 10
60.720097680374643
 20
-5.3275847817268414
 30
0.0
 11
62.349864576405537
 21
-8.5261824134015551
 31
0.0
  0
LINE
  5
48BB
  8
241
  6
CONTINUOUS
 10
52.855751160213849
 20
-12.29166666666964
 30
0.0
 11
57.105751160213522
 21
-12.29166666666964
 31
0.0
  0
LINE
  5
48BC
  8
241
  6
CONTINUOUS
 10
57.105751160213522
 20
-12.29166666666964
 30
0.0
 11
57.105751160213522
 21
-8.9583333333362134
 31
0.0
  0
LINE
  5
48BD
  8
241
  6
CONTINUOUS
 10
57.105751160213522
 20
-8.9583333333362134
 30
0.0
 11
57.855751160213522
 21
-8.9583333333362134
 31
0.0
  0
LINE
  5
48BE
  8
241
  6
CONTINUOUS
 10
52.855751160213849
 20
-13.04166666666964
 30
0.0
 11
52.855751160213849
 21
-12.29166666666964
 31
0.0
  0
LINE
  5
48BF
  8
241
  6
CONTINUOUS
 10
52.855751160213849
 20
10.083333333330581
 30
0.0
 11
55.049042089495337
 21
10.083333333330581
 31
0.0
  0
LINE
  5
48C0
  8
241
  6
CONTINUOUS
 10
52.855751160213849
 20
9.3333333333305841
 30
0.0
 11
57.855751160213742
 21
9.3333333333305841
 31
0.0
  0
LINE
  5
48C1
  8
241
  6
CONTINUOUS
 10
55.037270105055939
 20
11.208541566459241
 30
0.0
 11
53.409615280659921
 21
12.99121113603587
 31
0.0
  0
LINE
  5
48C2
  8
241
  6
CONTINUOUS
 10
55.049042089495337
 20
10.083333333330581
 30
0.0
 11
52.855751160213849
 21
12.485509113019869
 31
0.0
  0
LINE
  5
48C3
  8
241
  6
CONTINUOUS
 10
55.543644919164933
 20
10.653940579577981
 30
0.0
 11
57.855751160213693
 21
12.55607298844239
 31
0.0
  0
LINE
  5
48C4
  8
241
  6
CONTINUOUS
 10
55.037270105055939
 20
11.208541566459241
 30
0.0
 11
57.379262613330468
 21
13.13526092399445
 31
0.0
  0
LINE
  5
48C5
  8
241
  6
CONTINUOUS
 10
57.855751160213742
 20
9.3333333333305841
 30
0.0
 11
57.855751160213742
 21
10.083333333330581
 31
0.0
  0
LINE
  5
48C6
  8
241
  6
CONTINUOUS
 10
52.855751160213849
 20
9.3333333333305841
 30
0.0
 11
52.855751160213849
 21
10.083333333330581
 31
0.0
  0
LINE
  5
48C7
  8
241
  6
CONTINUOUS
 10
57.379262613330468
 20
13.13526092399445
 30
0.0
 11
57.855751160213742
 21
12.55607298844239
 31
0.0
  0
LINE
  5
48C8
  8
241
  6
CONTINUOUS
 10
52.855751160213849
 20
12.485509113019869
 30
0.0
 11
53.409615280659921
 21
12.99121113603587
 31
0.0
  0
LINE
  5
48C9
  8
241
  6
CONTINUOUS
 10
56.064634143999513
 20
10.083333333330581
 30
0.0
 11
55.543644919164933
 21
10.653940579577981
 31
0.0
  0
LINE
  5
48CA
  8
241
  6
CONTINUOUS
 10
56.064634143999513
 20
10.083333333330581
 30
0.0
 11
57.855751160213742
 21
10.083333333330581
 31
0.0
  0
LINE
  5
48CB
  8
241
  6
CONTINUOUS
 10
54.89741782688003
 20
-5.8339682095270851
 30
0.0
 11
55.814084493546893
 21
-5.8339682095270851
 31
0.0
  0
LINE
  5
48CC
  8
241
  6
CONTINUOUS
 10
54.89741782688003
 20
-1.7506348761937709
 30
0.0
 11
55.814084493546893
 21
-1.7506348761937709
 31
0.0
  0
LINE
  5
48CD
  8
241
  6
CONTINUOUS
 10
54.89741782688003
 20
-5.0839682095270851
 30
0.0
 11
55.814084493546893
 21
-5.0839682095270851
 31
0.0
  0
LINE
  5
48CE
  8
241
  6
CONTINUOUS
 10
54.89741782688003
 20
-2.500634876193828
 30
0.0
 11
55.814084493546893
 21
-2.500634876193828
 31
0.0
  0
LINE
  5
48CF
  8
241
  6
CONTINUOUS
 10
54.89741782688003
 20
2.4996825619018632
 30
0.0
 11
55.814084493546893
 21
2.4996825619018632
 31
0.0
  0
LINE
  5
48D0
  8
241
  6
CONTINUOUS
 10
54.89741782688003
 20
1.749682561901863
 30
0.0
 11
55.814084493546893
 21
1.749682561901863
 31
0.0
  0
LINE
  5
48D1
  8
241
  6
CONTINUOUS
 10
54.563109893622652
 20
5.0390034208585339
 30
0.0
 11
54.368995609795718
 21
5.7634477905752979
 31
0.0
  0
LINE
  5
48D2
  8
241
  6
CONTINUOUS
 10
56.148392426804257
 20
5.0390034208585339
 30
0.0
 11
56.342506710631199
 21
5.7634477905752979
 31
0.0
  0
ARC
  5
48D3
  8
241
  6
CONTINUOUS
 10
29.525773018949391
 20
-0.9481437701945765
 30
0.0
 40
33.0
 50
351.7801918472021
 51
11.99999999999627
  0
ARC
  5
48D4
  8
241
  6
CONTINUOUS
 10
29.525773018949391
 20
-0.9481437701945765
 30
0.0
 40
34.375
 50
351.58856573578402
 51
11.99999999999627
  0
ARC
  5
48D5
  8
241
  6
CONTINUOUS
 10
55.814084493546893
 20
-3.7923015428604572
 30
0.0
 40
2.0416666666666421
 50
270.0
 51
90.0
  0
ARC
  5
48D6
  8
241
  6
CONTINUOUS
 10
54.89741782688003
 20
-3.7923015428604572
 30
0.0
 40
2.0416666666666421
 50
90.0
 51
270.0
  0
ARC
  5
48D7
  8
241
  6
CONTINUOUS
 10
55.814084493546893
 20
-3.7923015428604572
 30
0.0
 40
1.2916666666666421
 50
270.0
 51
90.0
  0
ARC
  5
48D8
  8
241
  6
CONTINUOUS
 10
54.89741782688003
 20
-3.7923015428604572
 30
0.0
 40
1.2916666666666421
 50
90.0
 51
270.0
  0
ARC
  5
48D9
  8
241
  6
CONTINUOUS
 10
54.89741782688003
 20
3.791349228568492
 30
0.0
 40
1.2916666666666421
 50
105.00000000000151
 51
270.0
  0
ARC
  5
48DA
  8
241
  6
CONTINUOUS
 10
54.89741782688003
 20
3.791349228568492
 30
0.0
 40
2.0416666666666421
 50
105.00000000000151
 51
270.0
  0
ARC
  5
48DB
  8
241
  6
CONTINUOUS
 10
55.814084493546893
 20
3.791349228568492
 30
0.0
 40
2.0416666666666421
 50
270.0
 51
74.999999999998494
  0
ARC
  5
48DC
  8
241
  6
CONTINUOUS
 10
55.814084493546893
 20
3.791349228568492
 30
0.0
 40
1.2916666666666421
 50
270.0
 51
74.999999999998494
  0
CIRCLE
  5
4912
  8
241
  6
CONTINUOUS
 10
0.0
 20
0.0
 30
0.0
 40
34.5
  0
CIRCLE
  5
4C8C
  8
246
  6
PHANTOM2
 10
-0.0000000000026148
 20
0.0
 30
0.0
 40
34.0
  0
LINE
  5
4C8D
  8
246
  6
PHANTOM2
 10
-34.000000000003467
 20
115.0
 30
0.0
 11
-34.000000000003467
 21
95.0
 31
0.0
  0
LINE
  5
4C8E
  8
246
  6
PHANTOM2
 10
33.99999999999654
 20
115.0
 30
0.0
 11
33.999999999996533
 21
95.000000000000057
 31
0.0
  0
LINE
  5
4DA1
  8
250
  6
CONTINUOUS
 10
-47.800000000002612
 20
0.5
 30
0.0
 11
-47.800000000002598
 21
70.999999999999915
 31
0.0
  0
LINE
  5
4DA2
  8
250
  6
CONTINUOUS
 10
329.99999999999739
 20
0.5
 30
0.0
 11
329.99999999999739
 21
70.999999999999915
 31
0.0
  0
LINE
  5
4DA3
  8
250
  6
CONTINUOUS
 10
-45.570000000002601
 20
69.999999999999915
 30
0.0
 11
327.76999999999742
 21
69.999999999999915
 31
0.0
  0
LINE
  5
4DA7
  8
250
  6
CONTINUOUS
 10
-0.0000000000026148
 20
50.35519830595706
 30
0.0
 11
-0.0000000000026139
 21
64.0
 31
0.0
  0
LINE
  5
4DA8
  8
250
  6
CONTINUOUS
 10
329.99999999999739
 20
0.5
 30
0.0
 11
329.99999999999739
 21
64.0
 31
0.0
  0
LINE
  5
4DA9
  8
250
  6
CONTINUOUS
 10
2.2299999999973861
 20
63.0
 30
0.0
 11
327.76999999999742
 21
63.0
 31
0.0
  0
LINE
  5
4DAD
  8
250
  6
CONTINUOUS
 10
-47.800000000002612
 20
0.5
 30
0.0
 11
-47.800000000002598
 21
64.0
 31
0.0
  0
LINE
  5
4DAE
  8
250
  6
CONTINUOUS
 10
-0.0000000000026148
 20
50.35519830595706
 30
0.0
 11
-0.0000000000026139
 21
64.0
 31
0.0
  0
LINE
  5
4DAF
  8
250
  6
CONTINUOUS
 10
-45.570000000002601
 20
63.0
 30
0.0
 11
-2.230000000002613
 21
63.0
 31
0.0
  0
LINE
  5
4DB3
  8
250
  6
CONTINUOUS
 10
-34.000000000003467
 20
115.5
 30
0.0
 11
-34.000000000003467
 21
134.0
 31
0.0
  0
LINE
  5
4DB4
  8
250
  6
CONTINUOUS
 10
33.99999999999654
 20
115.5
 30
0.0
 11
33.99999999999654
 21
134.0
 31
0.0
  0
LINE
  5
4DB5
  8
250
  6
CONTINUOUS
 10
-31.770000000003471
 20
133.0
 30
0.0
 11
31.769999999996539
 21
133.0
 31
0.0
  0
TEXT
  5
4DB9
  8
250
  6
CONTINUOUS
 10
135.09999999999741
 20
70.999999999999929
 30
0.0
 40
2.7999999999999989
  1
377.8
  0
LINE
  5
4DBA
  8
250
  6
CONTINUOUS
 10
327.76999999999742
 20
70.371666666666584
 30
0.0
 11
329.99999999999739
 21
69.999999999999915
 31
0.0
  0
LINE
  5
4DBB
  8
250
  6
CONTINUOUS
 10
327.76999999999742
 20
69.628333333333245
 30
0.0
 11
329.99999999999739
 21
69.999999999999915
 31
0.0
  0
LINE
  5
4DBC
  8
250
  6
CONTINUOUS
 10
329.99999999999739
 20
69.999999999999915
 30
0.0
 11
327.76999999999742
 21
69.999999999999915
 31
0.0
  0
LINE
  5
4DBD
  8
250
  6
CONTINUOUS
 10
-45.570000000002601
 20
69.628333333333245
 30
0.0
 11
-47.800000000002598
 21
69.999999999999915
 31
0.0
  0
LINE
  5
4DBE
  8
250
  6
CONTINUOUS
 10
-45.570000000002601
 20
70.371666666666584
 30
0.0
 11
-47.800000000002598
 21
69.999999999999915
 31
0.0
  0
LINE
  5
4DBF
  8
250
  6
CONTINUOUS
 10
-47.800000000002598
 20
69.999999999999915
 30
0.0
 11
-45.570000000002601
 21
69.999999999999915
 31
0.0
  0
TEXT
  5
4DC0
  8
250
  6
CONTINUOUS
 10
160.99999999999741
 20
64.000000000000014
 30
0.0
 40
2.7999999999999989
  1
330
  0
LINE
  5
4DC1
  8
250
  6
CONTINUOUS
 10
327.76999999999742
 20
63.37166666666667
 30
0.0
 11
329.99999999999739
 21
63.0
 31
0.0
  0
LINE
  5
4DC2
  8
250
  6
CONTINUOUS
 10
327.76999999999742
 20
62.62833333333333
 30
0.0
 11
329.99999999999739
 21
63.0
 31
0.0
  0
LINE
  5
4DC3
  8
250
  6
CONTINUOUS
 10
329.99999999999739
 20
63.0
 30
0.0
 11
327.76999999999742
 21
63.0
 31
0.0
  0
LINE
  5
4DC4
  8
250
  6
CONTINUOUS
 10
2.2299999999973861
 20
62.62833333333333
 30
0.0
 11
-0.000000000002614
 21
63.0
 31
0.0
  0
LINE
  5
4DC5
  8
250
  6
CONTINUOUS
 10
2.2299999999973861
 20
63.37166666666667
 30
0.0
 11
-0.000000000002614
 21
63.0
 31
0.0
  0
LINE
  5
4DC6
  8
250
  6
CONTINUOUS
 10
-0.000000000002614
 20
63.0
 30
0.0
 11
2.2299999999973861
 21
63.0
 31
0.0
  0
TEXT
  5
4DC7
  8
250
  6
CONTINUOUS
 10
-28.566666666669281
 20
64.000000000000014
 30
0.0
 40
2.7999999999999989
  1
47.8
  0
LINE
  5
4DC8
  8
250
  6
CONTINUOUS
 10
-2.230000000002613
 20
63.37166666666667
 30
0.0
 11
-0.000000000002614
 21
63.0
 31
0.0
  0
LINE
  5
4DC9
  8
250
  6
CONTINUOUS
 10
-2.230000000002613
 20
62.62833333333333
 30
0.0
 11
-0.000000000002614
 21
63.0
 31
0.0
  0
LINE
  5
4DCA
  8
250
  6
CONTINUOUS
 10
-0.000000000002614
 20
63.0
 30
0.0
 11
-2.230000000002613
 21
63.0
 31
0.0
  0
LINE
  5
4DCB
  8
250
  6
CONTINUOUS
 10
-45.570000000002601
 20
62.62833333333333
 30
0.0
 11
-47.800000000002598
 21
63.0
 31
0.0
  0
LINE
  5
4DCC
  8
250
  6
CONTINUOUS
 10
-45.570000000002601
 20
63.37166666666667
 30
0.0
 11
-47.800000000002598
 21
63.0
 31
0.0
  0
LINE
  5
4DCD
  8
250
  6
CONTINUOUS
 10
-47.800000000002598
 20
63.0
 30
0.0
 11
-45.570000000002601
 21
63.0
 31
0.0
  0
TEXT
  5
4DCE
  8
250
  6
CONTINUOUS
 10
-3.9333333333367961
 20
134.0
 30
0.0
 40
2.7999999999999989
  1
\U+220568
  0
LINE
  5
4DCF
  8
250
  6
CONTINUOUS
 10
31.769999999996539
 20
133.37166666666661
 30
0.0
 11
33.99999999999654
 21
133.0
 31
0.0
  0
LINE
  5
4DD0
  8
250
  6
CONTINUOUS
 10
31.769999999996539
 20
132.6283333333333
 30
0.0
 11
33.99999999999654
 21
133.0
 31
0.0
  0
LINE
  5
4DD1
  8
250
  6
CONTINUOUS
 10
33.99999999999654
 20
133.0
 30
0.0
 11
31.769999999996539
 21
133.0
 31
0.0
  0
LINE
  5
4DD2
  8
250
  6
CONTINUOUS
 10
-31.770000000003471
 20
132.6283333333333
 30
0.0
 11
-34.000000000003467
 21
133.0
 31
0.0
  0
LINE
  5
4DD3
  8
250
  6
CONTINUOUS
 10
-31.770000000003471
 20
133.37166666666661
 30
0.0
 11
-34.000000000003467
 21
133.0
 31
0.0
  0
LINE
  5
4DD4
  8
250
  6
CONTINUOUS
 10
-34.000000000003467
 20
133.0
 30
0.0
 11
-31.770000000003471
 21
133.0
 31
0.0
  0
TEXT
  5
4DED
  8
241
  6
CONTINUOUS
 10
-42.0
 20
147.0
 30
0.0
 40
4.0
  1
MGR68L
  7
YOKO
  0
VIEWPORT
  5
22
 67
     1
  8
0
 10
261.51769911504419
 20
148.5
 30
0.0
 40
523.0353982300885
 41
297.0
 68
     1
 69
     1
1001
ACAD
1000
MVIEW
1002
{
1070
    16
1010
0.0
1020
0.0
1030
0.0
1010
0.0
1020
0.0
1030
1.0
1040
0.0
1040
297.0
1040
261.51769911504419
1040
148.5
1040
50.0
1040
0.0
1040
0.0
1070
     0
1070
   100
1070
     1
1070
     1
1070
     0
1070
     0
1070
     0
1070
     0
1040
0.0
1040
0.0
1040
0.0
1040
1.0
1040
1.0
1040
10.0
1040
10.0
1070
     0
1002
{
1002
}
1002
}
1001
GENIUS_GENODEF_13
1002
{
1000
HIER
1070
     0
1002
}
1002
{
1000
MANEDIT
1070
     0
1002
}
1002
{
1000
NOSEL
1070
     0
1002
}
1002
{
1000
BEHIND
1070
     0
1002
}
1002
{
1000
OTHER
1070
     0
1002
}
1002
{
1000
REACTOR
1002
}
1001
GENIUS_GENOBJ-N-SDF_13
1002
{
1000
OWNER
1000
GEN
1002
}
1001
GENIUS_GENSCREG_15
1000
PF
1040
1.0
1000
DF
1040
1.0
1000
MIN
1011
0.0
1021
0.0
1031
0.0
1021
0.0
1031
0.0
1000
MAX
1011
523.0353982300885
1021
0.0
1031
0.0
1021
297.0
1031
0.0
1000
FLAGS
1070
     4
  0
ENDSEC
  0
EOF
