  0
SECTION
  2
HEADER
  9
$ACADVER
  1
AC1009
  9
$INSBASE
 10
0.0
 20
0.0
 30
0.0
  9
$EXTMIN
 10
-46.163801730593228
 20
-45.068392009916913
 30
0.0
  9
$EXTMAX
 10
321.74702039545218
 20
130.0
 30
0.0
  9
$LIMMIN
 10
0.0
 20
0.0
  9
$LIMMAX
 10
297.0
 20
210.0
  9
$ORTHOMODE
 70
     0
  9
$REGENMODE
 70
     1
  9
$FILLMODE
 70
     1
  9
$QTEXTMODE
 70
     0
  9
$MIRRTEXT
 70
     1
  9
$DRAGMODE
 70
     2
  9
$LTSCALE
 40
10.0
  9
$OSMODE
 70
    37
  9
$ATTMODE
 70
     1
  9
$TEXTSIZE
 40
4.0
  9
$TRACEWID
 40
1.0
  9
$TEXTSTYLE
  7
YOKO
  9
$CLAYER
  8
240
  9
$CELTYPE
  6
BYLAYER
  9
$CECOLOR
 62
   256
  9
$DIMSCALE
 40
1.0
  9
$DIMASZ
 40
2.2299999999999991
  9
$DIMEXO
 40
0.5
  9
$DIMDLI
 40
7.0
  9
$DIMRND
 40
0.0
  9
$DIMDLE
 40
0.0
  9
$DIMEXE
 40
1.0
  9
$DIMTP
 40
0.0
  9
$DIMTM
 40
0.01
  9
$DIMTXT
 40
2.7999999999999989
  9
$DIMCEN
 40
0.0
  9
$DIMTSZ
 40
0.0
  9
$DIMTOL
 70
     0
  9
$DIMLIM
 70
     0
  9
$DIMTIH
 70
     0
  9
$DIMTOH
 70
     0
  9
$DIMSE1
 70
     0
  9
$DIMSE2
 70
     0
  9
$DIMTAD
 70
     3
  9
$DIMZIN
 70
     9
  9
$DIMBLK
  1
OPEN
  9
$DIMASO
 70
     1
  9
$DIMSHO
 70
     1
  9
$DIMPOST
  1

  9
$DIMAPOST
  1

  9
$DIMALT
 70
     0
  9
$DIMALTD
 70
     2
  9
$DIMALTF
 40
25.399999999999999
  9
$DIMLFAC
 40
1.0
  9
$DIMTOFL
 70
     1
  9
$DIMTVP
 40
0.0
  9
$DIMTIX
 70
     1
  9
$DIMSOXD
 70
     0
  9
$DIMSAH
 70
     0
  9
$DIMBLK1
  1

  9
$DIMBLK2
  1

  9
$DIMSTYLE
  2
BIGT
  9
$DIMCLRD
 70
   256
  9
$DIMCLRE
 70
   256
  9
$DIMCLRT
 70
    40
  9
$DIMTFAC
 40
1.0
  9
$DIMGAP
 40
1.0
  9
$LUNITS
 70
     2
  9
$LUPREC
 70
     6
  9
$SKETCHINC
 40
1.0
  9
$FILLETRAD
 40
0.0
  9
$AUNITS
 70
     0
  9
$AUPREC
 70
     6
  9
$MENU
  1
.
  9
$ELEVATION
 40
0.0
  9
$PELEVATION
 40
0.0
  9
$THICKNESS
 40
0.0
  9
$LIMCHECK
 70
     0
  9
$BLIPMODE
 70
     0
  9
$CHAMFERA
 40
0.2
  9
$CHAMFERB
 40
0.2
  9
$SKPOLY
 70
     0
  9
$TDCREATE
 40
2459495.428352755
  9
$TDUPDATE
 40
2459495.456302268
  9
$TDINDWG
 40
0.0278514815
  9
$TDUSRTIMER
 40
0.0278514468
  9
$USRTIMER
 70
     1
  9
$ANGBASE
 50
0.0
  9
$ANGDIR
 70
     0
  9
$PDMODE
 70
     1
  9
$PDSIZE
 40
0.0
  9
$PLINEWID
 40
0.0
  9
$COORDS
 70
     1
  9
$SPLFRAME
 70
     0
  9
$SPLINETYPE
 70
     6
  9
$SPLINESEGS
 70
     4
  9
$ATTDIA
 70
     1
  9
$ATTREQ
 70
     1
  9
$HANDLING
 70
     1
  9
$HANDSEED
  5
5046
  9
$SURFTAB1
 70
     6
  9
$SURFTAB2
 70
     6
  9
$SURFTYPE
 70
     6
  9
$SURFU
 70
     6
  9
$SURFV
 70
     6
  9
$UCSNAME
  2

  9
$UCSORG
 10
0.0
 20
0.0
 30
0.0
  9
$UCSXDIR
 10
1.0
 20
0.0
 30
0.0
  9
$UCSYDIR
 10
0.0
 20
1.0
 30
0.0
  9
$PUCSNAME
  2

  9
$PUCSORG
 10
0.0
 20
0.0
 30
0.0
  9
$PUCSXDIR
 10
1.0
 20
0.0
 30
0.0
  9
$PUCSYDIR
 10
0.0
 20
1.0
 30
0.0
  9
$USERI1
 70
     1
  9
$USERI2
 70
     0
  9
$USERI3
 70
     0
  9
$USERI4
 70
     0
  9
$USERI5
 70
     0
  9
$USERR1
 40
0.0
  9
$USERR2
 40
0.0
  9
$USERR3
 40
0.0
  9
$USERR4
 40
0.0
  9
$USERR5
 40
0.0
  9
$WORLDVIEW
 70
     1
  9
$SHADEDGE
 70
     3
  9
$SHADEDIF
 70
    70
  9
$TILEMODE
 70
     1
  9
$MAXACTVP
 70
    16
  9
$PLIMCHECK
 70
     0
  9
$PEXTMIN
 10
1.0000000000000000E+020
 20
1.0000000000000000E+020
 30
1.0000000000000000E+020
  9
$PEXTMAX
 10
-1.0000000000000000E+020
 20
-1.0000000000000000E+020
 30
-1.0000000000000000E+020
  9
$PLIMMIN
 10
0.0
 20
0.0
  9
$PLIMMAX
 10
420.0
 20
297.0
  9
$UNITMODE
 70
     0
  9
$VISRETAIN
 70
     1
  9
$PLINEGEN
 70
     0
  9
$PSLTSCALE
 70
     1
  0
ENDSEC
  0
SECTION
  2
TABLES
  0
TABLE
  2
VPORT
 70
     1
  0
VPORT
  2
*ACTIVE
 70
     0
 10
0.0
 20
0.0
 11
1.0
 21
1.0
 12
129.9021141393504
 22
46.249717152008508
 13
0.0
 23
0.0
 14
7.0
 24
7.0
 15
7.0
 25
7.0
 16
0.0
 26
0.0
 36
1.0
 17
0.0
 27
0.0
 37
0.0
 40
271.40344737562572
 41
1.7200474495848159
 42
50.0
 43
0.0
 44
0.0
 50
0.0
 51
0.0
 71
     0
 72
  2000
 73
     1
 74
     0
 75
     1
 76
     1
 77
     0
 78
     0
  0
ENDTAB
  0
TABLE
  2
LTYPE
 70
    18
  0
LTYPE
  2
CONTINUOUS
 70
     0
  3
Solid line
 72
    65
 73
     0
 40
0.0
  0
LTYPE
  2
CENTER2
 70
     0
  3
___ _ ___ _ ___ _ ___ _ ___ _ ___ _ ___ _ ___ _
 72
    65
 73
     4
 40
1.125
 49
0.75
 49
-0.125
 49
0.125
 49
-0.125
  0
LTYPE
  2
HIDDEN2
 70
     0
  3
_ _ _ _ _ _ _ _ _ _ _ _ _ _ _ _ _ _ _ _ _ _ _ _
 72
    65
 73
     2
 40
0.1875
 49
0.125
 49
-0.0625
  0
LTYPE
  2
PHANTOM2
 70
     0
  3
___ _ _ ___ _ _ ___ _ _ ___ _ _ ___ _ _ ___ _ _
 72
    65
 73
     6
 40
1.25
 49
0.625
 49
-0.125
 49
0.125
 49
-0.125
 49
0.125
 49
-0.125
  0
LTYPE
  2
AM_ISO02W050
 70
     0
  3
__ __ __ __ __ __ __ __ __ __ __ __ __ __ __
 72
    65
 73
     2
 40
7.5
 49
6.0
 49
-1.5
  0
LTYPE
  2
AMCONSTR
 70
     0
  3
_______________________
 72
    65
 73
     2
 40
9999.0
 49
9999.0
 49
0.0
  0
LTYPE
  2
ACISOWELD
 70
     0
  3
_ _ _ _ _
 72
    65
 73
     2
 40
2.0
 49
2.0
 49
-1.0
  0
LTYPE
  2
ACISOTGB
 70
     0
  3
__ . . __ . .
 72
    65
 73
     6
 40
9.0
 49
4.0
 49
-1.0
 49
1.0
 49
-1.0
 49
1.0
 49
-1.0
  0
LTYPE
  2
ACISOTGL
 70
     0
  3
_ _ _ _ _
 72
    65
 73
     2
 40
3.0
 49
2.0
 49
-1.0
  0
LTYPE
  2
ACJISTGB
 70
     0
  3
__ . . __ . .
 72
    65
 73
     6
 40
9.0
 49
4.0
 49
-1.0
 49
1.0
 49
-1.0
 49
1.0
 49
-1.0
  0
LTYPE
  2
ACJISTGL
 70
     0
  3
_ _ _ _ _
 72
    65
 73
     2
 40
3.0
 49
2.0
 49
-1.0
  0
ENDTAB
  0
TABLE
  2
LAYER
 70
    16
  0
LAYER
  2
0
 70
     0
 62
     7
  6
CONTINUOUS
  0
LAYER
  2
DEFPOINTS
 70
     0
 62
     7
  6
CONTINUOUS
  0
LAYER
  2
245
 70
     0
 62
     2
  6
CENTER2
  0
LAYER
  2
240
 70
     0
 62
     4
  6
CONTINUOUS
  0
LAYER
  2
241
 70
     0
 62
   211
  6
CONTINUOUS
  0
LAYER
  2
246
 70
     0
 62
     3
  6
PHANTOM2
  0
LAYER
  2
250
 70
     0
 62
     3
  6
CONTINUOUS
  0
ENDTAB
  0
TABLE
  2
STYLE
 70
     7
  0
STYLE
  2
STANDARD
 70
     0
 40
0.0
 41
1.0
 50
0.0
 71
     0
 42
3.0
  3
romans.shx
  4
extfont.shx
  0
STYLE
  2
ACISOTS
 70
     0
 40
1.0
 41
1.0
 50
0.0
 71
     0
 42
3.0
  3
amgdt.shx
  4
extfont.shx
  0
STYLE
  2
ACISOGDT
 70
     0
 40
0.0
 41
1.0
 50
0.0
 71
     0
 42
3.0
  3
amgdt.shx
  4
extfont.shx
  0
STYLE
  2
ACJISTS
 70
     0
 40
1.0
 41
1.0
 50
0.0
 71
     0
 42
3.0
  3
amgdt.shx
  4
extfont.shx
  0
STYLE
  2
ACJISGDT
 70
     0
 40
0.0
 41
1.0
 50
0.0
 71
     0
 42
3.0
  3
amgdt.shx
  4
extfont.shx
  0
STYLE
  2
YOKO
 70
     0
 40
0.0
 41
1.0
 50
0.0
 71
     0
 42
4.0
  3
romans.shx
  4
extfont.shx
  0
ENDTAB
  0
TABLE
  2
VIEW
 70
     0
  0
ENDTAB
  0
TABLE
  2
UCS
 70
     0
  0
ENDTAB
  0
TABLE
  2
APPID
 70
    38
  0
APPID
  2
ACAD
 70
     0
  0
APPID
  2
GLOBAL
 70
     0
  0
APPID
  2
DETAIL
 70
     0
  0
APPID
  2
GRPNAME
 70
     0
  0
APPID
  2
GPARA
 70
     0
  0
APPID
  2
MCAD_NO_VIS
 70
     0
  0
APPID
  2
ACAD_TEMP_GRAPHIC
 70
     0
  0
APPID
  2
ACATTRIBSERVICES
 70
     0
  0
APPID
  2
GENIUS_GENSCREG_15
 70
     0
  0
APPID
  2
GENIUS_GENODEF_13
 70
     0
  0
APPID
  2
GENIUS_GENOBJ-N-SDF_13
 70
     0
  0
APPID
  2
GENIUS_GENREC_14
 70
     0
  0
APPID
  2
GENIUS_GENOBJ-N-REC_13
 70
     0
  0
APPID
  2
GENIUS_GENDIMSH_14
 70
     0
  0
APPID
  2
GENIUS_GENOBJ-N-DIM_13
 70
     0
  0
APPID
  2
GENIUS_GENDIM_13
 70
     0
  0
APPID
  2
GENIUS_GENDTOL_13
 70
     0
  0
APPID
  2
GENIUS_GENOLIS_13
 70
     0
  0
APPID
  2
GENIUS_GENOENT_13
 70
     0
  0
APPID
  2
GENIUS_GENOBJ-F-FEM_13
 70
     0
  0
APPID
  2
GENIUS_GENOREF_13
 70
     0
  0
APPID
  2
GENIUS_GEFFEM_13
 70
     0
  0
APPID
  2
GENIUS_GEFFEMP_13
 70
     0
  0
APPID
  2
AD_DRAW
 70
     0
  0
APPID
  2
DESIGNERASSEMBLIES
 70
     0
  0
APPID
  2
ACADM_DIM_EDIT
 70
     0
  0
APPID
  2
AMDT_DM_ADJ
 70
     0
  0
APPID
  2
ITEMNAME
 70
     0
  0
APPID
  2
GENIUS_GENOBJ-N-FIL_13
 70
     0
  0
APPID
  2
GENIUS_GENFIL_13
 70
     0
  0
APPID
  2
GENIUS_GENOBJ-N-CHA_13
 70
     0
  0
APPID
  2
ACAD_NAV_VCDISPLAY
 70
     0
  0
APPID
  2
ACAECLAYERSTANDARD
 70
     0
  0
APPID
  2
LAYER_SCALE
 70
     0
  0
APPID
  2
ASK_MEN_XD
 70
     0
  0
APPID
  2
ACAD_DSTYLE_DIMINSPECT
 70
     0
  0
APPID
  2
ACAD_EXEMPT_FROM_CAD_STANDARDS
 70
     0
  0
APPID
  2
ACAD_MLEADERVER
 70
     0
  0
ENDTAB
  0
TABLE
  2
DIMSTYLE
 70
    27
  0
DIMSTYLE
  2
BIGT
 70
     0
  3

  4

  5
OPEN
  6

  7

 40
1.0
 41
2.2299999999999991
 42
0.5
 43
7.0
 44
1.0
 45
0.0
 46
0.0
 47
0.0
 48
0.01
140
2.7999999999999989
141
0.0
142
0.0
143
25.399999999999999
144
1.0
145
0.0
146
1.0
147
1.0
 71
     0
 72
     0
 73
     0
 74
     0
 75
     0
 76
     0
 77
     3
 78
     9
170
     0
171
     2
172
     1
173
     0
174
     1
175
     0
176
   256
177
   256
178
    40
  0
DIMSTYLE
  2
AM_ISO
 70
     0
  3

  4
"
  5

  6

  7

 40
1.0
 41
2.5
 42
1.0
 43
10.0
 44
1.0
 45
0.0
 46
0.0
 47
0.1
 48
0.1
140
3.5
141
0.0
142
0.0
143
0.0393701
144
1.0
145
0.0
146
0.71
147
1.5
 71
     0
 72
     0
 73
     0
 74
     0
 75
     0
 76
     0
 77
     1
 78
     8
170
     0
171
     2
172
     1
173
     0
174
     0
175
     0
176
   256
177
   256
178
     2
  0
DIMSTYLE
  2
AM_ISO$3
 70
     0
  3

  4
"
  5

  6

  7

 40
1.0
 41
2.5
 42
1.0
 43
10.0
 44
1.0
 45
0.0
 46
0.0
 47
0.1
 48
0.1
140
3.5
141
0.0
142
0.0
143
0.0393701
144
1.0
145
0.0
146
0.71
147
1.5
 71
     0
 72
     0
 73
     0
 74
     1
 75
     0
 76
     0
 77
     1
 78
     8
170
     0
171
     2
172
     0
173
     0
174
     0
175
     0
176
   256
177
   256
178
     2
  0
DIMSTYLE
  2
AM_ISO$4
 70
     0
  3

  4
"
  5

  6

  7

 40
1.0
 41
2.5
 42
1.0
 43
10.0
 44
1.0
 45
0.0
 46
0.0
 47
0.1
 48
0.1
140
3.5
141
0.0
142
0.0
143
0.0393701
144
1.0
145
0.0
146
0.71
147
1.5
 71
     0
 72
     0
 73
     0
 74
     1
 75
     0
 76
     0
 77
     1
 78
     8
170
     0
171
     2
172
     0
173
     0
174
     0
175
     0
176
   256
177
   256
178
     2
  0
DIMSTYLE
  2
AM_ISO$6
 70
     0
  3

  4
"
  5

  6

  7

 40
1.0
 41
2.5
 42
1.0
 43
10.0
 44
1.0
 45
0.0
 46
0.0
 47
0.1
 48
0.1
140
3.5
141
0.0
142
0.0
143
0.0393701
144
1.0
145
0.0
146
0.71
147
1.5
 71
     0
 72
     0
 73
     0
 74
     0
 75
     0
 76
     0
 77
     0
 78
     8
170
     0
171
     2
172
     1
173
     0
174
     0
175
     0
176
   256
177
   256
178
     2
  0
DIMSTYLE
  2
AM_ISO$7
 70
     0
  3

  4
"
  5

  6

  7

 40
1.0
 41
2.5
 42
1.0
 43
10.0
 44
1.0
 45
0.0
 46
0.0
 47
0.1
 48
0.1
140
5.0
141
0.0
142
0.0
143
0.0393701
144
1.0
145
0.0
146
0.71
147
1.5
 71
     0
 72
     0
 73
     0
 74
     0
 75
     0
 76
     0
 77
     1
 78
     8
170
     0
171
     2
172
     1
173
     0
174
     0
175
     0
176
   256
177
   256
178
     2
  0
DIMSTYLE
  2
AM_ISO$SF
 70
     0
  3

  4
"
  5

  6

  7

 40
1.0
 41
2.5
 42
1.0
 43
10.0
 44
1.0
 45
0.0
 46
0.0
 47
0.1
 48
0.1
140
3.5
141
0.0
142
0.0
143
0.0393701
144
1.0
145
0.0
146
0.71
147
1.5
 71
     0
 72
     0
 73
     0
 74
     0
 75
     1
 76
     1
 77
     1
 78
     8
170
     0
171
     2
172
     1
173
     0
174
     0
175
     0
176
   256
177
   256
178
     2
  0
DIMSTYLE
  2
AM_ISO$SH
 70
     0
  3

  4
"
  5

  6
GENAXEH
  7

 40
1.0
 41
2.5
 42
1.0
 43
10.0
 44
1.0
 45
0.0
 46
0.0
 47
0.1
 48
0.1
140
3.5
141
0.0
142
0.0
143
0.0393701
144
2.0
145
0.0
146
0.71
147
1.5
 71
     0
 72
     0
 73
     0
 74
     0
 75
     1
 76
     1
 77
     1
 78
     8
170
     0
171
     2
172
     1
173
     1
174
     0
175
     0
176
   256
177
   256
178
     2
  0
DIMSTYLE
  2
BIGT$2
 70
     0
  3

  4

  5
OPEN
  6

  7

 40
1.0
 41
2.2299999999999991
 42
0.5
 43
7.0
 44
1.0
 45
0.0
 46
0.0
 47
0.0
 48
0.01
140
2.7999999999999989
141
0.0
142
0.0
143
25.399999999999999
144
1.0
145
0.0
146
1.0
147
1.0
 71
     0
 72
     0
 73
     0
 74
     0
 75
     0
 76
     0
 77
     3
 78
     9
170
     0
171
     2
172
     1
173
     0
174
     0
175
     0
176
   256
177
   256
178
    40
  0
DIMSTYLE
  2
BIGT$3
 70
     0
  3

  4

  5
OPEN
  6

  7

 40
1.0
 41
2.2299999999999991
 42
0.5
 43
2.5
 44
1.0
 45
0.0
 46
0.0
 47
0.0
 48
0.01
140
2.7999999999999989
141
0.0
142
0.0
143
25.399999999999999
144
1.0
145
0.0
146
1.0
147
1.0
 71
     0
 72
     0
 73
     0
 74
     0
 75
     0
 76
     0
 77
     3
 78
     9
170
     0
171
     2
172
     1
173
     0
174
     0
175
     0
176
   256
177
   256
178
    40
  0
DIMSTYLE
  2
BIGT$7
 70
     0
  3

  4

  5
OPEN
  6

  7

 40
0.0
 41
2.2299999999999991
 42
0.5
 43
7.0
 44
1.0
 45
0.0
 46
0.0
 47
0.0
 48
0.01
140
2.7999999999999989
141
0.0
142
0.0
143
25.399999999999999
144
1.0
145
0.0
146
1.0
147
1.0
 71
     0
 72
     0
 73
     0
 74
     0
 75
     0
 76
     0
 77
     3
 78
     9
170
     0
171
     2
172
     0
173
     0
174
     0
175
     0
176
   256
177
   256
178
    40
  0
DIMSTYLE
  2
BIGT$6
 70
     0
  3

  4

  5
OPEN
  6

  7

 40
1.0
 41
2.2299999999999991
 42
0.5
 43
2.5
 44
1.0
 45
0.0
 46
0.0
 47
0.0
 48
0.01
140
2.7999999999999989
141
0.0
142
0.0
143
25.399999999999999
144
1.0
145
0.0
146
1.0
147
1.0
 71
     0
 72
     0
 73
     0
 74
     0
 75
     0
 76
     0
 77
     3
 78
     9
170
     0
171
     2
172
     1
173
     0
174
     0
175
     0
176
   256
177
   256
178
    40
  0
DIMSTYLE
  2
BIGT$0
 70
     0
  3

  4

  5
OPEN
  6

  7

 40
1.0
 41
2.2299999999999991
 42
0.5
 43
7.0
 44
1.0
 45
0.0
 46
0.0
 47
0.0
 48
0.01
140
2.7999999999999989
141
0.0
142
0.0
143
25.399999999999999
144
1.0
145
0.0
146
1.0
147
1.0
 71
     0
 72
     0
 73
     0
 74
     0
 75
     0
 76
     0
 77
     3
 78
     9
170
     0
171
     2
172
     1
173
     0
174
     1
175
     0
176
   256
177
   256
178
    40
  0
DIMSTYLE
  2
BIGT$4
 70
     0
  3

  4

  5
OPEN
  6

  7

 40
1.0
 41
2.2299999999999991
 42
0.5
 43
2.5
 44
1.0
 45
0.0
 46
0.0
 47
0.0
 48
0.01
140
2.7999999999999989
141
0.0
142
0.0
143
25.399999999999999
144
1.0
145
0.0
146
1.0
147
1.0
 71
     0
 72
     0
 73
     0
 74
     0
 75
     0
 76
     0
 77
     3
 78
     9
170
     0
171
     2
172
     1
173
     0
174
     0
175
     0
176
   256
177
   256
178
    40
  0
DIMSTYLE
  2
BIGT$SH
 70
     0
  3

  4

  5
OPEN
  6

  7

 40
1.0
 41
2.2299999999999991
 42
0.5
 43
7.0
 44
1.0
 45
0.0
 46
0.0
 47
0.0
 48
0.0
140
2.7999999999999989
141
0.0
142
0.0
143
25.399999999999999
144
1.0
145
0.0
146
1.0
147
1.0
 71
     0
 72
     0
 73
     0
 74
     0
 75
     0
 76
     0
 77
     3
 78
     9
170
     0
171
     2
172
     1
173
     0
174
     0
175
     0
176
   256
177
   256
178
    40
  0
DIMSTYLE
  2
BIGT$SF
 70
     0
  3

  4

  5
OPEN
  6

  7

 40
1.0
 41
2.2299999999999991
 42
0.5
 43
7.0
 44
1.0
 45
0.0
 46
0.0
 47
0.0
 48
0.0
140
2.7999999999999989
141
0.0
142
0.0
143
25.399999999999999
144
1.0
145
0.0
146
1.0
147
1.0
 71
     0
 72
     0
 73
     0
 74
     0
 75
     0
 76
     0
 77
     3
 78
     9
170
     0
171
     2
172
     1
173
     0
174
     0
175
     0
176
   256
177
   256
178
    40
  0
DIMSTYLE
  2
TECHNICAL_OSAKA
 70
     0
  3

  4
"
  5
OPEN30
  6

  7

 40
1.0
 41
2.5
 42
1.0
 43
10.0
 44
1.0
 45
0.0
 46
0.0
 47
0.1
 48
0.1
140
2.7999999999999989
141
0.0
142
0.0
143
0.0393701
144
1.0
145
0.0
146
0.71
147
1.5
 71
     0
 72
     0
 73
     0
 74
     0
 75
     0
 76
     0
 77
     3
 78
     8
170
     0
171
     2
172
     1
173
     0
174
     0
175
     0
176
   256
177
   256
178
    40
  0
DIMSTYLE
  2
TECHNICAL_OSAKA$3
 70
     0
  3

  4
"
  5
OPEN30
  6

  7

 40
1.0
 41
2.5
 42
1.0
 43
10.0
 44
1.0
 45
0.0
 46
0.0
 47
0.1
 48
0.1
140
2.7999999999999989
141
0.0
142
0.0
143
0.0393701
144
1.0
145
0.0
146
0.71
147
1.5
 71
     0
 72
     0
 73
     0
 74
     1
 75
     0
 76
     0
 77
     3
 78
     8
170
     0
171
     2
172
     0
173
     0
174
     0
175
     0
176
   256
177
   256
178
    40
  0
DIMSTYLE
  2
TECHNICAL_OSAKA$4
 70
     0
  3

  4
"
  5
OPEN30
  6

  7

 40
1.0
 41
2.5
 42
1.0
 43
10.0
 44
1.0
 45
0.0
 46
0.0
 47
0.1
 48
0.1
140
2.7999999999999989
141
0.0
142
0.0
143
0.0393701
144
1.0
145
0.0
146
0.71
147
1.5
 71
     0
 72
     0
 73
     0
 74
     1
 75
     0
 76
     0
 77
     3
 78
     8
170
     0
171
     2
172
     0
173
     0
174
     0
175
     0
176
   256
177
   256
178
    40
  0
DIMSTYLE
  2
TECHNICAL_OSAKA$6
 70
     0
  3

  4
"
  5
OPEN30
  6

  7

 40
1.0
 41
2.5
 42
1.0
 43
10.0
 44
1.0
 45
0.0
 46
0.0
 47
0.1
 48
0.1
140
2.7999999999999989
141
0.0
142
0.0
143
0.0393701
144
1.0
145
0.0
146
0.71
147
1.5
 71
     0
 72
     0
 73
     0
 74
     0
 75
     0
 76
     0
 77
     0
 78
     8
170
     0
171
     2
172
     1
173
     0
174
     0
175
     0
176
   256
177
   256
178
    40
  0
DIMSTYLE
  2
TECHNICAL_OSAKA$7
 70
     0
  3

  4
"
  5
OPEN30
  6

  7

 40
1.0
 41
2.5
 42
1.0
 43
10.0
 44
1.0
 45
0.0
 46
0.0
 47
0.1
 48
0.1
140
2.7999999999999989
141
0.0
142
0.0
143
0.0393701
144
1.0
145
0.0
146
0.71
147
1.5
 71
     0
 72
     0
 73
     0
 74
     0
 75
     0
 76
     0
 77
     3
 78
     8
170
     0
171
     2
172
     1
173
     0
174
     0
175
     0
176
   256
177
   256
178
    40
  0
DIMSTYLE
  2
TECHNICAL_OSAKA$SF
 70
     0
  3

  4
"
  5
OPEN30
  6
OPEN30
  7
OPEN30
 40
1.0
 41
2.5
 42
1.0
 43
10.0
 44
1.0
 45
0.0
 46
0.0
 47
0.1
 48
0.1
140
3.5
141
0.0
142
0.0
143
0.0393701
144
1.0
145
0.0
146
0.71
147
1.5
 71
     0
 72
     0
 73
     0
 74
     0
 75
     1
 76
     1
 77
     3
 78
     8
170
     0
171
     2
172
     1
173
     0
174
     0
175
     0
176
   256
177
   256
178
    40
  0
DIMSTYLE
  2
TECHNICAL_OSAKA$SH
 70
     0
  3

  4
"
  5
OPEN30
  6
GENAXEH
  7
OPEN30
 40
1.0
 41
2.5
 42
1.0
 43
10.0
 44
1.0
 45
0.0
 46
0.0
 47
0.1
 48
0.1
140
3.5
141
0.0
142
0.0
143
0.0393701
144
2.0
145
0.0
146
0.71
147
1.5
 71
     0
 72
     0
 73
     0
 74
     0
 75
     1
 76
     1
 77
     3
 78
     8
170
     0
171
     2
172
     1
173
     1
174
     0
175
     0
176
   256
177
   256
178
    40
  0
DIMSTYLE
  2
STANDARD
 70
     0
  3

  4

  5

  6

  7

 40
1.0
 41
0.18
 42
0.0625
 43
0.38
 44
0.18
 45
0.0
 46
0.0
 47
0.0
 48
0.0
140
0.18
141
0.09
142
0.0
143
25.399999999999999
144
1.0
145
0.0
146
1.0
147
0.09
 71
     0
 72
     0
 73
     1
 74
     1
 75
     0
 76
     0
 77
     0
 78
     0
170
     0
171
     2
172
     0
173
     0
174
     0
175
     0
176
     0
177
     0
178
     0
  0
ENDTAB
  0
ENDSEC
  0
SECTION
  2
BLOCKS
  0
BLOCK
  8
0
  2
$MODEL_SPACE
 70
     0
 10
0.0
 20
0.0
 30
0.0
  3
$MODEL_SPACE
  1

  0
ENDBLK
  5
1C
  8
0
  0
BLOCK
 67
     1
  8
0
  2
$PAPER_SPACE
 70
     0
 10
0.0
 20
0.0
 30
0.0
  3
$PAPER_SPACE
  1

  0
ENDBLK
  5
19
 67
     1
  8
0
  0
BLOCK
  8
0
  2
_OPEN
 70
     0
 10
0.0
 20
0.0
 30
0.0
  3
_OPEN
  1

  0
LINE
  5
4DF8
  8
0
  6
BYBLOCK
 62
     0
 10
-1.0
 20
0.1666666666666666
 30
0.0
 11
0.0
 21
0.0
 31
0.0
  0
LINE
  5
4DF9
  8
0
  6
BYBLOCK
 62
     0
 10
-1.0
 20
-0.1666666666666666
 30
0.0
 11
0.0
 21
0.0
 31
0.0
  0
LINE
  5
4DFA
  8
0
  6
BYBLOCK
 62
     0
 10
0.0
 20
0.0
 30
0.0
 11
-1.0
 21
0.0
 31
0.0
  0
ENDBLK
  5
4DFB
  8
0
  0
BLOCK
  8
0
  2
GENAXEH
 70
     0
 10
0.0
 20
0.0
 30
0.0
  3
GENAXEH
  1

  0
LINE
  5
4E33
  8
0
 10
-1.0
 20
0.0
 30
0.0
 11
1.0
 21
0.0
 31
0.0
  0
ENDBLK
  5
4E34
  8
0
  0
BLOCK
  8
0
  2
_OPEN30
 70
     0
 10
0.0
 20
0.0
 30
0.0
  3
_OPEN30
  1

  0
LINE
  5
4E6F
  8
0
  6
BYBLOCK
 62
     0
 10
-1.0
 20
0.26794919
 30
0.0
 11
0.0
 21
0.0
 31
0.0
  0
LINE
  5
4E70
  8
0
  6
BYBLOCK
 62
     0
 10
0.0
 20
0.0
 30
0.0
 11
-1.0
 21
-0.26794919
 31
0.0
  0
LINE
  5
4E71
  8
0
  6
BYBLOCK
 62
     0
 10
0.0
 20
0.0
 30
0.0
 11
-1.0
 21
0.0
 31
0.0
  0
ENDBLK
  5
4E72
  8
0
  0
BLOCK
  8
0
  2
*U107
 70
     1
 10
0.0
 20
0.0
 30
0.0
  3
*U107
  1

  0
TEXT
  5
4EE6
  8
250
 62
    40
 10
530.1333333333331
 20
281.0
 30
0.0
 40
2.7999999999999989
  1
16
  7
YOKO
  0
ENDBLK
  5
4EE8
  8
0
  0
BLOCK
  8
0
  2
*U108
 70
     1
 10
0.0
 20
0.0
 30
0.0
  3
*U108
  1

  0
TEXT
  5
4EEA
  8
250
 62
    40
 10
373.933333333333
 20
281.0
 30
0.0
 40
2.7999999999999989
  1
294
  7
YOKO
  0
ENDBLK
  5
4EEC
  8
0
  0
BLOCK
  8
0
  2
*U109
 70
     1
 10
0.0
 20
0.0
 30
0.0
  3
*U109
  1

  0
TEXT
  5
4EEE
  8
250
 62
    40
 10
204.4333333333332
 20
281.0
 30
0.0
 40
2.7999999999999989
  1
43.8
  7
YOKO
  0
ENDBLK
  5
4EF0
  8
0
  0
BLOCK
  8
0
  2
*U110
 70
     1
 10
0.0
 20
0.0
 30
0.0
  3
*U110
  1

  0
TEXT
  5
4EF2
  8
250
 62
    40
 10
355.98793333333322
 20
273.99999999999989
 30
0.0
 40
2.7999999999999989
  1
353.8
  7
YOKO
  0
TEXT
  5
4EF3
  8
250
 62
    40
 10
367.98793333333322
 20
274.4661999999999
 30
0.0
 40
1.867599999999999
  1
\U+00B12
  7
YOKO
  0
ENDBLK
  5
4EF5
  8
0
  0
BLOCK
  8
0
  2
*U111
 70
     1
 10
0.0
 20
0.0
 30
0.0
  3
*U111
  1

  0
TEXT
  5
4EF7
  8
250
 62
    40
 10
286.79999999999978
 20
287.99999999999989
 30
0.0
 40
2.7999999999999989
  1
120
  7
YOKO
  0
ENDBLK
  5
4EF9
  8
0
  0
BLOCK
  8
0
  2
*U112
 70
     1
 10
0.0
 20
0.0
 30
0.0
  3
*U112
  1

  0
TEXT
  5
4EFB
  8
250
 62
    40
 10
513.63333333333321
 20
393.0
 30
0.0
 40
2.7999999999999989
  1
17
  7
YOKO
  0
ENDBLK
  5
4EFD
  8
0
  0
BLOCK
  8
0
  2
*U113
 70
     1
 10
0.0
 20
0.0
 30
0.0
  3
*U113
  1

  0
TEXT
  5
4EFF
  8
250
 62
    40
 10
431.29999999999973
 20
393.0
 30
0.0
 40
2.7999999999999989
  1
145
  7
YOKO
  0
ENDBLK
  5
4F01
  8
0
  0
BLOCK
  8
0
  2
*U114
 70
     1
 10
0.0
 20
0.0
 30
0.0
  3
*U114
  1

  0
TEXT
  5
4F03
  8
250
 62
    40
 10
293.04999999999978
 20
393.0
 30
0.0
 40
2.7999999999999989
  1
132
  7
YOKO
  0
ENDBLK
  5
4F05
  8
0
  0
BLOCK
  8
0
  2
*U115
 70
     1
 10
0.0
 20
0.0
 30
0.0
  3
*U115
  1

  0
TEXT
  5
4F07
  8
250
 62
    40
 10
168.86110661070919
 20
225.06513333333339
 30
0.0
 40
2.7999999999999989
  1
20
 50
90.0
  7
YOKO
  0
TEXT
  5
4F08
  8
250
 62
    40
 10
167.1498399440425
 20
230.04273333333339
 30
0.0
 40
1.867599999999999
  1
+0.5
 50
90.0
  7
YOKO
  0
TEXT
  5
4F09
  8
250
 62
    40
 10
169.63997327737579
 20
230.39846666666671
 30
0.0
 40
1.867599999999999
  1
 0
 50
90.0
  7
YOKO
  0
ENDBLK
  5
4F0B
  8
0
  0
BLOCK
  8
0
  2
*U116
 70
     1
 10
0.0
 20
0.0
 30
0.0
  3
*U116
  1

  0
TEXT
  5
4F0D
  8
250
 62
    40
 10
248.5211012462932
 20
339.63714020831083
 30
0.0
 40
2.7999999999999989
  1
R46
 50
8.5237492882708388
  7
YOKO
  0
ENDBLK
  5
4F0F
  8
0
  0
BLOCK
  8
0
  2
*U117
 70
     1
 10
0.0
 20
0.0
 30
0.0
  3
*U117
  1

  0
TEXT
  5
4F11
  8
250
 62
    40
 10
181.51345001880071
 20
249.73251887038691
 30
0.0
 40
2.7999999999999989
  1
R2
 50
313.82284548255399
  7
YOKO
  0
ENDBLK
  5
4F13
  8
0
  0
BLOCK
  8
0
  2
*U118
 70
     1
 10
0.0
 20
0.0
 30
0.0
  3
*U118
  1

  0
TEXT
  5
4F15
  8
250
 62
    40
 10
180.08398600924241
 20
211.956843497416
 30
0.0
 40
2.7999999999999989
  1
R2
 50
50.662437708231579
  7
YOKO
  0
ENDBLK
  5
4F17
  8
0
  0
BLOCK
  8
0
  2
*U119
 70
     1
 10
0.0
 20
0.0
 30
0.0
  3
*U119
  1

  0
TEXT
  5
4F19
  8
250
 62
    40
 10
538.84369978008033
 20
354.97359750999323
 30
0.0
 40
2.7999999999999989
  1
R16
 50
51.444208523624482
  7
YOKO
  0
ENDBLK
  5
4F1B
  8
0
  0
BLOCK
  8
0
  2
*U120
 70
     1
 10
0.0
 20
0.0
 30
0.0
  3
*U120
  1

  0
TEXT
  5
4F1D
  8
250
 62
    40
 10
535.73846095186605
 20
214.11630407954951
 30
0.0
 40
2.7999999999999989
  1
10\U+00B0
 50
353.46694930594469
  7
YOKO
  0
ENDBLK
  5
4F1F
  8
0
  0
BLOCK
  8
0
  2
*U121
 70
     1
 10
0.0
 20
0.0
 30
0.0
  3
*U121
  1

  0
TEXT
  5
4F21
  8
250
 62
    40
 10
507.32666666666671
 20
253.7355922626684
 30
0.0
 40
2.7999999999999989
  1
鍛造後ドリル加工\U+220520
  7
YOKO
  0
ENDBLK
  5
4F23
  8
0
  0
BLOCK
  8
0
  2
*U122
 70
     1
 10
0.0
 20
0.0
 30
0.0
  3
*U122
  1

  0
TEXT
  5
4F25
  8
250
 62
    40
 10
516.58842313169964
 20
239.6330355623673
 30
0.0
 40
2.7999999999999989
  1
R1
 50
35.562553309602137
  7
YOKO
  0
ENDBLK
  5
4F27
  8
0
  0
BLOCK
  8
0
  2
*U123
 70
     1
 10
0.0
 20
0.0
 30
0.0
  3
*U123
  1

  0
TEXT
  5
4F29
  8
250
 62
    40
 10
527.20433567390035
 20
240.6811837136556
 30
0.0
 40
2.7999999999999989
  1
R1
 50
316.0547346904516
  7
YOKO
  0
ENDBLK
  5
4F2B
  8
0
  0
BLOCK
  8
0
  2
*U124
 70
     1
 10
0.0
 20
0.0
 30
0.0
  3
*U124
  1

  0
TEXT
  5
4F2D
  8
250
 62
    40
 10
565.22113333333346
 20
224.8651333333334
 30
0.0
 40
2.7999999999999989
  1
11
 50
90.0
  7
YOKO
  0
TEXT
  5
4F2E
  8
250
 62
    40
 10
563.50986666666665
 20
229.8427333333334
 30
0.0
 40
1.867599999999999
  1
+0.5
 50
90.0
  7
YOKO
  0
TEXT
  5
4F2F
  8
250
 62
    40
 10
566.00000000000011
 20
230.1984666666668
 30
0.0
 40
1.867599999999999
  1
 0
 50
90.0
  7
YOKO
  0
ENDBLK
  5
4F31
  8
0
  0
BLOCK
  8
0
  2
*U125
 70
     1
 10
0.0
 20
0.0
 30
0.0
  3
*U125
  1

  0
TEXT
  5
4F33
  8
250
 62
    40
 10
554.0
 20
236.62666666666689
 30
0.0
 40
2.7999999999999989
  1
バリ厚2
 50
90.0
  7
YOKO
  0
ENDBLK
  5
4F35
  8
0
  0
BLOCK
  8
0
  2
*U126
 70
     1
 10
0.0
 20
0.0
 30
0.0
  3
*U126
  1

  0
TEXT
  5
4F37
  8
250
 62
    40
 10
516.3340535343458
 20
222.45153869425391
 30
0.0
 40
2.7999999999999989
  1
R1
 50
302.87421387004838
  7
YOKO
  0
ENDBLK
  5
4F39
  8
0
  0
BLOCK
  8
0
  2
*U127
 70
     1
 10
0.0
 20
0.0
 30
0.0
  3
*U127
  1

  0
TEXT
  5
4F3B
  8
250
 62
    40
 10
529.13096344823146
 20
219.54192229619039
 30
0.0
 40
2.7999999999999989
  1
R1
 50
69.5109181746556
  7
YOKO
  0
ENDBLK
  5
4F3D
  8
0
  0
BLOCK
  8
0
  2
*U128
 70
     1
 10
0.0
 20
0.0
 30
0.0
  3
*U128
  1

  0
TEXT
  5
4F3F
  8
250
 62
    40
 10
245.03869530775509
 20
333.73317233199941
 30
0.0
 40
2.7999999999999989
  1
R105
 50
346.7952043837152
  7
YOKO
  0
ENDBLK
  5
4F41
  8
0
  0
BLOCK
  8
0
  2
*U129
 70
     1
 10
0.0
 20
0.0
 30
0.0
  3
*U129
  1

  0
TEXT
  5
4F43
  8
250
 62
    40
 10
336.51725821320281
 20
249.02874669717619
 30
0.0
 40
2.7999999999999989
  1
30\U+00B0
 50
344.97116128595962
  7
YOKO
  0
ENDBLK
  5
4F45
  8
0
  0
BLOCK
  8
0
  2
*U130
 70
     1
 10
0.0
 20
0.0
 30
0.0
  3
*U130
  1

  0
TEXT
  5
4F47
  8
250
 62
    40
 10
276.44083189198699
 20
244.35200504189609
 30
0.0
 40
2.7999999999999989
  1
R1.5
 50
64.280242003001646
  7
YOKO
  0
ENDBLK
  5
4F49
  8
0
  0
BLOCK
  8
0
  2
*U131
 70
     1
 10
0.0
 20
0.0
 30
0.0
  3
*U131
  1

  0
TEXT
  5
4F4B
  8
250
 62
    40
 10
277.07934447199852
 20
220.22641477720191
 30
0.0
 40
2.7999999999999989
  1
R1.5
 50
289.90341812710381
  7
YOKO
  0
ENDBLK
  5
4F4D
  8
0
  0
BLOCK
  8
0
  2
*U132
 70
     1
 10
0.0
 20
0.0
 30
0.0
  3
*U132
  1

  0
TEXT
  5
4F4F
  8
250
 62
    40
 10
328.12665613492402
 20
214.5101767270699
 30
0.0
 40
2.7999999999999989
  1
R0.5
 50
54.344503361927082
  7
YOKO
  0
ENDBLK
  5
4F51
  8
0
  0
BLOCK
  8
0
  2
*U133
 70
     1
 10
0.0
 20
0.0
 30
0.0
  3
*U133
  1

  0
TEXT
  5
4F53
  8
250
 62
    40
 10
278.67754841853173
 20
240.7714142454706
 30
0.0
 40
2.7999999999999989
  1
R0.5
 50
31.373167703848669
  7
YOKO
  0
ENDBLK
  5
4F55
  8
0
  0
BLOCK
  8
0
  2
*U134
 70
     1
 10
0.0
 20
0.0
 30
0.0
  3
*U134
  1

  0
TEXT
  5
4F57
  8
250
 62
    40
 10
312.57626898679399
 20
237.37357830761621
 30
0.0
 40
2.7999999999999989
  1
0.058\U+00B0
 50
89.955873623690721
  7
YOKO
  0
ENDBLK
  5
4F59
  8
0
  0
BLOCK
  8
0
  2
*U135
 70
     1
 10
0.0
 20
0.0
 30
0.0
  3
*U135
  1

  0
TEXT
  5
4F5B
  8
250
 62
    40
 10
510.31607438533609
 20
354.9014878182544
 30
0.0
 40
2.7999999999999989
  1
(R9.537)
 50
52.249534595340023
  7
YOKO
  0
ENDBLK
  5
4F5D
  8
0
  0
BLOCK
  8
0
  2
*U136
 70
     1
 10
0.0
 20
0.0
 30
0.0
  3
*U136
  1

  0
TEXT
  5
4F5F
  8
250
 62
    40
 10
508.62726749904459
 20
323.67855224023691
 30
0.0
 40
2.7999999999999989
  1
\U+220520
 50
39.760863955460181
  7
YOKO
  0
ENDBLK
  5
4F61
  8
0
  0
BLOCK
  8
0
  2
*U137
 70
     1
 10
0.0
 20
0.0
 30
0.0
  3
*U137
  1

  0
TEXT
  5
4F63
  8
250
 62
    40
 10
543.3388989045643
 20
223.6644078988389
 30
0.0
 40
2.7999999999999989
  1
R3.5
 50
311.19959141046439
  7
YOKO
  0
ENDBLK
  5
4F65
  8
0
  0
BLOCK
  8
0
  2
*U138
 70
     1
 10
0.0
 20
0.0
 30
0.0
  3
*U138
  1

  0
TEXT
  5
4F67
  8
250
 62
    40
 10
541.66255129016224
 20
239.76567508097969
 30
0.0
 40
2.7999999999999989
  1
R3.5
 50
50.264964748278722
  7
YOKO
  0
ENDBLK
  5
4F69
  8
0
  0
BLOCK
  8
0
  2
*U139
 70
     1
 10
0.0
 20
0.0
 30
0.0
  3
*U139
  1

  0
TEXT
  5
4F6B
  8
250
 62
    40
 10
508.55289104341932
 20
248.25152758282189
 30
0.0
 40
2.7999999999999989
  1
15\U+00B0
 50
8.769099614898062
  7
YOKO
  0
ENDBLK
  5
4F6D
  8
0
  0
BLOCK
  8
0
  2
*U140
 70
     1
 10
0.0
 20
0.0
 30
0.0
  3
*U140
  1

  0
TEXT
  5
4F6F
  8
250
 62
    40
 10
271.06361326604099
 20
231.8704635788821
 30
0.0
 40
2.7999999999999989
  1
2\U+00B0
 50
89.603003311278016
  7
YOKO
  0
ENDBLK
  5
4F71
  8
0
  0
BLOCK
  8
0
  2
*U141
 70
     1
 10
0.0
 20
0.0
 30
0.0
  3
*U141
  1

  0
TEXT
  5
4F73
  8
250
 62
    40
 10
557.06463488039435
 20
237.2103494234274
 30
0.0
 40
2.7999999999999989
  1
R16
 50
9.2068962213460761
  7
YOKO
  0
ENDBLK
  5
4F75
  8
0
  0
BLOCK
  8
0
  2
*U142
 70
     1
 10
0.0
 20
0.0
 30
0.0
  3
*U142
  1

  0
TEXT
  5
4F77
  8
250
 62
    40
 10
270.29995939705128
 20
333.7759905189219
 30
0.0
 40
2.7999999999999989
  1
16\U+00B0
 50
89.607579298122417
  7
YOKO
  0
ENDBLK
  5
4F79
  8
0
  0
BLOCK
  8
0
  2
*U143
 70
     1
 10
0.0
 20
0.0
 30
0.0
  3
*U143
  1

  0
TEXT
  5
4F7B
  8
250
 62
    40
 10
337.57177058533603
 20
351.23760482500609
 30
0.0
 40
2.7999999999999989
  1
4-R2.5
 50
57.318012293489119
  7
YOKO
  0
ENDBLK
  5
4F7D
  8
0
  0
BLOCK
  8
0
  2
*U144
 70
     1
 10
0.0
 20
0.0
 30
0.0
  3
*U144
  1

  0
TEXT
  5
4F7F
  8
250
 62
    40
 10
294.57523996216389
 20
312.78840381227178
 30
0.0
 40
2.7999999999999989
  1
6
 50
278.00000000000131
  7
YOKO
  0
ENDBLK
  5
4F81
  8
0
  0
BLOCK
  8
0
  2
*U145
 70
     1
 10
0.0
 20
0.0
 30
0.0
  3
*U145
  1

  0
TEXT
  5
4F83
  8
250
 62
    40
 10
305.47914422274931
 20
359.69880752646759
 30
0.0
 40
2.7999999999999989
  1
6
 50
81.999999999999119
  7
YOKO
  0
ENDBLK
  5
4F85
  8
0
  0
BLOCK
  8
0
  2
*U146
 70
     1
 10
0.0
 20
0.0
 30
0.0
  3
*U146
  1

  0
TEXT
  5
4F87
  8
250
 62
    40
 10
378.82615430860727
 20
350.31942908654611
 30
0.0
 40
2.7999999999999989
  1
(R7.3)
 50
51.64398130669354
  7
YOKO
  0
ENDBLK
  5
4F89
  8
0
  0
BLOCK
  8
0
  2
*U147
 70
     1
 10
0.0
 20
0.0
 30
0.0
  3
*U147
  1

  0
TEXT
  5
4F8B
  8
250
 62
    40
 10
351.2228429916529
 20
363.79655712232619
 30
0.0
 40
2.7999999999999989
  1
R100
 50
87.451659754357635
  7
YOKO
  0
ENDBLK
  5
4F8D
  8
0
  0
BLOCK
  8
0
  2
*U148
 70
     1
 10
0.0
 20
0.0
 30
0.0
  3
*U148
  1

  0
TEXT
  5
4F8F
  8
250
 62
    40
 10
299.13333333333401
 20
-55.0
 30
0.0
 40
2.7999999999999989
  1
16
  0
ENDBLK
  5
4F91
  8
0
  0
BLOCK
  8
0
  2
*U149
 70
     1
 10
0.0
 20
0.0
 30
0.0
  3
*U149
  1

  0
TEXT
  5
4F93
  8
250
 62
    40
 10
142.9333333333341
 20
-55.0
 30
0.0
 40
2.7999999999999989
  1
294
  0
ENDBLK
  5
4F95
  8
0
  0
BLOCK
  8
0
  2
*U150
 70
     1
 10
0.0
 20
0.0
 30
0.0
  3
*U150
  1

  0
TEXT
  5
4F97
  8
250
 62
    40
 10
-26.566666666665839
 20
-55.0
 30
0.0
 40
2.7999999999999989
  1
43.8
  0
ENDBLK
  5
4F99
  8
0
  0
BLOCK
  8
0
  2
*U151
 70
     1
 10
0.0
 20
0.0
 30
0.0
  3
*U151
  1

  0
TEXT
  5
4F9B
  8
250
 62
    40
 10
124.0333333333341
 20
-62.000000000000007
 30
0.0
 40
2.7999999999999989
  1
353.8\U+00B12
  0
ENDBLK
  5
4F9D
  8
0
  0
BLOCK
  8
0
  2
*U152
 70
     1
 10
0.0
 20
0.0
 30
0.0
  3
*U152
  1

  0
TEXT
  5
4F9F
  8
250
 62
    40
 10
55.800000000000807
 20
-48.0
 30
0.0
 40
2.7999999999999989
  1
120
  0
ENDBLK
  5
4FA1
  8
0
  0
BLOCK
  8
0
  2
*U153
 70
     1
 10
0.0
 20
0.0
 30
0.0
  3
*U153
  1

  0
TEXT
  5
4FA3
  8
250
 62
    40
 10
282.63333333333441
 20
57.0
 30
0.0
 40
2.7999999999999989
  1
17
  0
ENDBLK
  5
4FA5
  8
0
  0
BLOCK
  8
0
  2
*U154
 70
     1
 10
0.0
 20
0.0
 30
0.0
  3
*U154
  1

  0
TEXT
  5
4FA7
  8
250
 62
    40
 10
200.30000000000081
 20
57.0
 30
0.0
 40
2.7999999999999989
  1
145
  0
ENDBLK
  5
4FA9
  8
0
  0
BLOCK
  8
0
  2
*U155
 70
     1
 10
0.0
 20
0.0
 30
0.0
  3
*U155
  1

  0
TEXT
  5
4FAB
  8
250
 62
    40
 10
62.0500000000008
 20
57.0
 30
0.0
 40
2.7999999999999989
  1
132
  0
ENDBLK
  5
4FAD
  8
0
  0
BLOCK
  8
0
  2
*U156
 70
     1
 10
0.0
 20
0.0
 30
0.0
  3
*U156
  1

  0
TEXT
  5
4FAF
  8
250
 62
    40
 10
-63.226693389289679
 20
-112.4666666666667
 30
0.0
 40
2.7999999999999989
  1
20
 50
90.0
  0
TEXT
  5
4FB0
  8
250
 62
    40
 10
-65.093360055956353
 20
-107.6666666666666
 30
0.0
 40
2.7999999999999989
  1
+0.5
 50
90.0
  0
TEXT
  5
4FB1
  8
250
 62
    40
 10
-61.360026722623033
 20
-107.1333333333333
 30
0.0
 40
2.7999999999999989
  1
 0
 50
90.0
  0
ENDBLK
  5
4FB3
  8
0
  0
BLOCK
  8
0
  2
*U157
 70
     1
 10
0.0
 20
0.0
 30
0.0
  3
*U157
  1

  0
TEXT
  5
4FB5
  8
250
 62
    40
 10
17.407371477538891
 20
3.6200949832062981
 30
0.0
 40
2.7999999999999989
  1
R46
 50
8.523749288270789
  0
ENDBLK
  5
4FB7
  8
0
  0
BLOCK
  8
0
  2
*U158
 70
     1
 10
0.0
 20
0.0
 30
0.0
  3
*U158
  1

  0
TEXT
  5
4FB9
  8
250
 62
    40
 10
-49.486549981198131
 20
-86.267481129612989
 30
0.0
 40
2.7999999999999989
  1
R2
 50
313.82284548255319
  0
ENDBLK
  5
4FBB
  8
0
  0
BLOCK
  8
0
  2
*U159
 70
     1
 10
0.0
 20
0.0
 30
0.0
  3
*U159
  1

  0
TEXT
  5
4FBD
  8
250
 62
    40
 10
-50.916013990756547
 20
-124.043156502584
 30
0.0
 40
2.7999999999999989
  1
R2
 50
50.662437708231579
  0
ENDBLK
  5
4FBF
  8
0
  0
BLOCK
  8
0
  2
*U160
 70
     1
 10
0.0
 20
0.0
 30
0.0
  3
*U160
  1

  0
TEXT
  5
4FC1
  8
250
 62
    40
 10
307.84369978008141
 20
18.973597509993269
 30
0.0
 40
2.7999999999999989
  1
R16
 50
51.444208523624752
  0
ENDBLK
  5
4FC3
  8
0
  0
BLOCK
  8
0
  2
*U161
 70
     1
 10
0.0
 20
0.0
 30
0.0
  3
*U161
  1

  0
TEXT
  5
4FC5
  8
250
 62
    40
 10
304.73846095186713
 20
-121.88369592045041
 30
0.0
 40
2.7999999999999989
  1
10\U+00B0
 50
353.46694930594469
  0
ENDBLK
  5
4FC7
  8
0
  0
BLOCK
  8
0
  2
*U162
 70
     1
 10
0.0
 20
0.0
 30
0.0
  3
*U162
  1

  0
TEXT
  5
4FC9
  8
250
 62
    40
 10
276.32666666666762
 20
-82.264407737331553
 30
0.0
 40
2.7999999999999989
  1
鍛造後ドリル加工\U+220520
  0
ENDBLK
  5
4FCB
  8
0
  0
BLOCK
  8
0
  2
*U163
 70
     1
 10
0.0
 20
0.0
 30
0.0
  3
*U163
  1

  0
TEXT
  5
4FCD
  8
250
 62
    40
 10
285.76654120628677
 20
-96.239620418634431
 30
0.0
 40
2.7999999999999989
  1
R1
 50
35.562553309601419
  0
ENDBLK
  5
4FCF
  8
0
  0
BLOCK
  8
0
  2
*U164
 70
     1
 10
0.0
 20
0.0
 30
0.0
  3
*U164
  1

  0
TEXT
  5
4FD1
  8
250
 62
    40
 10
296.2043356739016
 20
-95.318816286344216
 30
0.0
 40
2.7999999999999989
  1
R1
 50
316.0547346904504
  0
ENDBLK
  5
4FD3
  8
0
  0
BLOCK
  8
0
  2
*U165
 70
     1
 10
0.0
 20
0.0
 30
0.0
  3
*U165
  1

  0
TEXT
  5
4FD5
  8
250
 62
    40
 10
334.22113333333431
 20
-111.1348666666666
 30
0.0
 40
2.7999999999999989
  1
11
 50
90.0
  0
TEXT
  5
4FD6
  8
250
 62
    40
 10
332.50986666666762
 20
-106.1572666666666
 30
0.0
 40
1.867599999999999
  1
+0.5
 50
90.0
  0
TEXT
  5
4FD7
  8
250
 62
    40
 10
335.00000000000091
 20
-105.8015333333333
 30
0.0
 40
1.867599999999999
  1
 0
 50
90.0
  0
ENDBLK
  5
4FD9
  8
0
  0
BLOCK
  8
0
  2
*U166
 70
     1
 10
0.0
 20
0.0
 30
0.0
  3
*U166
  1

  0
TEXT
  5
4FDB
  8
250
 62
    40
 10
323.00000000000108
 20
-98.913333333333156
 30
0.0
 40
2.7999999999999989
  1
バリ厚2
 50
90.0
  0
ENDBLK
  5
4FDD
  8
0
  0
BLOCK
  8
0
  2
*U167
 70
     1
 10
0.0
 20
0.0
 30
0.0
  3
*U167
  1

  0
TEXT
  5
4FDF
  8
250
 62
    40
 10
285.5837399342945
 20
-113.93479885463459
 30
0.0
 40
2.7999999999999989
  1
R1
 50
302.87421387004838
  0
ENDBLK
  5
4FE1
  8
0
  0
BLOCK
  8
0
  2
*U168
 70
     1
 10
0.0
 20
0.0
 30
0.0
  3
*U168
  1

  0
TEXT
  5
4FE3
  8
250
 62
    40
 10
298.13096344823242
 20
-116.45807770380959
 30
0.0
 40
2.7999999999999989
  1
R1
 50
69.510918174655316
  0
ENDBLK
  5
4FE5
  8
0
  0
BLOCK
  8
0
  2
*U169
 70
     1
 10
0.0
 20
0.0
 30
0.0
  3
*U169
  1

  0
TEXT
  5
4FE7
  8
250
 62
    40
 10
14.03869530775618
 20
-2.2668276680005901
 30
0.0
 40
2.7999999999999989
  1
R105
 50
346.79520438371532
  0
ENDBLK
  5
4FE9
  8
0
  0
BLOCK
  8
0
  2
*U170
 70
     1
 10
0.0
 20
0.0
 30
0.0
  3
*U170
  1

  0
TEXT
  5
4FEB
  8
250
 62
    40
 10
105.5172582132036
 20
-86.971253302823797
 30
0.0
 40
2.7999999999999989
  1
30\U+00B0
 50
344.97116128595968
  0
ENDBLK
  5
4FED
  8
0
  0
BLOCK
  8
0
  2
*U171
 70
     1
 10
0.0
 20
0.0
 30
0.0
  3
*U171
  1

  0
TEXT
  5
4FEF
  8
250
 62
    40
 10
45.440831891988061
 20
-91.647994958103922
 30
0.0
 40
2.7999999999999989
  1
R1.5
 50
64.280242003001419
  0
ENDBLK
  5
4FF1
  8
0
  0
BLOCK
  8
0
  2
*U172
 70
     1
 10
0.0
 20
0.0
 30
0.0
  3
*U172
  1

  0
TEXT
  5
4FF3
  8
250
 62
    40
 10
46.235944868659899
 20
-116.20610841959321
 30
0.0
 40
2.7999999999999989
  1
R1.5
 50
289.90341812710182
  0
ENDBLK
  5
4FF5
  8
0
  0
BLOCK
  8
0
  2
*U173
 70
     1
 10
0.0
 20
0.0
 30
0.0
  3
*U173
  1

  0
TEXT
  5
4FF7
  8
250
 62
    40
 10
102.6740188291828
 20
-113.757183905754
 30
0.0
 40
2.7999999999999989
  1
R0.5
 50
54.34450336193084
  0
ENDBLK
  5
4FF9
  8
0
  0
BLOCK
  8
0
  2
*U174
 70
     1
 10
0.0
 20
0.0
 30
0.0
  3
*U174
  1

  0
TEXT
  5
4FFB
  8
250
 62
    40
 10
39.552268869376192
 20
-100.18305612910071
 30
0.0
 40
2.7999999999999989
  1
R0.5
 50
31.373167703854069
  0
ENDBLK
  5
4FFD
  8
0
  0
BLOCK
  8
0
  2
*U175
 70
     1
 10
0.0
 20
0.0
 30
0.0
  3
*U175
  1

  0
TEXT
  5
4FFF
  8
250
 62
    40
 10
81.576468084780856
 20
-98.396391091224004
 30
0.0
 40
2.7999999999999989
  1
0.058\U+00B0
 50
89.954115542517783
  0
ENDBLK
  5
5001
  8
0
  0
BLOCK
  8
0
  2
*U176
 70
     1
 10
0.0
 20
0.0
 30
0.0
  3
*U176
  1

  0
TEXT
  5
5003
  8
250
 62
    40
 10
279.316074385337
 20
18.901487818254392
 30
0.0
 40
2.7999999999999989
  1
(R9.537)
 50
52.249534595340023
  0
ENDBLK
  5
5005
  8
0
  0
BLOCK
  8
0
  2
*U177
 70
     1
 10
0.0
 20
0.0
 30
0.0
  3
*U177
  1

  0
TEXT
  5
5007
  8
250
 62
    40
 10
277.45046176723798
 20
-12.46855225731445
 30
0.0
 40
2.7999999999999989
  1
\U+220520
 50
39.760863955460422
  0
ENDBLK
  5
5009
  8
0
  0
BLOCK
  8
0
  2
*U178
 70
     1
 10
0.0
 20
0.0
 30
0.0
  3
*U178
  1

  0
TEXT
  5
500B
  8
250
 62
    40
 10
312.64189358801531
 20
-112.6817051199874
 30
0.0
 40
2.7999999999999989
  1
R3.5
 50
311.19959141046479
  0
ENDBLK
  5
500D
  8
0
  0
BLOCK
  8
0
  2
*U179
 70
     1
 10
0.0
 20
0.0
 30
0.0
  3
*U179
  1

  0
TEXT
  5
500F
  8
250
 62
    40
 10
310.9566008487717
 20
-95.880580863123697
 30
0.0
 40
2.7999999999999989
  1
R3.5
 50
50.264964748278722
  0
ENDBLK
  5
5011
  8
0
  0
BLOCK
  8
0
  2
*U180
 70
     1
 10
0.0
 20
0.0
 30
0.0
  3
*U180
  1

  0
TEXT
  5
5013
  8
250
 62
    40
 10
277.5528910434204
 20
-87.748472417178135
 30
0.0
 40
2.7999999999999989
  1
15\U+00B0
 50
8.7690996148982272
  0
ENDBLK
  5
5015
  8
0
  0
BLOCK
  8
0
  2
*U181
 70
     1
 10
0.0
 20
0.0
 30
0.0
  3
*U181
  1

  0
TEXT
  5
5017
  8
250
 62
    40
 10
40.063613266041934
 20
-104.1295364211179
 30
0.0
 40
2.7999999999999989
  1
2\U+00B0
 50
89.603003311278016
  0
ENDBLK
  5
5019
  8
0
  0
BLOCK
  8
0
  2
*U182
 70
     1
 10
0.0
 20
0.0
 30
0.0
  3
*U182
  1

  0
TEXT
  5
501B
  8
250
 62
    40
 10
326.06463488039572
 20
-98.789650576572754
 30
0.0
 40
2.7999999999999989
  1
R16
 50
9.2068962213460246
  0
ENDBLK
  5
501D
  8
0
  0
BLOCK
  8
0
  2
*U183
 70
     1
 10
0.0
 20
0.0
 30
0.0
  3
*U183
  1

  0
TEXT
  5
501F
  8
250
 62
    40
 10
39.29995939705227
 20
-2.224009481077966
 30
0.0
 40
2.7999999999999989
  1
16\U+00B0
 50
89.607579298122417
  0
ENDBLK
  5
5021
  8
0
  0
BLOCK
  8
0
  2
*U184
 70
     1
 10
0.0
 20
0.0
 30
0.0
  3
*U184
  1

  0
TEXT
  5
5023
  8
250
 62
    40
 10
106.57177058533711
 20
15.23760482500604
 30
0.0
 40
2.7999999999999989
  1
4-R2.5
 50
57.318012293488941
  0
ENDBLK
  5
5025
  8
0
  0
BLOCK
  8
0
  2
*U185
 70
     1
 10
0.0
 20
0.0
 30
0.0
  3
*U185
  1

  0
TEXT
  5
5027
  8
250
 62
    40
 10
63.91760579052665
 20
-25.6476556368325
 30
0.0
 40
2.7999999999999989
  1
6
 50
278.00000000000131
  0
ENDBLK
  5
5029
  8
0
  0
BLOCK
  8
0
  2
*U186
 70
     1
 10
0.0
 20
0.0
 30
0.0
  3
*U186
  1

  0
TEXT
  5
502B
  8
250
 62
    40
 10
74.543163849192055
 20
24.154330838088718
 30
0.0
 40
2.7999999999999989
  1
6
 50
81.999999999999119
  0
ENDBLK
  5
502D
  8
0
  0
BLOCK
  8
0
  2
*U187
 70
     1
 10
0.0
 20
0.0
 30
0.0
  3
*U187
  1

  0
TEXT
  5
502F
  8
250
 62
    40
 10
147.8261543086081
 20
14.31942908654622
 30
0.0
 40
2.7999999999999989
  1
(R7.3)
 50
51.643981306694158
  0
ENDBLK
  5
5031
  8
0
  0
BLOCK
  8
0
  2
*U188
 70
     1
 10
0.0
 20
0.0
 30
0.0
  3
*U188
  1

  0
TEXT
  5
5033
  8
250
 62
    40
 10
120.22284299165381
 20
27.79655712232616
 30
0.0
 40
2.7999999999999989
  1
R100
 50
87.45165975435755
  0
ENDBLK
  5
5035
  8
0
  0
BLOCK
  8
0
  2
*U189
 70
     1
 10
0.0
 20
0.0
 30
0.0
  3
*U189
  1

  0
TEXT
  5
5037
  8
240
 62
    40
 10
-3.9333333333323082
 20
113.0
 30
0.0
 40
2.7999999999999989
  1
\U+220562
  0
ENDBLK
  5
5039
  8
0
  0
BLOCK
  8
0
  2
*U190
 70
     1
 10
0.0
 20
0.0
 30
0.0
  3
*U190
  1

  0
TEXT
  5
503B
  8
240
 62
    40
 10
127.1000000000008
 20
64.000000000000014
 30
0.0
 40
2.7999999999999989
  1
353.8
  0
ENDBLK
  5
503D
  8
0
  0
BLOCK
  8
0
  2
*U191
 70
     1
 10
0.0
 20
0.0
 30
0.0
  3
*U191
  1

  0
TEXT
  5
503F
  8
240
 62
    40
 10
-26.566666666665839
 20
57.0
 30
0.0
 40
2.7999999999999989
  1
43.8
  0
ENDBLK
  5
5041
  8
0
  0
BLOCK
  8
0
  2
*U192
 70
     1
 10
0.0
 20
0.0
 30
0.0
  3
*U192
  1

  0
TEXT
  5
5043
  8
240
 62
    40
 10
151.0000000000008
 20
57.0
 30
0.0
 40
2.7999999999999989
  1
310
  0
ENDBLK
  5
5045
  8
0
  0
ENDSEC
  0
SECTION
  2
ENTITIES
  0
LINE
  5
4649
  8
245
  6
CENTER2
 10
-46.163801730593228
 20
0.0
 30
0.0
 11
314.14278039191493
 21
0.0
 31
0.0
  0
LINE
  5
464A
  8
245
  6
CENTER2
 10
-44.788167181737812
 20
91.0
 30
0.0
 11
321.74702039545218
 21
91.000000000000057
 31
0.0
  0
LINE
  5
464C
  8
245
  6
CENTER2
 10
0.0000000000008242
 20
45.67099199706194
 30
0.0
 11
0.0000000000008242
 21
-45.068392009916913
 31
0.0
  0
LINE
  5
464D
  8
245
  6
CENTER2
 10
0.0000000000010232
 20
103.0924692851252
 30
0.0
 11
0.0000000000010232
 21
78.529422140724733
 31
0.0
  0
LINE
  5
4661
  8
240
  6
CONTINUOUS
 10
-40.572248296087821
 20
101.0000000000001
 30
0.0
 11
40.572248296089917
 21
101.0000000000001
 31
0.0
  0
LINE
  5
4662
  8
240
  6
CONTINUOUS
 10
-40.572248296087871
 20
81.0
 30
0.0
 11
40.572248296089917
 21
81.0
 31
0.0
  0
CIRCLE
  5
4664
  8
241
  6
CONTINUOUS
 10
0.0000000000008242
 20
0.0
 30
0.0
 40
42.0
  0
ARC
  5
4665
  8
240
  6
CONTINUOUS
 10
0.0000000000008242
 20
0.0
 30
0.0
 40
43.79999999999999
 50
49.793214812716307
 51
310.20678518728357
  0
ARC
  5
4666
  8
240
  6
CONTINUOUS
 10
60.552415050855871
 20
71.636897137641199
 30
0.0
 40
50.0
 50
229.79321481271629
 51
261.9999999999992
1001
ASK_MEN_XD
1005
489C
1070
     1
1005
4665
1070
     1
  0
ARC
  5
4667
  8
241
  6
CONTINUOUS
 10
0.0000000000008242
 20
0.0
 30
0.0
 40
46.0
 50
342.51673787949869
 51
17.48326212050133
  0
ARC
  5
4668
  8
241
  6
CONTINUOUS
 10
46.259530645131349
 20
-14.57071804998747
 30
0.0
 40
2.5
 50
162.51673787949861
 51
278.00000000000091
1001
ASK_MEN_XD
1005
48A2
1070
     1
1005
4667
1070
     1
  0
ARC
  5
4669
  8
241
  6
CONTINUOUS
 10
46.259530645131349
 20
14.57071804998747
 30
0.0
 40
2.5
 50
81.999999999999119
 51
197.48326212050131
1001
ASK_MEN_XD
1005
4667
1070
     1
1005
48A0
1070
     1
  0
ARC
  5
466D
  8
240
  6
CONTINUOUS
 10
15.12222222222317
 20
91.0
 30
0.0
 40
28.677777777777841
 50
342.54990138190612
 51
343.98728613582063
  0
ARC
  5
466E
  8
240
  6
CONTINUOUS
 10
44.1291175729678
 20
82.675440329009064
 30
0.0
 40
1.5
 50
90.999999999998494
 51
163.98728613582051
1001
ASK_MEN_XD
1005
466D
1070
     1
1005
46BD
1070
     1
  0
ARC
  5
466F
  8
240
  6
CONTINUOUS
 10
15.12222222222317
 20
91.0
 30
0.0
 40
28.677777777777841
 50
16.01271386417946
 51
17.450098618090522
  0
ARC
  5
4670
  8
240
  6
CONTINUOUS
 10
44.1291175729678
 20
99.324559670990908
 30
0.0
 40
1.5
 50
196.0127138641794
 51
269.00000000000148
1001
ASK_MEN_XD
1005
46BB
1070
     1
1005
466F
1070
     1
  0
ARC
  5
4673
  8
241
  6
CONTINUOUS
 10
0.0000000000010232
 20
0.0
 30
0.0
 40
43.033754112393318
 50
329.99170235292559
 51
27.367093194542949
  0
ARC
  5
4675
  8
240
  6
CONTINUOUS
 10
-15.12222222222117
 20
91.000000000000043
 30
0.0
 40
28.677777777777791
 50
162.54990138190939
 51
197.45009861809049
  0
ARC
  5
4676
  8
240
  6
CONTINUOUS
 10
-40.572248296087871
 20
83.0
 30
0.0
 40
2.0
 50
197.45009861809049
 51
270.0
  0
ARC
  5
4677
  8
240
  6
CONTINUOUS
 10
-40.572248296087821
 20
99.000000000000142
 30
0.0
 40
2.0
 50
90.0
 51
162.54990138190939
  0
ARC
  5
467A
  8
240
  6
CONTINUOUS
 10
40.572248296089917
 20
99.000000000000142
 30
0.0
 40
2.0
 50
17.450098618090522
 51
90.0
  0
ARC
  5
467B
  8
240
  6
CONTINUOUS
 10
40.572248296089917
 20
83.0
 30
0.0
 40
2.0
 50
270.0
 51
342.54990138190612
  0
LINE
  5
467C
  8
241
  6
CONTINUOUS
 10
120.0000000000008
 20
13.100504777138781
 30
0.0
 11
120.0000000000008
 21
-13.100504777138781
 31
0.0
  0
ARC
  5
467D
  8
240
  6
CONTINUOUS
 10
294.0000000000008
 20
0.0
 30
0.0
 40
16.0
 50
269.00000000000148
 51
90.999999999998494
  0
LINE
  5
467E
  8
240
  6
CONTINUOUS
 10
293.72076149700467
 20
15.997563122502299
 30
0.0
 11
126.7641924016107
 21
13.08332536875389
 31
0.0
  0
ARC
  5
467F
  8
240
  6
CONTINUOUS
 10
125.01895175788481
 20
113.0680948843931
 30
0.0
 40
100.0
 50
261.9999999999992
 51
270.99999999999852
1001
ASK_MEN_XD
1005
489C
1070
     1
1005
467E
1070
     1
  0
LINE
  5
4680
  8
240
  6
CONTINUOUS
 10
293.72076149700467
 20
-15.997563122502299
 30
0.0
 11
126.7641924016079
 21
-13.083325368754171
 31
0.0
  0
ARC
  5
4681
  8
240
  6
CONTINUOUS
 10
125.01895175788221
 20
-113.0680948843933
 30
0.0
 40
100.0
 50
89.000000000001506
 51
98.000000000000895
1001
ASK_MEN_XD
1005
489E
1070
     1
1005
4680
1070
     1
  0
LINE
  5
4682
  8
245
  6
CENTER2
 10
294.00000000000068
 20
-21.0031988889221
 30
0.0
 11
294.0000000000008
 21
21.00319888892216
 31
0.0
  0
LINE
  5
4683
  8
241
  6
CONTINUOUS
 10
267.29669090943429
 20
-9.5354152864656498
 30
0.0
 11
139.17271015716511
 21
-7.2990028835765202
 31
0.0
  0
LINE
  5
4684
  8
241
  6
CONTINUOUS
 10
267.29669090943429
 20
9.5354152864657067
 30
0.0
 11
139.17271015716511
 21
7.2990028835766898
 31
0.0
  0
LINE
  5
4689
  8
241
  6
CONTINUOUS
 10
309.96871942267228
 20
92.000000000000085
 30
0.0
 11
-43.782559594129509
 21
92.000000000000014
 31
0.0
  0
LINE
  5
468A
  8
241
  6
CONTINUOUS
 10
309.96871942267228
 20
90.0
 30
0.0
 11
-43.782559594129502
 21
90.0
 31
0.0
  0
ARC
  5
468B
  8
240
  6
CONTINUOUS
 10
294.00000000000102
 20
91.0
 30
0.0
 40
16.0
 50
350.79310377865272
 51
9.2068962213440528
  0
ARC
  5
468C
  8
240
  6
CONTINUOUS
 10
306.33896267925411
 20
89.0
 30
0.0
 40
3.5
 50
270.0
 51
350.79310377865272
1001
ASK_MEN_XD
1005
4690
1070
     1
1005
468B
1070
     1
  0
ARC
  5
468D
  8
240
  6
CONTINUOUS
 10
306.33896267925411
 20
93.0
 30
0.0
 40
3.5
 50
9.2068962213440528
 51
90.0
1001
ASK_MEN_XD
1005
468B
1070
     1
1005
468E
1070
     1
  0
LINE
  5
468E
  8
240
  6
CONTINUOUS
 10
306.33896267925411
 20
96.499999999999986
 30
0.0
 11
120.8726867790762
 21
96.500000000000028
 31
0.0
  0
ARC
  5
468F
  8
240
  6
CONTINUOUS
 10
120.8726867790762
 20
196.5
 30
0.0
 40
100.0
 50
268.99999999999977
 51
270.0
1001
ASK_MEN_XD
1005
46BB
1070
     1
1005
468E
1070
     1
  0
LINE
  5
4690
  8
240
  6
CONTINUOUS
 10
306.33896267925411
 20
85.499999999999986
 30
0.0
 11
120.8726867790762
 21
85.5
 31
0.0
  0
LINE
  5
46BB
  8
240
  6
CONTINUOUS
 10
119.1274461353479
 20
96.515230484360885
 30
0.0
 11
44.102938963311892
 21
97.82478812825633
 31
0.0
  0
ARC
  5
46BC
  8
240
  6
CONTINUOUS
 10
120.8726867790762
 20
-14.50000000000003
 30
0.0
 40
100.0
 50
90.0
 51
91.000000000000128
1001
ASK_MEN_XD
1005
46BB
1070
     1
1005
468E
1070
     1
  0
LINE
  5
46BD
  8
240
  6
CONTINUOUS
 10
119.1274461353479
 20
85.484769515639115
 30
0.0
 11
44.102938963311892
 21
84.17521187174367
 31
0.0
  0
ARC
  5
46C0
  8
241
  6
CONTINUOUS
 10
0.0000000000011937
 20
-0.0000000000001705
 30
0.0
 40
105.0
 50
356.25358571855031
 51
3.746414281449717
  0
ARC
  5
46C1
  8
241
  6
CONTINUOUS
 10
102.2809589741597
 20
-6.6974197514047091
 30
0.0
 40
2.5
 50
278.00000000000091
 51
356.25358571855031
1001
ASK_MEN_XD
1005
48A2
1070
     1
1005
46C0
1070
     1
  0
ARC
  5
46C2
  8
241
  6
CONTINUOUS
 10
102.2809589741597
 20
6.6974197514048788
 30
0.0
 40
2.5
 50
3.746414281449717
 51
81.999999999999119
1001
ASK_MEN_XD
1005
46C0
1070
     1
1005
48A0
1070
     1
  0
CIRCLE
  5
46D4
  8
241
  6
CONTINUOUS
 10
294.00000000000091
 20
0.0000000000002842
 30
0.0
 40
10.0
  0
ARC
  5
46D5
  8
241
  6
CONTINUOUS
 10
267.46313220237681
 20
0.0
 30
0.0
 40
9.5368677976240406
 50
269.00000000000148
 51
90.999999999998494
  0
POINT
  5
46DB
  8
0
  6
CONTINUOUS
 62
     7
 10
72.342421319276113
 20
5.5449281132387114
 30
0.0
  0
POINT
  5
471C
  8
0
  6
CONTINUOUS
 62
     7
 10
50.38612802240516
 20
13.041666666666631
 30
0.0
 50
90.0
  0
POINT
  5
471D
  8
0
  6
CONTINUOUS
 62
     7
 10
58.931149881141103
 20
-0.301856229808493
 30
0.0
 50
90.0
  0
POINT
  5
471E
  8
0
  6
CONTINUOUS
 62
     7
 10
57.556149881141103
 20
-0.301856229808493
 30
0.0
 50
90.0
  0
POINT
  5
474E
  8
0
  6
CONTINUOUS
 62
     7
 10
62.010514729839308
 20
-2.5719194308671258
 30
0.0
  0
POINT
  5
474F
  8
0
  6
CONTINUOUS
 62
     7
 10
62.010514729839308
 20
-0.8719194306473809
 30
0.0
  0
POINT
  5
483B
  8
0
  6
CONTINUOUS
 62
     7
 10
68.957371672308
 20
-5.2561873091914322
 30
0.0
  0
POINT
  5
486B
  8
0
  6
CONTINUOUS
 62
     7
 10
47.855751160221359
 20
-189.95833333333019
 30
0.0
 50
90.0
  0
POINT
  5
486C
  8
0
  6
CONTINUOUS
 62
     7
 10
47.855751160214879
 20
-189.95833333333019
 30
0.0
 50
90.0
  0
POINT
  5
486D
  8
0
  6
CONTINUOUS
 62
     7
 10
47.855751160214879
 20
-216.0416666666697
 30
0.0
 50
90.0
  0
POINT
  5
486E
  8
0
  6
CONTINUOUS
 62
     7
 10
58.90077301895036
 20
-203.94814377019469
 30
0.0
 50
90.0
  0
POINT
  5
486F
  8
0
  6
CONTINUOUS
 62
     7
 10
57.52577301895036
 20
-203.94814377019469
 30
0.0
 50
90.0
  0
LINE
  5
4870
  8
241
  6
CONTINUOUS
 10
57.349864576403597
 20
-8.5261824134016422
 30
0.0
 11
60.216862271326129
 21
-6.3657446887574158
 31
0.0
  0
LINE
  5
4871
  8
241
  6
CONTINUOUS
 10
52.855751160214709
 20
-13.04166666666967
 30
0.0
 11
52.855751160214709
 21
-8.9583333333362418
 31
0.0
  0
LINE
  5
4872
  8
241
  6
CONTINUOUS
 10
56.8046438431669
 20
5.912942026791284
 30
0.0
 11
58.149596794176198
 21
6.1988206016657443
 31
0.0
  0
LINE
  5
4873
  8
241
  6
CONTINUOUS
 10
47.855751160215043
 20
-13.04166666666967
 30
0.0
 11
52.855751160214943
 21
-13.04166666666967
 31
0.0
  0
LINE
  5
4874
  8
241
  6
CONTINUOUS
 10
58.531006648159753
 20
-5.9765342505442902
 30
0.0
 11
60.216862271324203
 21
-6.365744688763157
 31
0.0
  0
LINE
  5
4875
  8
241
  6
CONTINUOUS
 10
55.720097680371403
 20
-5.3275847817323827
 30
0.0
 11
57.186759479574782
 21
-5.6661903383074721
 31
0.0
  0
LINE
  5
4876
  8
241
  6
CONTINUOUS
 10
55.720097680375829
 20
-5.3275847817268689
 30
0.0
 11
57.349864576406731
 21
-8.5261824134015853
 31
0.0
  0
LINE
  5
4877
  8
241
  6
CONTINUOUS
 10
47.855751160215043
 20
-12.29166666666967
 30
0.0
 11
52.105751160214709
 21
-12.29166666666967
 31
0.0
  0
LINE
  5
4878
  8
241
  6
CONTINUOUS
 10
52.105751160214709
 20
-12.29166666666967
 30
0.0
 11
52.105751160214709
 21
-8.9583333333362418
 31
0.0
  0
LINE
  5
4879
  8
241
  6
CONTINUOUS
 10
52.105751160214709
 20
-8.9583333333362418
 30
0.0
 11
52.855751160214709
 21
-8.9583333333362418
 31
0.0
  0
LINE
  5
487A
  8
241
  6
CONTINUOUS
 10
47.855751160215043
 20
-13.04166666666967
 30
0.0
 11
47.855751160215043
 21
-12.29166666666967
 31
0.0
  0
LINE
  5
487B
  8
241
  6
CONTINUOUS
 10
47.855751160215043
 20
10.08333333333055
 30
0.0
 11
50.049042089496531
 21
10.08333333333055
 31
0.0
  0
LINE
  5
487C
  8
241
  6
CONTINUOUS
 10
47.855751160215043
 20
9.3333333333305575
 30
0.0
 11
52.855751160214943
 21
9.3333333333305575
 31
0.0
  0
LINE
  5
487D
  8
241
  6
CONTINUOUS
 10
50.037270105057132
 20
11.208541566459219
 30
0.0
 11
48.409615280661107
 21
12.99121113603584
 31
0.0
  0
LINE
  5
487E
  8
241
  6
CONTINUOUS
 10
50.049042089496531
 20
10.08333333333055
 30
0.0
 11
47.855751160215043
 21
12.485509113019839
 31
0.0
  0
LINE
  5
487F
  8
241
  6
CONTINUOUS
 10
50.54364491916612
 20
10.65394057957795
 30
0.0
 11
52.855751160214879
 21
12.55607298844237
 31
0.0
  0
LINE
  5
4880
  8
241
  6
CONTINUOUS
 10
50.037270105057132
 20
11.208541566459219
 30
0.0
 11
52.379262613331662
 21
13.135260923994419
 31
0.0
  0
LINE
  5
4881
  8
241
  6
CONTINUOUS
 10
52.855751160214943
 20
9.3333333333305575
 30
0.0
 11
52.855751160214943
 21
10.08333333333055
 31
0.0
  0
LINE
  5
4882
  8
241
  6
CONTINUOUS
 10
47.855751160215043
 20
9.3333333333305575
 30
0.0
 11
47.855751160215043
 21
10.08333333333055
 31
0.0
  0
LINE
  5
4883
  8
241
  6
CONTINUOUS
 10
52.379262613331662
 20
13.135260923994419
 30
0.0
 11
52.855751160214943
 21
12.55607298844237
 31
0.0
  0
LINE
  5
4884
  8
241
  6
CONTINUOUS
 10
47.855751160215043
 20
12.485509113019839
 30
0.0
 11
48.409615280661107
 21
12.99121113603584
 31
0.0
  0
LINE
  5
4885
  8
241
  6
CONTINUOUS
 10
51.064634144000713
 20
10.08333333333055
 30
0.0
 11
50.54364491916612
 21
10.65394057957795
 31
0.0
  0
LINE
  5
4886
  8
241
  6
CONTINUOUS
 10
51.064634144000713
 20
10.08333333333055
 30
0.0
 11
52.855751160214943
 21
10.08333333333055
 31
0.0
  0
LINE
  5
4887
  8
241
  6
CONTINUOUS
 10
49.897417826881217
 20
-5.8339682095271144
 30
0.0
 11
50.81408449354808
 21
-5.8339682095271144
 31
0.0
  0
LINE
  5
4888
  8
241
  6
CONTINUOUS
 10
49.897417826881217
 20
-1.7506348761937991
 30
0.0
 11
50.81408449354808
 21
-1.7506348761937991
 31
0.0
  0
LINE
  5
4889
  8
241
  6
CONTINUOUS
 10
49.897417826881217
 20
-5.0839682095271144
 30
0.0
 11
50.81408449354808
 21
-5.0839682095271144
 31
0.0
  0
LINE
  5
488A
  8
241
  6
CONTINUOUS
 10
49.897417826881217
 20
-2.5006348761938559
 30
0.0
 11
50.81408449354808
 21
-2.5006348761938559
 31
0.0
  0
LINE
  5
488B
  8
241
  6
CONTINUOUS
 10
49.897417826881217
 20
2.4996825619018348
 30
0.0
 11
50.81408449354808
 21
2.4996825619018348
 31
0.0
  0
LINE
  5
488C
  8
241
  6
CONTINUOUS
 10
49.897417826881217
 20
1.749682561901835
 30
0.0
 11
50.81408449354808
 21
1.749682561901835
 31
0.0
  0
LINE
  5
488D
  8
241
  6
CONTINUOUS
 10
49.563109893623853
 20
5.0390034208585064
 30
0.0
 11
49.368995609796912
 21
5.7634477905752703
 31
0.0
  0
LINE
  5
488E
  8
241
  6
CONTINUOUS
 10
51.148392426805451
 20
5.0390034208585064
 30
0.0
 11
51.342506710632392
 21
5.7634477905752703
 31
0.0
  0
ARC
  5
488F
  8
241
  6
CONTINUOUS
 10
24.525773018950591
 20
-0.9481437701946049
 30
0.0
 40
33.0
 50
351.7801918472021
 51
11.99999999999627
  0
ARC
  5
4890
  8
241
  6
CONTINUOUS
 10
24.525773018950591
 20
-0.9481437701946049
 30
0.0
 40
34.375
 50
351.58856573578402
 51
11.99999999999627
  0
ARC
  5
4891
  8
241
  6
CONTINUOUS
 10
50.81408449354808
 20
-3.7923015428604852
 30
0.0
 40
2.0416666666666421
 50
270.0
 51
90.0
  0
ARC
  5
4892
  8
241
  6
CONTINUOUS
 10
49.897417826881217
 20
-3.7923015428604852
 30
0.0
 40
2.0416666666666421
 50
90.0
 51
270.0
  0
ARC
  5
4893
  8
241
  6
CONTINUOUS
 10
50.81408449354808
 20
-3.7923015428604852
 30
0.0
 40
1.2916666666666421
 50
270.0
 51
90.0
  0
ARC
  5
4894
  8
241
  6
CONTINUOUS
 10
49.897417826881217
 20
-3.7923015428604852
 30
0.0
 40
1.2916666666666421
 50
90.0
 51
270.0
  0
ARC
  5
4895
  8
241
  6
CONTINUOUS
 10
49.897417826881217
 20
3.791349228568464
 30
0.0
 40
1.2916666666666421
 50
105.00000000000151
 51
270.0
  0
ARC
  5
4896
  8
241
  6
CONTINUOUS
 10
49.897417826881217
 20
3.791349228568464
 30
0.0
 40
2.0416666666666421
 50
105.00000000000151
 51
270.0
  0
ARC
  5
4897
  8
241
  6
CONTINUOUS
 10
50.81408449354808
 20
3.791349228568464
 30
0.0
 40
2.0416666666666421
 50
270.0
 51
74.999999999998494
  0
ARC
  5
4898
  8
241
  6
CONTINUOUS
 10
50.81408449354808
 20
3.791349228568464
 30
0.0
 40
1.2916666666666421
 50
270.0
 51
74.999999999998494
  0
LINE
  5
489C
  8
240
  6
CONTINUOUS
 10
111.1016416618767
 20
14.04128801023626
 30
0.0
 11
53.593760002851802
 21
22.12349370056285
 31
0.0
  0
ARC
  5
489D
  8
240
  6
CONTINUOUS
 10
60.552415050855871
 20
-71.636897137641199
 30
0.0
 40
50.0
 50
98.000000000000895
 51
130.20678518728371
1001
ASK_MEN_XD
1005
489C
1070
     1
1005
4665
1070
     1
  0
LINE
  5
489E
  8
240
  6
CONTINUOUS
 10
111.1016416618741
 20
-14.04128801023654
 30
0.0
 11
53.593760002851802
 21
-22.12349370056285
 31
0.0
  0
LINE
  5
48A0
  8
241
  6
CONTINUOUS
 10
102.6288917265599
 20
9.1730899232587149
 30
0.0
 11
46.607463397531539
 21
17.046388221841418
 31
0.0
  0
LINE
  5
48A2
  8
241
  6
CONTINUOUS
 10
46.607463397531539
 20
-17.046388221841369
 30
0.0
 11
102.6288917265599
 21
-9.1730899232586012
 31
0.0
  0
ARC
  5
48A6
  8
241
  6
CONTINUOUS
 10
139.30011472640899
 20
0.0000000000000568
 30
0.0
 40
7.3001147264081956
 50
90.999999999998494
 51
269.00000000000148
  0
CIRCLE
  5
48C7
  8
241
  6
CONTINUOUS
 10
0.0000000000015064
 20
0.3012999935725134
 30
0.0
 40
31.5
  0
CIRCLE
  5
4BFA
  8
246
  6
PHANTOM2
 10
0.0000000000008242
 20
0.0
 30
0.0
 40
31.0
  0
LINE
  5
4BFB
  8
246
  6
PHANTOM2
 10
-30.99999999999898
 20
101.0000000000001
 30
0.0
 11
-30.99999999999898
 21
81.000000000000014
 31
0.0
  0
LINE
  5
4BFC
  8
246
  6
PHANTOM2
 10
31.00000000000102
 20
101.0000000000001
 30
0.0
 11
31.00000000000103
 21
81.000000000000014
 31
0.0
  0
LINE
  5
4CF3
  8
250
  6
CONTINUOUS
 10
310.0000000000008
 20
0.5
 30
0.0
 11
310.0000000000008
 21
64.0
 31
0.0
  0
LINE
  5
4CF4
  8
250
  6
CONTINUOUS
 10
-43.799999999999173
 20
0.5
 30
0.0
 11
-43.799999999999159
 21
64.0
 31
0.0
  0
LINE
  5
4CF5
  8
250
  6
CONTINUOUS
 10
307.77000000000078
 20
63.0
 30
0.0
 11
-41.569999999999169
 21
63.0
 31
0.0
  0
LINE
  5
4CF9
  8
250
  6
CONTINUOUS
 10
0.0000000000008243
 20
46.170991997061947
 30
0.0
 11
0.0000000000008249
 21
57.0
 31
0.0
  0
LINE
  5
4CFA
  8
250
  6
CONTINUOUS
 10
310.0000000000008
 20
0.5
 30
0.0
 11
310.0000000000008
 21
57.0
 31
0.0
  0
LINE
  5
4CFB
  8
250
  6
CONTINUOUS
 10
2.2300000000008242
 20
56.0
 30
0.0
 11
307.77000000000078
 21
56.0
 31
0.0
  0
LINE
  5
4CFF
  8
250
  6
CONTINUOUS
 10
-43.799999999999173
 20
0.5
 30
0.0
 11
-43.799999999999173
 21
57.0
 31
0.0
  0
LINE
  5
4D00
  8
250
  6
CONTINUOUS
 10
0.0000000000008243
 20
46.170991997061947
 30
0.0
 11
0.0000000000008249
 21
57.0
 31
0.0
  0
LINE
  5
4D01
  8
250
  6
CONTINUOUS
 10
-41.569999999999169
 20
56.0
 30
0.0
 11
-2.2299999999991749
 21
56.0
 31
0.0
  0
LINE
  5
4D05
  8
250
  6
CONTINUOUS
 10
-30.99999999999898
 20
101.5000000000001
 30
0.0
 11
-30.99999999999898
 21
113.0
 31
0.0
  0
LINE
  5
4D06
  8
250
  6
CONTINUOUS
 10
31.00000000000103
 20
101.5000000000001
 30
0.0
 11
31.00000000000103
 21
113.0
 31
0.0
  0
LINE
  5
4D07
  8
250
  6
CONTINUOUS
 10
-28.769999999998969
 20
112.0
 30
0.0
 11
28.770000000001019
 21
112.0
 31
0.0
  0
TEXT
  5
4D0B
  8
250
  6
CONTINUOUS
 10
127.1000000000008
 20
64.000000000000014
 30
0.0
 40
2.7999999999999989
  1
353.8
  0
LINE
  5
4D0C
  8
250
  6
CONTINUOUS
 10
-41.569999999999169
 20
62.62833333333333
 30
0.0
 11
-43.799999999999159
 21
63.0
 31
0.0
  0
LINE
  5
4D0D
  8
250
  6
CONTINUOUS
 10
-41.569999999999169
 20
63.37166666666667
 30
0.0
 11
-43.799999999999159
 21
63.0
 31
0.0
  0
LINE
  5
4D0E
  8
250
  6
CONTINUOUS
 10
-43.799999999999159
 20
63.0
 30
0.0
 11
-41.569999999999169
 21
63.0
 31
0.0
  0
LINE
  5
4D0F
  8
250
  6
CONTINUOUS
 10
307.77000000000078
 20
63.37166666666667
 30
0.0
 11
310.0000000000008
 21
63.0
 31
0.0
  0
LINE
  5
4D10
  8
250
  6
CONTINUOUS
 10
307.77000000000078
 20
62.62833333333333
 30
0.0
 11
310.0000000000008
 21
63.0
 31
0.0
  0
LINE
  5
4D11
  8
250
  6
CONTINUOUS
 10
310.0000000000008
 20
63.0
 30
0.0
 11
307.77000000000078
 21
63.0
 31
0.0
  0
TEXT
  5
4D12
  8
250
  6
CONTINUOUS
 10
151.0000000000008
 20
57.0
 30
0.0
 40
2.7999999999999989
  1
310
  0
LINE
  5
4D13
  8
250
  6
CONTINUOUS
 10
307.77000000000078
 20
56.37166666666667
 30
0.0
 11
310.0000000000008
 21
56.0
 31
0.0
  0
LINE
  5
4D14
  8
250
  6
CONTINUOUS
 10
307.77000000000078
 20
55.62833333333333
 30
0.0
 11
310.0000000000008
 21
56.0
 31
0.0
  0
LINE
  5
4D15
  8
250
  6
CONTINUOUS
 10
310.0000000000008
 20
56.0
 30
0.0
 11
307.77000000000078
 21
56.0
 31
0.0
  0
LINE
  5
4D16
  8
250
  6
CONTINUOUS
 10
2.2300000000008242
 20
55.62833333333333
 30
0.0
 11
0.0000000000008249
 21
56.0
 31
0.0
  0
LINE
  5
4D17
  8
250
  6
CONTINUOUS
 10
2.2300000000008242
 20
56.37166666666667
 30
0.0
 11
0.0000000000008249
 21
56.0
 31
0.0
  0
LINE
  5
4D18
  8
250
  6
CONTINUOUS
 10
0.0000000000008249
 20
56.0
 30
0.0
 11
2.2300000000008242
 21
56.0
 31
0.0
  0
TEXT
  5
4D19
  8
250
  6
CONTINUOUS
 10
-26.566666666665839
 20
57.0
 30
0.0
 40
2.7999999999999989
  1
43.8
  0
LINE
  5
4D1A
  8
250
  6
CONTINUOUS
 10
-2.2299999999991749
 20
56.37166666666667
 30
0.0
 11
0.0000000000008249
 21
56.0
 31
0.0
  0
LINE
  5
4D1B
  8
250
  6
CONTINUOUS
 10
-2.2299999999991749
 20
55.62833333333333
 30
0.0
 11
0.0000000000008249
 21
56.0
 31
0.0
  0
LINE
  5
4D1C
  8
250
  6
CONTINUOUS
 10
0.0000000000008249
 20
56.0
 30
0.0
 11
-2.2299999999991749
 21
56.0
 31
0.0
  0
LINE
  5
4D1D
  8
250
  6
CONTINUOUS
 10
-41.569999999999169
 20
55.62833333333333
 30
0.0
 11
-43.799999999999173
 21
56.0
 31
0.0
  0
LINE
  5
4D1E
  8
250
  6
CONTINUOUS
 10
-41.569999999999169
 20
56.37166666666667
 30
0.0
 11
-43.799999999999173
 21
56.0
 31
0.0
  0
LINE
  5
4D1F
  8
250
  6
CONTINUOUS
 10
-43.799999999999173
 20
56.0
 30
0.0
 11
-41.569999999999169
 21
56.0
 31
0.0
  0
TEXT
  5
4D20
  8
250
  6
CONTINUOUS
 10
-3.9333333333323082
 20
113.0
 30
0.0
 40
2.7999999999999989
  1
\U+220562
  0
LINE
  5
4D21
  8
250
  6
CONTINUOUS
 10
28.770000000001019
 20
112.3716666666666
 30
0.0
 11
31.00000000000103
 21
112.0
 31
0.0
  0
LINE
  5
4D22
  8
250
  6
CONTINUOUS
 10
28.770000000001019
 20
111.6283333333333
 30
0.0
 11
31.00000000000103
 21
112.0
 31
0.0
  0
LINE
  5
4D23
  8
250
  6
CONTINUOUS
 10
31.00000000000103
 20
112.0
 30
0.0
 11
28.770000000001019
 21
112.0
 31
0.0
  0
LINE
  5
4D24
  8
250
  6
CONTINUOUS
 10
-28.769999999998969
 20
111.6283333333333
 30
0.0
 11
-30.99999999999898
 21
112.0
 31
0.0
  0
LINE
  5
4D25
  8
250
  6
CONTINUOUS
 10
-28.769999999998969
 20
112.3716666666666
 30
0.0
 11
-30.99999999999898
 21
112.0
 31
0.0
  0
LINE
  5
4D26
  8
250
  6
CONTINUOUS
 10
-30.99999999999898
 20
112.0
 30
0.0
 11
-28.769999999998969
 21
112.0
 31
0.0
  0
TEXT
  5
4D43
  8
241
  6
CONTINUOUS
 10
-42.0
 20
126.0
 30
0.0
 40
4.0
  1
MGR62L
  7
YOKO
  0
VIEWPORT
  5
22
 67
     1
  8
0
 10
261.51769911504419
 20
148.5
 30
0.0
 40
523.0353982300885
 41
297.0
 68
     1
 69
     1
1001
ACAD
1000
MVIEW
1002
{
1070
    16
1010
0.0
1020
0.0
1030
0.0
1010
0.0
1020
0.0
1030
1.0
1040
0.0
1040
297.0
1040
261.51769911504419
1040
148.5
1040
50.0
1040
0.0
1040
0.0
1070
     0
1070
   100
1070
     1
1070
     1
1070
     0
1070
     0
1070
     0
1070
     0
1040
0.0
1040
0.0
1040
0.0
1040
1.0
1040
1.0
1040
10.0
1040
10.0
1070
     0
1002
{
1002
}
1002
}
1001
GENIUS_GENODEF_13
1002
{
1000
HIER
1070
     0
1002
}
1002
{
1000
MANEDIT
1070
     0
1002
}
1002
{
1000
NOSEL
1070
     0
1002
}
1002
{
1000
BEHIND
1070
     0
1002
}
1002
{
1000
OTHER
1070
     0
1002
}
1002
{
1000
REACTOR
1002
}
1001
GENIUS_GENOBJ-N-SDF_13
1002
{
1000
OWNER
1000
GEN
1002
}
1001
GENIUS_GENSCREG_15
1000
PF
1040
1.0
1000
DF
1040
1.0
1000
MIN
1011
0.0
1021
0.0
1031
0.0
1021
0.0
1031
0.0
1000
MAX
1011
523.0353982300885
1021
0.0
1031
0.0
1021
297.0
1031
0.0
1000
FLAGS
1070
     4
  0
ENDSEC
  0
EOF
