  0
SECTION
  2
HEADER
  9
$ACADVER
  1
AC1009
  9
$INSBASE
 10
0.0
 20
0.0
 30
0.0
  9
$EXTMIN
 10
-46.163801730594059
 20
-44.568392009916693
 30
0.0
  9
$EXTMAX
 10
321.53231985270492
 20
130.0
 30
0.0
  9
$LIMMIN
 10
0.0
 20
0.0
  9
$LIMMAX
 10
297.0
 20
210.0
  9
$ORTHOMODE
 70
     0
  9
$REGENMODE
 70
     1
  9
$FILLMODE
 70
     1
  9
$QTEXTMODE
 70
     0
  9
$MIRRTEXT
 70
     1
  9
$DRAGMODE
 70
     2
  9
$LTSCALE
 40
10.0
  9
$OSMODE
 70
    37
  9
$ATTMODE
 70
     1
  9
$TEXTSIZE
 40
4.0
  9
$TRACEWID
 40
1.0
  9
$TEXTSTYLE
  7
YOKO
  9
$CLAYER
  8
240
  9
$CELTYPE
  6
BYLAYER
  9
$CECOLOR
 62
   256
  9
$DIMSCALE
 40
1.0
  9
$DIMASZ
 40
2.2299999999999991
  9
$DIMEXO
 40
0.5
  9
$DIMDLI
 40
7.0
  9
$DIMRND
 40
0.0
  9
$DIMDLE
 40
0.0
  9
$DIMEXE
 40
1.0
  9
$DIMTP
 40
0.0
  9
$DIMTM
 40
0.01
  9
$DIMTXT
 40
2.7999999999999989
  9
$DIMCEN
 40
0.0
  9
$DIMTSZ
 40
0.0
  9
$DIMTOL
 70
     0
  9
$DIMLIM
 70
     0
  9
$DIMTIH
 70
     0
  9
$DIMTOH
 70
     0
  9
$DIMSE1
 70
     0
  9
$DIMSE2
 70
     0
  9
$DIMTAD
 70
     3
  9
$DIMZIN
 70
     9
  9
$DIMBLK
  1
OPEN
  9
$DIMASO
 70
     1
  9
$DIMSHO
 70
     1
  9
$DIMPOST
  1

  9
$DIMAPOST
  1

  9
$DIMALT
 70
     0
  9
$DIMALTD
 70
     2
  9
$DIMALTF
 40
25.399999999999999
  9
$DIMLFAC
 40
1.0
  9
$DIMTOFL
 70
     1
  9
$DIMTVP
 40
0.0
  9
$DIMTIX
 70
     1
  9
$DIMSOXD
 70
     0
  9
$DIMSAH
 70
     0
  9
$DIMBLK1
  1

  9
$DIMBLK2
  1

  9
$DIMSTYLE
  2
BIGT
  9
$DIMCLRD
 70
   256
  9
$DIMCLRE
 70
   256
  9
$DIMCLRT
 70
    40
  9
$DIMTFAC
 40
1.0
  9
$DIMGAP
 40
1.0
  9
$LUNITS
 70
     2
  9
$LUPREC
 70
     6
  9
$SKETCHINC
 40
1.0
  9
$FILLETRAD
 40
0.0
  9
$AUNITS
 70
     0
  9
$AUPREC
 70
     6
  9
$MENU
  1
.
  9
$ELEVATION
 40
0.0
  9
$PELEVATION
 40
0.0
  9
$THICKNESS
 40
0.0
  9
$LIMCHECK
 70
     0
  9
$BLIPMODE
 70
     0
  9
$CHAMFERA
 40
0.2
  9
$CHAMFERB
 40
0.2
  9
$SKPOLY
 70
     0
  9
$TDCREATE
 40
2459495.362696134
  9
$TDUPDATE
 40
2459495.3801208679
  9
$TDINDWG
 40
0.0173181829
  9
$TDUSRTIMER
 40
0.0173181597
  9
$USRTIMER
 70
     1
  9
$ANGBASE
 50
0.0
  9
$ANGDIR
 70
     0
  9
$PDMODE
 70
     1
  9
$PDSIZE
 40
0.0
  9
$PLINEWID
 40
0.0
  9
$COORDS
 70
     1
  9
$SPLFRAME
 70
     0
  9
$SPLINETYPE
 70
     6
  9
$SPLINESEGS
 70
     4
  9
$ATTDIA
 70
     1
  9
$ATTREQ
 70
     1
  9
$HANDLING
 70
     1
  9
$HANDSEED
  5
4EC6
  9
$SURFTAB1
 70
     6
  9
$SURFTAB2
 70
     6
  9
$SURFTYPE
 70
     6
  9
$SURFU
 70
     6
  9
$SURFV
 70
     6
  9
$UCSNAME
  2

  9
$UCSORG
 10
0.0
 20
0.0
 30
0.0
  9
$UCSXDIR
 10
1.0
 20
0.0
 30
0.0
  9
$UCSYDIR
 10
0.0
 20
1.0
 30
0.0
  9
$PUCSNAME
  2

  9
$PUCSORG
 10
0.0
 20
0.0
 30
0.0
  9
$PUCSXDIR
 10
1.0
 20
0.0
 30
0.0
  9
$PUCSYDIR
 10
0.0
 20
1.0
 30
0.0
  9
$USERI1
 70
     1
  9
$USERI2
 70
     0
  9
$USERI3
 70
     0
  9
$USERI4
 70
     0
  9
$USERI5
 70
     0
  9
$USERR1
 40
0.0
  9
$USERR2
 40
0.0
  9
$USERR3
 40
0.0
  9
$USERR4
 40
0.0
  9
$USERR5
 40
0.0
  9
$WORLDVIEW
 70
     1
  9
$SHADEDGE
 70
     3
  9
$SHADEDIF
 70
    70
  9
$TILEMODE
 70
     1
  9
$MAXACTVP
 70
    16
  9
$PLIMCHECK
 70
     0
  9
$PEXTMIN
 10
1.0000000000000000E+020
 20
1.0000000000000000E+020
 30
1.0000000000000000E+020
  9
$PEXTMAX
 10
-1.0000000000000000E+020
 20
-1.0000000000000000E+020
 30
-1.0000000000000000E+020
  9
$PLIMMIN
 10
0.0
 20
0.0
  9
$PLIMMAX
 10
420.0
 20
297.0
  9
$UNITMODE
 70
     0
  9
$VISRETAIN
 70
     1
  9
$PLINEGEN
 70
     0
  9
$PSLTSCALE
 70
     1
  0
ENDSEC
  0
SECTION
  2
TABLES
  0
TABLE
  2
VPORT
 70
     1
  0
VPORT
  2
*ACTIVE
 70
     0
 10
0.0
 20
0.0
 11
1.0
 21
1.0
 12
127.3983832531712
 22
46.364272566593677
 13
0.0
 23
0.0
 14
7.0
 24
7.0
 15
7.0
 25
7.0
 16
0.0
 26
0.0
 36
1.0
 17
0.0
 27
0.0
 37
0.0
 40
263.91516786585191
 41
1.806872037914691
 42
50.0
 43
0.0
 44
0.0
 50
0.0
 51
0.0
 71
     0
 72
  2000
 73
     1
 74
     0
 75
     1
 76
     1
 77
     0
 78
     0
  0
ENDTAB
  0
TABLE
  2
LTYPE
 70
    13
  0
LTYPE
  2
CONTINUOUS
 70
     0
  3
Solid line
 72
    65
 73
     0
 40
0.0
  0
LTYPE
  2
CENTER2
 70
     0
  3
___ _ ___ _ ___ _ ___ _ ___ _ ___ _ ___ _ ___ _
 72
    65
 73
     4
 40
1.125
 49
0.75
 49
-0.125
 49
0.125
 49
-0.125
  0
LTYPE
  2
HIDDEN2
 70
     0
  3
_ _ _ _ _ _ _ _ _ _ _ _ _ _ _ _ _ _ _ _ _ _ _ _
 72
    65
 73
     2
 40
0.1875
 49
0.125
 49
-0.0625
  0
LTYPE
  2
PHANTOM2
 70
     0
  3
___ _ _ ___ _ _ ___ _ _ ___ _ _ ___ _ _ ___ _ _
 72
    65
 73
     6
 40
1.25
 49
0.625
 49
-0.125
 49
0.125
 49
-0.125
 49
0.125
 49
-0.125
  0
LTYPE
  2
AM_ISO02W050
 70
     0
  3
__ __ __ __ __ __ __ __ __ __ __ __ __ __ __
 72
    65
 73
     2
 40
7.5
 49
6.0
 49
-1.5
  0
LTYPE
  2
AMCONSTR
 70
     0
  3
_______________________
 72
    65
 73
     2
 40
9999.0
 49
9999.0
 49
0.0
  0
LTYPE
  2
ACISOWELD
 70
     0
  3
_ _ _ _ _
 72
    65
 73
     2
 40
2.0
 49
2.0
 49
-1.0
  0
LTYPE
  2
ACISOTGB
 70
     0
  3
__ . . __ . .
 72
    65
 73
     6
 40
9.0
 49
4.0
 49
-1.0
 49
1.0
 49
-1.0
 49
1.0
 49
-1.0
  0
LTYPE
  2
ACISOTGL
 70
     0
  3
_ _ _ _ _
 72
    65
 73
     2
 40
3.0
 49
2.0
 49
-1.0
  0
LTYPE
  2
ACJISTGB
 70
     0
  3
__ . . __ . .
 72
    65
 73
     6
 40
9.0
 49
4.0
 49
-1.0
 49
1.0
 49
-1.0
 49
1.0
 49
-1.0
  0
LTYPE
  2
ACJISTGL
 70
     0
  3
_ _ _ _ _
 72
    65
 73
     2
 40
3.0
 49
2.0
 49
-1.0
  0
ENDTAB
  0
TABLE
  2
LAYER
 70
     7
  0
LAYER
  2
0
 70
     0
 62
     7
  6
CONTINUOUS
  0
LAYER
  2
DEFPOINTS
 70
     0
 62
     7
  6
CONTINUOUS
  0
LAYER
  2
245
 70
     0
 62
     2
  6
CENTER2
  0
LAYER
  2
240
 70
     0
 62
     4
  6
CONTINUOUS
  0
LAYER
  2
241
 70
     0
 62
   211
  6
CONTINUOUS
  0
LAYER
  2
246
 70
     0
 62
     3
  6
PHANTOM2
  0
LAYER
  2
250
 70
     0
 62
     3
  6
CONTINUOUS
  0
ENDTAB
  0
TABLE
  2
STYLE
 70
     6
  0
STYLE
  2
STANDARD
 70
     0
 40
0.0
 41
1.0
 50
0.0
 71
     0
 42
3.0
  3
romans.shx
  4
extfont.shx
  0
STYLE
  2
ACISOTS
 70
     0
 40
1.0
 41
1.0
 50
0.0
 71
     0
 42
3.0
  3
amgdt.shx
  4
extfont.shx
  0
STYLE
  2
ACISOGDT
 70
     0
 40
0.0
 41
1.0
 50
0.0
 71
     0
 42
3.0
  3
amgdt.shx
  4
extfont.shx
  0
STYLE
  2
ACJISTS
 70
     0
 40
1.0
 41
1.0
 50
0.0
 71
     0
 42
3.0
  3
amgdt.shx
  4
extfont.shx
  0
STYLE
  2
ACJISGDT
 70
     0
 40
0.0
 41
1.0
 50
0.0
 71
     0
 42
3.0
  3
amgdt.shx
  4
extfont.shx
  0
STYLE
  2
YOKO
 70
     0
 40
0.0
 41
1.0
 50
0.0
 71
     0
 42
4.0
  3
romans.shx
  4
extfont.shx
  0
ENDTAB
  0
TABLE
  2
VIEW
 70
     0
  0
ENDTAB
  0
TABLE
  2
UCS
 70
     0
  0
ENDTAB
  0
TABLE
  2
APPID
 70
    42
  0
APPID
  2
ACAD
 70
     0
  0
APPID
  2
GLOBAL
 70
     0
  0
APPID
  2
DETAIL
 70
     0
  0
APPID
  2
GRPNAME
 70
     0
  0
APPID
  2
GPARA
 70
     0
  0
APPID
  2
MCAD_NO_VIS
 70
     0
  0
APPID
  2
ACAD_TEMP_GRAPHIC
 70
     0
  0
APPID
  2
ACATTRIBSERVICES
 70
     0
  0
APPID
  2
GENIUS_GENSCREG_15
 70
     0
  0
APPID
  2
GENIUS_GENODEF_13
 70
     0
  0
APPID
  2
GENIUS_GENOBJ-N-SDF_13
 70
     0
  0
APPID
  2
GENIUS_GENREC_14
 70
     0
  0
APPID
  2
GENIUS_GENOBJ-N-REC_13
 70
     0
  0
APPID
  2
GENIUS_GENDIMSH_14
 70
     0
  0
APPID
  2
GENIUS_GENOBJ-N-DIM_13
 70
     0
  0
APPID
  2
GENIUS_GENDIM_13
 70
     0
  0
APPID
  2
GENIUS_GENDTOL_13
 70
     0
  0
APPID
  2
GENIUS_GENOLIS_13
 70
     0
  0
APPID
  2
GENIUS_GENOENT_13
 70
     0
  0
APPID
  2
GENIUS_GENOBJ-F-FEM_13
 70
     0
  0
APPID
  2
GENIUS_GENOREF_13
 70
     0
  0
APPID
  2
GENIUS_GEFFEM_13
 70
     0
  0
APPID
  2
GENIUS_GEFFEMP_13
 70
     0
  0
APPID
  2
AD_DRAW
 70
     0
  0
APPID
  2
DESIGNERASSEMBLIES
 70
     0
  0
APPID
  2
ACADM_DIM_EDIT
 70
     0
  0
APPID
  2
AMDT_DM_ADJ
 70
     0
  0
APPID
  2
ITEMNAME
 70
     0
  0
APPID
  2
GENIUS_GENOBJ-N-FIL_13
 70
     0
  0
APPID
  2
GENIUS_GENFIL_13
 70
     0
  0
APPID
  2
GENIUS_GENOBJ-N-CHA_13
 70
     0
  0
APPID
  2
ACAD_NAV_VCDISPLAY
 70
     0
  0
APPID
  2
ACAECLAYERSTANDARD
 70
     0
  0
APPID
  2
LAYER_SCALE
 70
     0
  0
APPID
  2
GRADE_0
 70
     0
  0
APPID
  2
ACAD_PSEXT
 70
     0
  0
APPID
  2
ASK_MEN_XD
 70
     0
  0
APPID
  2
ACAD_DSTYLE_DIMJAG
 70
     0
  0
APPID
  2
ACAD_DSTYLE_DIMTALN
 70
     0
  0
APPID
  2
ACAD_DSTYLE_DIMINSPECT
 70
     0
  0
APPID
  2
ACAD_EXEMPT_FROM_CAD_STANDARDS
 70
     0
  0
APPID
  2
ACAD_MLEADERVER
 70
     0
  0
ENDTAB
  0
TABLE
  2
DIMSTYLE
 70
    24
  0
DIMSTYLE
  2
BIGT
 70
     0
  3

  4

  5
OPEN
  6

  7

 40
1.0
 41
2.2299999999999991
 42
0.5
 43
7.0
 44
1.0
 45
0.0
 46
0.0
 47
0.0
 48
0.01
140
2.7999999999999989
141
0.0
142
0.0
143
25.399999999999999
144
1.0
145
0.0
146
1.0
147
1.0
 71
     0
 72
     0
 73
     0
 74
     0
 75
     0
 76
     0
 77
     3
 78
     9
170
     0
171
     2
172
     1
173
     0
174
     1
175
     0
176
   256
177
   256
178
    40
  0
DIMSTYLE
  2
AM_ISO
 70
     0
  3

  4
"
  5

  6

  7

 40
1.0
 41
2.5
 42
1.0
 43
10.0
 44
1.0
 45
0.0
 46
0.0
 47
0.1
 48
0.1
140
3.5
141
0.0
142
0.0
143
0.0393701
144
1.0
145
0.0
146
0.71
147
1.5
 71
     0
 72
     0
 73
     0
 74
     0
 75
     0
 76
     0
 77
     1
 78
     8
170
     0
171
     2
172
     1
173
     0
174
     0
175
     0
176
   256
177
   256
178
     2
  0
DIMSTYLE
  2
AM_ISO$3
 70
     0
  3

  4
"
  5

  6

  7

 40
1.0
 41
2.5
 42
1.0
 43
10.0
 44
1.0
 45
0.0
 46
0.0
 47
0.1
 48
0.1
140
3.5
141
0.0
142
0.0
143
0.0393701
144
1.0
145
0.0
146
0.71
147
1.5
 71
     0
 72
     0
 73
     0
 74
     1
 75
     0
 76
     0
 77
     1
 78
     8
170
     0
171
     2
172
     0
173
     0
174
     0
175
     0
176
   256
177
   256
178
     2
  0
DIMSTYLE
  2
AM_ISO$4
 70
     0
  3

  4
"
  5

  6

  7

 40
1.0
 41
2.5
 42
1.0
 43
10.0
 44
1.0
 45
0.0
 46
0.0
 47
0.1
 48
0.1
140
3.5
141
0.0
142
0.0
143
0.0393701
144
1.0
145
0.0
146
0.71
147
1.5
 71
     0
 72
     0
 73
     0
 74
     1
 75
     0
 76
     0
 77
     1
 78
     8
170
     0
171
     2
172
     0
173
     0
174
     0
175
     0
176
   256
177
   256
178
     2
  0
DIMSTYLE
  2
AM_ISO$6
 70
     0
  3

  4
"
  5

  6

  7

 40
1.0
 41
2.5
 42
1.0
 43
10.0
 44
1.0
 45
0.0
 46
0.0
 47
0.1
 48
0.1
140
3.5
141
0.0
142
0.0
143
0.0393701
144
1.0
145
0.0
146
0.71
147
1.5
 71
     0
 72
     0
 73
     0
 74
     0
 75
     0
 76
     0
 77
     0
 78
     8
170
     0
171
     2
172
     1
173
     0
174
     0
175
     0
176
   256
177
   256
178
     2
  0
DIMSTYLE
  2
AM_ISO$7
 70
     0
  3

  4
"
  5

  6

  7

 40
1.0
 41
2.5
 42
1.0
 43
10.0
 44
1.0
 45
0.0
 46
0.0
 47
0.1
 48
0.1
140
5.0
141
0.0
142
0.0
143
0.0393701
144
1.0
145
0.0
146
0.71
147
1.5
 71
     0
 72
     0
 73
     0
 74
     0
 75
     0
 76
     0
 77
     1
 78
     8
170
     0
171
     2
172
     1
173
     0
174
     0
175
     0
176
   256
177
   256
178
     2
  0
DIMSTYLE
  2
AM_ISO$SF
 70
     0
  3

  4
"
  5

  6

  7

 40
1.0
 41
2.5
 42
1.0
 43
10.0
 44
1.0
 45
0.0
 46
0.0
 47
0.1
 48
0.1
140
3.5
141
0.0
142
0.0
143
0.0393701
144
1.0
145
0.0
146
0.71
147
1.5
 71
     0
 72
     0
 73
     0
 74
     0
 75
     1
 76
     1
 77
     1
 78
     8
170
     0
171
     2
172
     1
173
     0
174
     0
175
     0
176
   256
177
   256
178
     2
  0
DIMSTYLE
  2
AM_ISO$SH
 70
     0
  3

  4
"
  5

  6
GENAXEH
  7

 40
1.0
 41
2.5
 42
1.0
 43
10.0
 44
1.0
 45
0.0
 46
0.0
 47
0.1
 48
0.1
140
3.5
141
0.0
142
0.0
143
0.0393701
144
2.0
145
0.0
146
0.71
147
1.5
 71
     0
 72
     0
 73
     0
 74
     0
 75
     1
 76
     1
 77
     1
 78
     8
170
     0
171
     2
172
     1
173
     1
174
     0
175
     0
176
   256
177
   256
178
     2
  0
DIMSTYLE
  2
BIGT$2
 70
     0
  3

  4

  5
OPEN
  6

  7

 40
1.0
 41
2.2299999999999991
 42
0.5
 43
7.0
 44
1.0
 45
0.0
 46
0.0
 47
0.0
 48
0.01
140
2.7999999999999989
141
0.0
142
0.0
143
25.399999999999999
144
1.0
145
0.0
146
1.0
147
1.0
 71
     0
 72
     0
 73
     0
 74
     0
 75
     0
 76
     0
 77
     3
 78
     9
170
     0
171
     2
172
     1
173
     0
174
     0
175
     0
176
   256
177
   256
178
    40
  0
DIMSTYLE
  2
BIGT$3
 70
     0
  3

  4

  5
OPEN
  6

  7

 40
1.0
 41
2.2299999999999991
 42
0.5
 43
2.5
 44
1.0
 45
0.0
 46
0.0
 47
0.0
 48
0.01
140
2.7999999999999989
141
0.0
142
0.0
143
25.399999999999999
144
1.0
145
0.0
146
1.0
147
1.0
 71
     0
 72
     0
 73
     0
 74
     0
 75
     0
 76
     0
 77
     3
 78
     9
170
     0
171
     2
172
     1
173
     0
174
     0
175
     0
176
   256
177
   256
178
    40
  0
DIMSTYLE
  2
BIGT$7
 70
     0
  3

  4

  5
OPEN
  6

  7

 40
0.0
 41
2.2299999999999991
 42
0.5
 43
7.0
 44
1.0
 45
0.0
 46
0.0
 47
0.0
 48
0.01
140
2.7999999999999989
141
0.0
142
0.0
143
25.399999999999999
144
1.0
145
0.0
146
1.0
147
1.0
 71
     0
 72
     0
 73
     0
 74
     0
 75
     0
 76
     0
 77
     3
 78
     9
170
     0
171
     2
172
     0
173
     0
174
     0
175
     0
176
   256
177
   256
178
    40
  0
DIMSTYLE
  2
BIGT$6
 70
     0
  3

  4

  5
OPEN
  6

  7

 40
1.0
 41
2.2299999999999991
 42
0.5
 43
2.5
 44
1.0
 45
0.0
 46
0.0
 47
0.0
 48
0.01
140
2.7999999999999989
141
0.0
142
0.0
143
25.399999999999999
144
1.0
145
0.0
146
1.0
147
1.0
 71
     0
 72
     0
 73
     0
 74
     0
 75
     0
 76
     0
 77
     3
 78
     9
170
     0
171
     2
172
     1
173
     0
174
     0
175
     0
176
   256
177
   256
178
    40
  0
DIMSTYLE
  2
BIGT$0
 70
     0
  3

  4

  5
OPEN
  6

  7

 40
1.0
 41
2.2299999999999991
 42
0.5
 43
7.0
 44
1.0
 45
0.0
 46
0.0
 47
0.0
 48
0.01
140
2.7999999999999989
141
0.0
142
0.0
143
25.399999999999999
144
1.0
145
0.0
146
1.0
147
1.0
 71
     0
 72
     0
 73
     0
 74
     0
 75
     0
 76
     0
 77
     3
 78
     9
170
     0
171
     2
172
     1
173
     0
174
     1
175
     0
176
   256
177
   256
178
    40
  0
DIMSTYLE
  2
BIGT$4
 70
     0
  3

  4

  5
OPEN
  6

  7

 40
1.0
 41
2.2299999999999991
 42
0.5
 43
2.5
 44
1.0
 45
0.0
 46
0.0
 47
0.0
 48
0.01
140
2.7999999999999989
141
0.0
142
0.0
143
25.399999999999999
144
1.0
145
0.0
146
1.0
147
1.0
 71
     0
 72
     0
 73
     0
 74
     0
 75
     0
 76
     0
 77
     3
 78
     9
170
     0
171
     2
172
     1
173
     0
174
     0
175
     0
176
   256
177
   256
178
    40
  0
DIMSTYLE
  2
BIGT$SH
 70
     0
  3

  4

  5
OPEN
  6

  7

 40
1.0
 41
2.2299999999999991
 42
0.5
 43
7.0
 44
1.0
 45
0.0
 46
0.0
 47
0.0
 48
0.0
140
2.7999999999999989
141
0.0
142
0.0
143
25.399999999999999
144
1.0
145
0.0
146
1.0
147
1.0
 71
     0
 72
     0
 73
     0
 74
     0
 75
     0
 76
     0
 77
     3
 78
     9
170
     0
171
     2
172
     1
173
     0
174
     0
175
     0
176
   256
177
   256
178
    40
  0
DIMSTYLE
  2
BIGT$SF
 70
     0
  3

  4

  5
OPEN
  6

  7

 40
1.0
 41
2.2299999999999991
 42
0.5
 43
7.0
 44
1.0
 45
0.0
 46
0.0
 47
0.0
 48
0.0
140
2.7999999999999989
141
0.0
142
0.0
143
25.399999999999999
144
1.0
145
0.0
146
1.0
147
1.0
 71
     0
 72
     0
 73
     0
 74
     0
 75
     0
 76
     0
 77
     3
 78
     9
170
     0
171
     2
172
     1
173
     0
174
     0
175
     0
176
   256
177
   256
178
    40
  0
DIMSTYLE
  2
TECHNICAL_OSAKA
 70
     0
  3

  4
"
  5
OPEN30
  6

  7

 40
1.0
 41
2.5
 42
1.0
 43
10.0
 44
1.0
 45
0.0
 46
0.0
 47
0.1
 48
0.1
140
2.7999999999999989
141
0.0
142
0.0
143
0.0393701
144
1.0
145
0.0
146
0.71
147
1.5
 71
     0
 72
     0
 73
     0
 74
     0
 75
     0
 76
     0
 77
     3
 78
     8
170
     0
171
     2
172
     1
173
     0
174
     0
175
     0
176
   256
177
   256
178
    40
  0
DIMSTYLE
  2
TECHNICAL_OSAKA$3
 70
     0
  3

  4
"
  5
OPEN30
  6

  7

 40
1.0
 41
2.5
 42
1.0
 43
10.0
 44
1.0
 45
0.0
 46
0.0
 47
0.1
 48
0.1
140
2.7999999999999989
141
0.0
142
0.0
143
0.0393701
144
1.0
145
0.0
146
0.71
147
1.5
 71
     0
 72
     0
 73
     0
 74
     1
 75
     0
 76
     0
 77
     3
 78
     8
170
     0
171
     2
172
     0
173
     0
174
     0
175
     0
176
   256
177
   256
178
    40
  0
DIMSTYLE
  2
TECHNICAL_OSAKA$4
 70
     0
  3

  4
"
  5
OPEN30
  6

  7

 40
1.0
 41
2.5
 42
1.0
 43
10.0
 44
1.0
 45
0.0
 46
0.0
 47
0.1
 48
0.1
140
2.7999999999999989
141
0.0
142
0.0
143
0.0393701
144
1.0
145
0.0
146
0.71
147
1.5
 71
     0
 72
     0
 73
     0
 74
     1
 75
     0
 76
     0
 77
     3
 78
     8
170
     0
171
     2
172
     0
173
     0
174
     0
175
     0
176
   256
177
   256
178
    40
  0
DIMSTYLE
  2
TECHNICAL_OSAKA$6
 70
     0
  3

  4
"
  5
OPEN30
  6

  7

 40
1.0
 41
2.5
 42
1.0
 43
10.0
 44
1.0
 45
0.0
 46
0.0
 47
0.1
 48
0.1
140
2.7999999999999989
141
0.0
142
0.0
143
0.0393701
144
1.0
145
0.0
146
0.71
147
1.5
 71
     0
 72
     0
 73
     0
 74
     0
 75
     0
 76
     0
 77
     0
 78
     8
170
     0
171
     2
172
     1
173
     0
174
     0
175
     0
176
   256
177
   256
178
    40
  0
DIMSTYLE
  2
TECHNICAL_OSAKA$7
 70
     0
  3

  4
"
  5
OPEN30
  6

  7

 40
1.0
 41
2.5
 42
1.0
 43
10.0
 44
1.0
 45
0.0
 46
0.0
 47
0.1
 48
0.1
140
2.7999999999999989
141
0.0
142
0.0
143
0.0393701
144
1.0
145
0.0
146
0.71
147
1.5
 71
     0
 72
     0
 73
     0
 74
     0
 75
     0
 76
     0
 77
     3
 78
     8
170
     0
171
     2
172
     1
173
     0
174
     0
175
     0
176
   256
177
   256
178
    40
  0
DIMSTYLE
  2
TECHNICAL_OSAKA$SF
 70
     0
  3

  4
"
  5
OPEN30
  6
OPEN30
  7
OPEN30
 40
1.0
 41
2.5
 42
1.0
 43
10.0
 44
1.0
 45
0.0
 46
0.0
 47
0.1
 48
0.1
140
3.5
141
0.0
142
0.0
143
0.0393701
144
1.0
145
0.0
146
0.71
147
1.5
 71
     0
 72
     0
 73
     0
 74
     0
 75
     1
 76
     1
 77
     3
 78
     8
170
     0
171
     2
172
     1
173
     0
174
     0
175
     0
176
   256
177
   256
178
    40
  0
DIMSTYLE
  2
TECHNICAL_OSAKA$SH
 70
     0
  3

  4
"
  5
OPEN30
  6
GENAXEH
  7
OPEN30
 40
1.0
 41
2.5
 42
1.0
 43
10.0
 44
1.0
 45
0.0
 46
0.0
 47
0.1
 48
0.1
140
3.5
141
0.0
142
0.0
143
0.0393701
144
2.0
145
0.0
146
0.71
147
1.5
 71
     0
 72
     0
 73
     0
 74
     0
 75
     1
 76
     1
 77
     3
 78
     8
170
     0
171
     2
172
     1
173
     1
174
     0
175
     0
176
   256
177
   256
178
    40
  0
DIMSTYLE
  2
STANDARD
 70
     0
  3

  4

  5

  6

  7

 40
1.0
 41
0.18
 42
0.0625
 43
0.38
 44
0.18
 45
0.0
 46
0.0
 47
0.0
 48
0.0
140
0.18
141
0.09
142
0.0
143
25.399999999999999
144
1.0
145
0.0
146
1.0
147
0.09
 71
     0
 72
     0
 73
     1
 74
     1
 75
     0
 76
     0
 77
     0
 78
     0
170
     0
171
     2
172
     0
173
     0
174
     0
175
     0
176
     0
177
     0
178
     0
  0
ENDTAB
  0
ENDSEC
  0
SECTION
  2
BLOCKS
  0
BLOCK
  8
0
  2
$MODEL_SPACE
 70
     0
 10
0.0
 20
0.0
 30
0.0
  3
$MODEL_SPACE
  1

  0
ENDBLK
  5
1C
  8
0
  0
BLOCK
 67
     1
  8
0
  2
$PAPER_SPACE
 70
     0
 10
0.0
 20
0.0
 30
0.0
  3
$PAPER_SPACE
  1

  0
ENDBLK
  5
19
 67
     1
  8
0
  0
BLOCK
  8
0
  2
_OPEN
 70
     0
 10
0.0
 20
0.0
 30
0.0
  3
_OPEN
  1

  0
LINE
  5
4DD9
  8
0
  6
BYBLOCK
 62
     0
 10
-1.0
 20
0.1666666666666666
 30
0.0
 11
0.0
 21
0.0
 31
0.0
  0
LINE
  5
4DDA
  8
0
  6
BYBLOCK
 62
     0
 10
-1.0
 20
-0.1666666666666666
 30
0.0
 11
0.0
 21
0.0
 31
0.0
  0
LINE
  5
4DDB
  8
0
  6
BYBLOCK
 62
     0
 10
0.0
 20
0.0
 30
0.0
 11
-1.0
 21
0.0
 31
0.0
  0
ENDBLK
  5
4DDC
  8
0
  0
BLOCK
  8
0
  2
GENAXEH
 70
     0
 10
0.0
 20
0.0
 30
0.0
  3
GENAXEH
  1

  0
LINE
  5
4E14
  8
0
 10
-1.0
 20
0.0
 30
0.0
 11
1.0
 21
0.0
 31
0.0
  0
ENDBLK
  5
4E15
  8
0
  0
BLOCK
  8
0
  2
_OPEN30
 70
     0
 10
0.0
 20
0.0
 30
0.0
  3
_OPEN30
  1

  0
LINE
  5
4E50
  8
0
  6
BYBLOCK
 62
     0
 10
-1.0
 20
0.26794919
 30
0.0
 11
0.0
 21
0.0
 31
0.0
  0
LINE
  5
4E51
  8
0
  6
BYBLOCK
 62
     0
 10
0.0
 20
0.0
 30
0.0
 11
-1.0
 21
-0.26794919
 31
0.0
  0
LINE
  5
4E52
  8
0
  6
BYBLOCK
 62
     0
 10
0.0
 20
0.0
 30
0.0
 11
-1.0
 21
0.0
 31
0.0
  0
ENDBLK
  5
4E53
  8
0
  0
ENDSEC
  0
SECTION
  2
ENTITIES
  0
LINE
  5
4623
  8
245
  6
CENTER2
 10
-46.163801730594059
 20
0.0000000000002274
 30
0.0
 11
314.99040576316111
 21
0.0000000000002274
 31
0.0
  0
LINE
  5
4624
  8
245
  6
CENTER2
 10
-43.709484785658127
 20
91.0
 30
0.0
 11
321.53231985270492
 21
91.0
 31
0.0
  0
LINE
  5
4625
  8
245
  6
CENTER2
 10
0.0
 20
44.924804764720882
 30
0.0
 11
0.0
 21
-44.568392009916693
 31
0.0
  0
LINE
  5
4626
  8
245
  6
CENTER2
 10
0.0
 20
103.0924692851252
 30
0.0
 11
0.0
 21
78.529422140724733
 31
0.0
  0
CIRCLE
  5
4637
  8
241
  6
CONTINUOUS
 10
0.0
 20
0.0000000000002274
 30
0.0
 40
41.0
  0
ARC
  5
4638
  8
241
  6
CONTINUOUS
 10
0.0
 20
0.0000000000002274
 30
0.0
 40
45.0
 50
341.94043854184292
 51
18.059561458154018
  0
ARC
  5
4639
  8
241
  6
CONTINUOUS
 10
45.159901377831027
 20
-14.72526086507707
 30
0.0
 40
2.5
 50
161.9404385418465
 51
278.00000000000091
1001
ASK_MEN_XD
1005
486D
1070
     1
1005
4638
1070
     1
  0
ARC
  5
463A
  8
241
  6
CONTINUOUS
 10
45.159901377831027
 20
14.72526086507747
 30
0.0
 40
2.5
 50
81.999999999999119
 51
198.05956145815711
1001
ASK_MEN_XD
1005
486A
1070
     1
1005
4638
1070
     1
  0
LINE
  5
463D
  8
240
  6
CONTINUOUS
 10
-39.572248296088958
 20
100.9999999999998
 30
0.0
 11
39.572248296089022
 21
100.9999999999998
 31
0.0
  0
LINE
  5
463E
  8
240
  6
CONTINUOUS
 10
-39.572248296088929
 20
81.0
 30
0.0
 11
39.572248296088958
 21
81.000000000000085
 31
0.0
  0
ARC
  5
4640
  8
240
  6
CONTINUOUS
 10
14.122222222222179
 20
91.0
 30
0.0
 40
28.67777777777782
 50
342.54990138190612
 51
343.95263128221649
  0
ARC
  5
4641
  8
240
  6
CONTINUOUS
 10
43.124077229964307
 20
82.657897284566516
 30
0.0
 40
1.5
 50
91.000000000001776
 51
163.95263128221649
1001
ASK_MEN_XD
1005
4693
1070
     1
1005
4640
1070
     1
  0
ARC
  5
4642
  8
240
  6
CONTINUOUS
 10
14.122222222222179
 20
91.0
 30
0.0
 40
28.67777777777782
 50
16.047368717783471
 51
17.450098618090539
  0
ARC
  5
4643
  8
240
  6
CONTINUOUS
 10
43.12407722996425
 20
99.342102715433526
 30
0.0
 40
1.5
 50
196.0473687177834
 51
268.99999999999977
1001
ASK_MEN_XD
1005
4691
1070
     1
1005
4642
1070
     1
  0
ARC
  5
4644
  8
240
  6
CONTINUOUS
 10
-0.0000000000000568
 20
0.0000000000001137
 30
0.0
 40
42.799999999999997
 50
50.787125394549719
 51
309.21287460545028
  0
ARC
  5
4645
  8
240
  6
CONTINUOUS
 10
58.668477378893378
 20
71.901667310586618
 30
0.0
 40
50.0
 50
230.78712539454969
 51
261.9999999999992
1001
ASK_MEN_XD
1005
4867
1070
     1
1005
4644
1070
     1
  0
ARC
  5
4647
  8
241
  6
CONTINUOUS
 10
0.0
 20
0.0000000000001705
 30
0.0
 40
42.050430953836809
 50
328.80419011710461
 51
30.16161674381495
  0
ARC
  5
464B
  8
240
  6
CONTINUOUS
 10
-14.12222222222224
 20
91.0
 30
0.0
 40
28.677777777777749
 50
162.54990138190939
 51
197.45009861809049
  0
ARC
  5
464C
  8
240
  6
CONTINUOUS
 10
-39.572248296088958
 20
98.999999999999858
 30
0.0
 40
2.0
 50
90.0
 51
162.54990138190939
  0
ARC
  5
464D
  8
240
  6
CONTINUOUS
 10
-39.572248296088929
 20
83.0
 30
0.0
 40
2.0
 50
197.45009861809049
 51
270.0
  0
ARC
  5
4650
  8
240
  6
CONTINUOUS
 10
39.572248296088958
 20
83.000000000000085
 30
0.0
 40
2.0
 50
270.0
 51
342.54990138190612
  0
ARC
  5
4651
  8
240
  6
CONTINUOUS
 10
39.572248296089022
 20
98.999999999999858
 30
0.0
 40
2.0
 50
17.450098618090539
 51
90.0
  0
LINE
  5
4652
  8
241
  6
CONTINUOUS
 10
119.9999999999996
 20
13.100504777139459
 30
0.0
 11
119.9999999999996
 21
-13.10050477713901
 31
0.0
  0
ARC
  5
4653
  8
240
  6
CONTINUOUS
 10
293.99999999999949
 20
0.0000000000005116
 30
0.0
 40
16.0
 50
269.00000000000148
 51
90.999999999998494
  0
LINE
  5
4654
  8
240
  6
CONTINUOUS
 10
293.72076149700342
 20
15.997563122502809
 30
0.0
 11
126.76419240160951
 21
13.08332536875457
 31
0.0
  0
ARC
  5
4655
  8
240
  6
CONTINUOUS
 10
125.0189517578838
 20
113.0680948843937
 30
0.0
 40
100.0
 50
261.9999999999992
 51
270.99999999999852
1001
ASK_MEN_XD
1005
4867
1070
     1
1005
4654
1070
     1
  0
LINE
  5
4656
  8
240
  6
CONTINUOUS
 10
293.72076149700342
 20
-15.997563122501781
 30
0.0
 11
126.76419240161241
 21
-13.083325368753661
 31
0.0
  0
ARC
  5
4657
  8
240
  6
CONTINUOUS
 10
125.0189517578867
 20
-113.06809488439281
 30
0.0
 40
100.0
 50
89.000000000001506
 51
98.000000000000895
1001
ASK_MEN_XD
1005
4869
1070
     1
1005
4656
1070
     1
  0
LINE
  5
4658
  8
245
  6
CENTER2
 10
293.99999999999949
 20
-21.003198888921592
 30
0.0
 11
293.99999999999972
 21
21.003198888922672
 31
0.0
  0
ARC
  5
465B
  8
241
  6
CONTINUOUS
 10
0.0
 20
0.0000000000002274
 30
0.0
 40
104.0
 50
356.13618330064151
 51
3.8638166993585141
  0
ARC
  5
465C
  8
241
  6
CONTINUOUS
 10
101.269293824044
 20
-6.839600016041345
 30
0.0
 40
2.5
 50
278.00000000000091
 51
356.13618330064151
1001
ASK_MEN_XD
1005
486D
1070
     1
1005
465B
1070
     1
  0
ARC
  5
465D
  8
241
  6
CONTINUOUS
 10
101.269293824044
 20
6.8396000160418557
 30
0.0
 40
2.5
 50
3.8638166993585141
 51
81.999999999997513
1001
ASK_MEN_XD
1005
486A
1070
     1
1005
465B
1070
     1
  0
LINE
  5
4660
  8
241
  6
CONTINUOUS
 10
309.96871942267131
 20
92.000000000000085
 30
0.0
 11
-42.782559594130539
 21
92.000000000000014
 31
0.0
  0
LINE
  5
4661
  8
241
  6
CONTINUOUS
 10
309.96871942267131
 20
90.000000000000028
 30
0.0
 11
-42.782559594130539
 21
90.0
 31
0.0
  0
ARC
  5
4662
  8
240
  6
CONTINUOUS
 10
294.0
 20
91.0
 30
0.0
 40
16.0
 50
350.79310377865272
 51
9.2068962213473533
  0
ARC
  5
4663
  8
240
  6
CONTINUOUS
 10
306.33896267925309
 20
89.0
 30
0.0
 40
3.5
 50
270.0
 51
350.79310377865272
1001
ASK_MEN_XD
1005
4662
1070
     1
1005
4667
1070
     1
  0
ARC
  5
4664
  8
240
  6
CONTINUOUS
 10
306.33896267925309
 20
93.0
 30
0.0
 40
3.5
 50
9.2068962213473533
 51
90.0
1001
ASK_MEN_XD
1005
4662
1070
     1
1005
4665
1070
     1
  0
LINE
  5
4665
  8
240
  6
CONTINUOUS
 10
306.33896267925309
 20
96.500000000000028
 30
0.0
 11
120.8726867790752
 21
96.500000000000028
 31
0.0
  0
ARC
  5
4666
  8
240
  6
CONTINUOUS
 10
120.8726867790752
 20
196.5
 30
0.0
 40
100.0
 50
268.99999999999977
 51
270.0
1001
ASK_MEN_XD
1005
4691
1070
     1
1005
4665
1070
     1
  0
LINE
  5
4667
  8
240
  6
CONTINUOUS
 10
306.33896267925309
 20
85.499999999999986
 30
0.0
 11
120.8726867790752
 21
85.5
 31
0.0
  0
LINE
  5
4691
  8
240
  6
CONTINUOUS
 10
119.1274461353468
 20
96.515230484360885
 30
0.0
 11
43.097898620308342
 21
97.842331172698906
 31
0.0
  0
ARC
  5
4692
  8
240
  6
CONTINUOUS
 10
120.8726867790752
 20
-14.50000000000003
 30
0.0
 40
100.0
 50
90.0
 51
91.000000000000128
1001
ASK_MEN_XD
1005
4691
1070
     1
1005
4665
1070
     1
  0
LINE
  5
4693
  8
240
  6
CONTINUOUS
 10
119.1274461353468
 20
85.484769515639115
 30
0.0
 11
43.097898620308342
 21
84.157668827301094
 31
0.0
  0
LINE
  5
46A6
  8
241
  6
CONTINUOUS
 10
267.29669090943207
 20
-9.5354152864659341
 30
0.0
 11
139.17271015716321
 21
-7.2990028835768612
 31
0.0
  0
LINE
  5
46A7
  8
241
  6
CONTINUOUS
 10
267.29669090943207
 20
9.5354152864654793
 30
0.0
 11
139.17271015716321
 21
7.2990028835762351
 31
0.0
  0
CIRCLE
  5
46A8
  8
241
  6
CONTINUOUS
 10
293.99999999999909
 20
0.0
 30
0.0
 40
10.0
  0
ARC
  5
46A9
  8
241
  6
CONTINUOUS
 10
267.4631322023746
 20
-0.0000000000002274
 30
0.0
 40
9.5368677976240406
 50
269.00000000000148
 51
90.999999999998494
  0
LINE
  5
4867
  8
240
  6
CONTINUOUS
 10
111.1016416618757
 20
14.04128801023694
 30
0.0
 11
51.709822330889317
 21
22.388263873508208
 31
0.0
  0
ARC
  5
4868
  8
240
  6
CONTINUOUS
 10
58.668477378893378
 20
-71.901667310586163
 30
0.0
 40
50.0
 50
98.000000000000895
 51
129.21287460545031
1001
ASK_MEN_XD
1005
4867
1070
     1
1005
4644
1070
     1
  0
LINE
  5
4869
  8
240
  6
CONTINUOUS
 10
111.1016416618787
 20
-14.04128801023603
 30
0.0
 11
51.709822330889317
 21
-22.38826387350775
 31
0.0
  0
LINE
  5
486A
  8
241
  6
CONTINUOUS
 10
101.6172265764443
 20
9.3152701878958055
 30
0.0
 11
45.507834130231231
 21
17.200931036931419
 31
0.0
  0
LINE
  5
486D
  8
241
  6
CONTINUOUS
 10
45.507834130231231
 20
-17.200931036931021
 30
0.0
 11
101.6172265764442
 21
-9.3152701878952922
 31
0.0
  0
ARC
  5
4870
  8
241
  6
CONTINUOUS
 10
139.30011472640709
 20
-0.0000000000002842
 30
0.0
 40
7.300114726408423
 50
90.999999999998494
 51
269.00000000000148
  0
CIRCLE
  5
48A7
  8
241
  6
CONTINUOUS
 10
-0.0000000000020179
 20
0.0000000000002274
 30
0.0
 40
30.0
  0
LINE
  5
4BC7
  8
241
  6
CONTINUOUS
 10
56.34986457640241
 20
-8.5261824134014432
 30
0.0
 11
59.216862271324942
 21
-6.3657446887572169
 31
0.0
  0
LINE
  5
4BC8
  8
241
  6
CONTINUOUS
 10
51.855751160213508
 20
-13.041666666669469
 30
0.0
 11
51.855751160213508
 21
-8.9583333333360429
 31
0.0
  0
LINE
  5
4BC9
  8
241
  6
CONTINUOUS
 10
55.804643843165699
 20
5.912942026791483
 30
0.0
 11
57.149596794175011
 21
6.1988206016659433
 31
0.0
  0
LINE
  5
4BCA
  8
241
  6
CONTINUOUS
 10
46.855751160213849
 20
-13.041666666669469
 30
0.0
 11
51.855751160213742
 21
-13.041666666669469
 31
0.0
  0
LINE
  5
4BCB
  8
241
  6
CONTINUOUS
 10
57.531006648158552
 20
-5.9765342505440913
 30
0.0
 11
59.216862271323009
 21
-6.3657446887629581
 31
0.0
  0
LINE
  5
4BCC
  8
241
  6
CONTINUOUS
 10
54.720097680370202
 20
-5.3275847817321837
 30
0.0
 11
56.186759479573603
 21
-5.666190338307274
 31
0.0
  0
LINE
  5
4BCD
  8
241
  6
CONTINUOUS
 10
54.720097680374629
 20
-5.3275847817266699
 30
0.0
 11
56.349864576405537
 21
-8.5261824134013864
 31
0.0
  0
LINE
  5
4BCE
  8
241
  6
CONTINUOUS
 10
46.855751160213849
 20
-12.291666666669469
 30
0.0
 11
51.105751160213508
 21
-12.291666666669469
 31
0.0
  0
LINE
  5
4BCF
  8
241
  6
CONTINUOUS
 10
51.105751160213508
 20
-12.291666666669469
 30
0.0
 11
51.105751160213508
 21
-8.9583333333360429
 31
0.0
  0
LINE
  5
4BD0
  8
241
  6
CONTINUOUS
 10
51.105751160213508
 20
-8.9583333333360429
 30
0.0
 11
51.855751160213508
 21
-8.9583333333360429
 31
0.0
  0
LINE
  5
4BD1
  8
241
  6
CONTINUOUS
 10
46.855751160213849
 20
-13.041666666669469
 30
0.0
 11
46.855751160213849
 21
-12.291666666669469
 31
0.0
  0
LINE
  5
4BD2
  8
241
  6
CONTINUOUS
 10
46.855751160213849
 20
10.083333333330749
 30
0.0
 11
49.049042089495352
 21
10.083333333330749
 31
0.0
  0
LINE
  5
4BD3
  8
241
  6
CONTINUOUS
 10
46.855751160213849
 20
9.3333333333307564
 30
0.0
 11
51.855751160213742
 21
9.3333333333307564
 31
0.0
  0
LINE
  5
4BD4
  8
241
  6
CONTINUOUS
 10
49.037270105055939
 20
11.20854156645942
 30
0.0
 11
47.409615280659921
 21
12.991211136036039
 31
0.0
  0
LINE
  5
4BD5
  8
241
  6
CONTINUOUS
 10
49.049042089495352
 20
10.083333333330749
 30
0.0
 11
46.855751160213849
 21
12.48550911302004
 31
0.0
  0
LINE
  5
4BD6
  8
241
  6
CONTINUOUS
 10
49.543644919164933
 20
10.653940579578141
 30
0.0
 11
51.855751160213678
 21
12.55607298844256
 31
0.0
  0
LINE
  5
4BD7
  8
241
  6
CONTINUOUS
 10
49.037270105055939
 20
11.20854156645942
 30
0.0
 11
51.379262613330461
 21
13.13526092399462
 31
0.0
  0
LINE
  5
4BD8
  8
241
  6
CONTINUOUS
 10
51.855751160213742
 20
9.3333333333307564
 30
0.0
 11
51.855751160213742
 21
10.083333333330749
 31
0.0
  0
LINE
  5
4BD9
  8
241
  6
CONTINUOUS
 10
46.855751160213849
 20
9.3333333333307564
 30
0.0
 11
46.855751160213849
 21
10.083333333330749
 31
0.0
  0
LINE
  5
4BDA
  8
241
  6
CONTINUOUS
 10
51.379262613330461
 20
13.13526092399462
 30
0.0
 11
51.855751160213742
 21
12.55607298844256
 31
0.0
  0
LINE
  5
4BDB
  8
241
  6
CONTINUOUS
 10
46.855751160213849
 20
12.48550911302004
 30
0.0
 11
47.409615280659921
 21
12.991211136036039
 31
0.0
  0
LINE
  5
4BDC
  8
241
  6
CONTINUOUS
 10
50.064634143999513
 20
10.083333333330749
 30
0.0
 11
49.543644919164933
 21
10.653940579578141
 31
0.0
  0
LINE
  5
4BDD
  8
241
  6
CONTINUOUS
 10
50.064634143999513
 20
10.083333333330749
 30
0.0
 11
51.855751160213742
 21
10.083333333330749
 31
0.0
  0
LINE
  5
4BDE
  8
241
  6
CONTINUOUS
 10
48.89741782688003
 20
-5.8339682095269154
 30
0.0
 11
49.814084493546879
 21
-5.8339682095269154
 31
0.0
  0
LINE
  5
4BDF
  8
241
  6
CONTINUOUS
 10
48.89741782688003
 20
-1.750634876193601
 30
0.0
 11
49.814084493546879
 21
-1.750634876193601
 31
0.0
  0
LINE
  5
4BE0
  8
241
  6
CONTINUOUS
 10
48.89741782688003
 20
-5.0839682095269154
 30
0.0
 11
49.814084493546879
 21
-5.0839682095269154
 31
0.0
  0
LINE
  5
4BE1
  8
241
  6
CONTINUOUS
 10
48.89741782688003
 20
-2.500634876193657
 30
0.0
 11
49.814084493546879
 21
-2.500634876193657
 31
0.0
  0
LINE
  5
4BE2
  8
241
  6
CONTINUOUS
 10
48.89741782688003
 20
2.4996825619020342
 30
0.0
 11
49.814084493546879
 21
2.4996825619020342
 31
0.0
  0
LINE
  5
4BE3
  8
241
  6
CONTINUOUS
 10
48.89741782688003
 20
1.749682561902034
 30
0.0
 11
49.814084493546879
 21
1.749682561902034
 31
0.0
  0
LINE
  5
4BE4
  8
241
  6
CONTINUOUS
 10
48.563109893622652
 20
5.0390034208587053
 30
0.0
 11
48.368995609795711
 21
5.7634477905754693
 31
0.0
  0
LINE
  5
4BE5
  8
241
  6
CONTINUOUS
 10
50.148392426804271
 20
5.0390034208587053
 30
0.0
 11
50.342506710631191
 21
5.7634477905754693
 31
0.0
  0
ARC
  5
4BE6
  8
241
  6
CONTINUOUS
 10
23.525773018949391
 20
-0.9481437701944059
 30
0.0
 40
33.0
 50
351.7801918472021
 51
11.99999999999625
  0
ARC
  5
4BE7
  8
241
  6
CONTINUOUS
 10
23.525773018949391
 20
-0.9481437701944059
 30
0.0
 40
34.375
 50
351.58856573578402
 51
11.99999999999625
  0
ARC
  5
4BE8
  8
241
  6
CONTINUOUS
 10
49.814084493546879
 20
-3.7923015428602862
 30
0.0
 40
2.0416666666666421
 50
270.0
 51
90.0
  0
ARC
  5
4BE9
  8
241
  6
CONTINUOUS
 10
48.89741782688003
 20
-3.7923015428602862
 30
0.0
 40
2.0416666666666421
 50
90.0
 51
270.0
  0
ARC
  5
4BEA
  8
241
  6
CONTINUOUS
 10
49.814084493546879
 20
-3.7923015428602862
 30
0.0
 40
1.2916666666666421
 50
270.0
 51
90.0
  0
ARC
  5
4BEB
  8
241
  6
CONTINUOUS
 10
48.89741782688003
 20
-3.7923015428602862
 30
0.0
 40
1.2916666666666421
 50
90.0
 51
270.0
  0
ARC
  5
4BEC
  8
241
  6
CONTINUOUS
 10
48.89741782688003
 20
3.7913492285686621
 30
0.0
 40
1.2916666666666421
 50
105.00000000000161
 51
270.0
  0
ARC
  5
4BED
  8
241
  6
CONTINUOUS
 10
48.89741782688003
 20
3.7913492285686621
 30
0.0
 40
2.0416666666666421
 50
105.00000000000161
 51
270.0
  0
ARC
  5
4BEE
  8
241
  6
CONTINUOUS
 10
49.814084493546879
 20
3.7913492285686621
 30
0.0
 40
2.0416666666666421
 50
270.0
 51
74.99999999999838
  0
ARC
  5
4BEF
  8
241
  6
CONTINUOUS
 10
49.814084493546879
 20
3.7913492285686621
 30
0.0
 40
1.2916666666666421
 50
270.0
 51
74.99999999999838
  0
CIRCLE
  5
4BF0
  8
246
  6
PHANTOM2
 10
0.0
 20
0.0000000000002274
 30
0.0
 40
29.5
  0
LINE
  5
4BF1
  8
246
  6
PHANTOM2
 10
-29.5
 20
100.9999999999998
 30
0.0
 11
-29.5
 21
81.000000000000014
 31
0.0
  0
LINE
  5
4BF2
  8
246
  6
PHANTOM2
 10
29.5
 20
100.9999999999998
 30
0.0
 11
29.5
 21
81.000000000000099
 31
0.0
  0
TEXT
  5
4CE9
  8
241
  6
CONTINUOUS
 10
-35.0
 20
126.0
 30
0.0
 40
4.0
  1
MGR59L
  7
YOKO
  0
LINE
  5
4D04
  8
250
  6
CONTINUOUS
 10
-42.800000000000047
 20
0.5000000000002274
 30
0.0
 11
-42.80000000000004
 21
63.99999999999995
 31
0.0
  0
LINE
  5
4D05
  8
250
  6
CONTINUOUS
 10
309.9999999999996
 20
0.5000000000002274
 30
0.0
 11
309.9999999999996
 21
63.99999999999995
 31
0.0
  0
LINE
  5
4D06
  8
250
  6
CONTINUOUS
 10
-40.570000000000043
 20
62.999999999999943
 30
0.0
 11
307.76999999999953
 21
62.999999999999943
 31
0.0
  0
LINE
  5
4D0A
  8
250
  6
CONTINUOUS
 10
0.0
 20
45.424804764720868
 30
0.0
 11
0.0000000000000007
 21
57.0
 31
0.0
  0
LINE
  5
4D0B
  8
250
  6
CONTINUOUS
 10
309.9999999999996
 20
0.5000000000002274
 30
0.0
 11
309.9999999999996
 21
57.0
 31
0.0
  0
LINE
  5
4D0C
  8
250
  6
CONTINUOUS
 10
2.23
 20
56.0
 30
0.0
 11
307.76999999999953
 21
56.0
 31
0.0
  0
LINE
  5
4D10
  8
250
  6
CONTINUOUS
 10
-42.800000000000047
 20
0.5000000000002274
 30
0.0
 11
-42.800000000000047
 21
57.0
 31
0.0
  0
LINE
  5
4D11
  8
250
  6
CONTINUOUS
 10
0.0
 20
45.424804764720868
 30
0.0
 11
0.0000000000000007
 21
57.0
 31
0.0
  0
LINE
  5
4D12
  8
250
  6
CONTINUOUS
 10
-40.57000000000005
 20
56.0
 30
0.0
 11
-2.2299999999999991
 21
56.0
 31
0.0
  0
LINE
  5
4D16
  8
250
  6
CONTINUOUS
 10
-29.5
 20
101.4999999999998
 30
0.0
 11
-29.5
 21
113.0
 31
0.0
  0
LINE
  5
4D17
  8
250
  6
CONTINUOUS
 10
29.5
 20
101.4999999999998
 30
0.0
 11
29.5
 21
113.0
 31
0.0
  0
LINE
  5
4D18
  8
250
  6
CONTINUOUS
 10
-27.27
 20
112.0
 30
0.0
 11
27.27
 21
112.0
 31
0.0
  0
TEXT
  5
4D1C
  8
250
  6
CONTINUOUS
 10
127.5999999999997
 20
63.99999999999995
 30
0.0
 40
2.7999999999999989
  1
352.8
  0
LINE
  5
4D1D
  8
250
  6
CONTINUOUS
 10
307.76999999999953
 20
63.371666666666613
 30
0.0
 11
309.9999999999996
 21
62.999999999999943
 31
0.0
  0
LINE
  5
4D1E
  8
250
  6
CONTINUOUS
 10
307.76999999999953
 20
62.628333333333273
 30
0.0
 11
309.9999999999996
 21
62.999999999999943
 31
0.0
  0
LINE
  5
4D1F
  8
250
  6
CONTINUOUS
 10
309.9999999999996
 20
62.999999999999943
 30
0.0
 11
307.76999999999953
 21
62.999999999999943
 31
0.0
  0
LINE
  5
4D20
  8
250
  6
CONTINUOUS
 10
-40.570000000000043
 20
62.628333333333273
 30
0.0
 11
-42.80000000000004
 21
62.999999999999943
 31
0.0
  0
LINE
  5
4D21
  8
250
  6
CONTINUOUS
 10
-40.570000000000043
 20
63.371666666666613
 30
0.0
 11
-42.80000000000004
 21
62.999999999999943
 31
0.0
  0
LINE
  5
4D22
  8
250
  6
CONTINUOUS
 10
-42.80000000000004
 20
62.999999999999943
 30
0.0
 11
-40.570000000000043
 21
62.999999999999943
 31
0.0
  0
TEXT
  5
4D23
  8
250
  6
CONTINUOUS
 10
150.9999999999998
 20
57.0
 30
0.0
 40
2.7999999999999989
  1
310
  0
LINE
  5
4D24
  8
250
  6
CONTINUOUS
 10
307.76999999999953
 20
56.37166666666667
 30
0.0
 11
309.9999999999996
 21
56.0
 31
0.0
  0
LINE
  5
4D25
  8
250
  6
CONTINUOUS
 10
307.76999999999953
 20
55.62833333333333
 30
0.0
 11
309.9999999999996
 21
56.0
 31
0.0
  0
LINE
  5
4D26
  8
250
  6
CONTINUOUS
 10
309.9999999999996
 20
56.0
 30
0.0
 11
307.76999999999953
 21
56.0
 31
0.0
  0
LINE
  5
4D27
  8
250
  6
CONTINUOUS
 10
2.23
 20
55.62833333333333
 30
0.0
 11
0.0000000000000007
 21
56.0
 31
0.0
  0
LINE
  5
4D28
  8
250
  6
CONTINUOUS
 10
2.23
 20
56.37166666666667
 30
0.0
 11
0.0000000000000007
 21
56.0
 31
0.0
  0
LINE
  5
4D29
  8
250
  6
CONTINUOUS
 10
0.0000000000000007
 20
56.0
 30
0.0
 11
2.23
 21
56.0
 31
0.0
  0
TEXT
  5
4D2A
  8
250
  6
CONTINUOUS
 10
-26.066666666666691
 20
57.0
 30
0.0
 40
2.7999999999999989
  1
42.8
  0
LINE
  5
4D2B
  8
250
  6
CONTINUOUS
 10
-2.2299999999999991
 20
56.37166666666667
 30
0.0
 11
0.0000000000000007
 21
56.0
 31
0.0
  0
LINE
  5
4D2C
  8
250
  6
CONTINUOUS
 10
-2.2299999999999991
 20
55.62833333333333
 30
0.0
 11
0.0000000000000007
 21
56.0
 31
0.0
  0
LINE
  5
4D2D
  8
250
  6
CONTINUOUS
 10
0.0000000000000007
 20
56.0
 30
0.0
 11
-2.2299999999999991
 21
56.0
 31
0.0
  0
LINE
  5
4D2E
  8
250
  6
CONTINUOUS
 10
-40.57000000000005
 20
55.62833333333333
 30
0.0
 11
-42.800000000000047
 21
56.0
 31
0.0
  0
LINE
  5
4D2F
  8
250
  6
CONTINUOUS
 10
-40.57000000000005
 20
56.37166666666667
 30
0.0
 11
-42.800000000000047
 21
56.0
 31
0.0
  0
LINE
  5
4D30
  8
250
  6
CONTINUOUS
 10
-42.800000000000047
 20
56.0
 30
0.0
 11
-40.57000000000005
 21
56.0
 31
0.0
  0
TEXT
  5
4D31
  8
250
  6
CONTINUOUS
 10
-3.8666666666666649
 20
113.0
 30
0.0
 40
2.7999999999999989
  1
\U+220559
  0
LINE
  5
4D32
  8
250
  6
CONTINUOUS
 10
27.27
 20
112.3716666666666
 30
0.0
 11
29.5
 21
112.0
 31
0.0
  0
LINE
  5
4D33
  8
250
  6
CONTINUOUS
 10
27.27
 20
111.6283333333333
 30
0.0
 11
29.5
 21
112.0
 31
0.0
  0
LINE
  5
4D34
  8
250
  6
CONTINUOUS
 10
29.5
 20
112.0
 30
0.0
 11
27.27
 21
112.0
 31
0.0
  0
LINE
  5
4D35
  8
250
  6
CONTINUOUS
 10
-27.27
 20
111.6283333333333
 30
0.0
 11
-29.5
 21
112.0
 31
0.0
  0
LINE
  5
4D36
  8
250
  6
CONTINUOUS
 10
-27.27
 20
112.3716666666666
 30
0.0
 11
-29.5
 21
112.0
 31
0.0
  0
LINE
  5
4D37
  8
250
  6
CONTINUOUS
 10
-29.5
 20
112.0
 30
0.0
 11
-27.27
 21
112.0
 31
0.0
  0
VIEWPORT
  5
22
 67
     1
  8
0
 10
261.51769911504419
 20
148.5
 30
0.0
 40
523.0353982300885
 41
297.0
 68
     1
 69
     1
1001
ACAD
1000
MVIEW
1002
{
1070
    16
1010
0.0
1020
0.0
1030
0.0
1010
0.0
1020
0.0
1030
1.0
1040
0.0
1040
297.0
1040
261.51769911504419
1040
148.5
1040
50.0
1040
0.0
1040
0.0
1070
     0
1070
   100
1070
     1
1070
     1
1070
     0
1070
     0
1070
     0
1070
     0
1040
0.0
1040
0.0
1040
0.0
1040
1.0
1040
1.0
1040
10.0
1040
10.0
1070
     0
1002
{
1002
}
1002
}
1001
GENIUS_GENODEF_13
1002
{
1000
HIER
1070
     0
1002
}
1002
{
1000
MANEDIT
1070
     0
1002
}
1002
{
1000
NOSEL
1070
     0
1002
}
1002
{
1000
BEHIND
1070
     0
1002
}
1002
{
1000
OTHER
1070
     0
1002
}
1002
{
1000
REACTOR
1002
}
1001
GENIUS_GENOBJ-N-SDF_13
1002
{
1000
OWNER
1000
GEN
1002
}
1001
GENIUS_GENSCREG_15
1000
PF
1040
1.0
1000
DF
1040
1.0
1000
MIN
1011
0.0
1021
0.0
1031
0.0
1021
0.0
1031
0.0
1000
MAX
1011
523.0353982300885
1021
0.0
1031
0.0
1021
297.0
1031
0.0
1000
FLAGS
1070
     4
  0
ENDSEC
  0
EOF
