  0
SECTION
  2
HEADER
  9
$ACADVER
  1
AC1009
  9
$INSBASE
 10
0.0
 20
0.0
 30
0.0
  9
$EXTMIN
 10
-41.470215663303861
 20
-42.078007918044513
 30
0.0
  9
$EXTMAX
 10
302.00654140992128
 20
137.0
 30
0.0
  9
$LIMMIN
 10
0.0
 20
0.0
  9
$LIMMAX
 10
297.0
 20
210.0
  9
$ORTHOMODE
 70
     1
  9
$REGENMODE
 70
     1
  9
$FILLMODE
 70
     1
  9
$QTEXTMODE
 70
     0
  9
$MIRRTEXT
 70
     1
  9
$DRAGMODE
 70
     2
  9
$LTSCALE
 40
10.0
  9
$OSMODE
 70
    37
  9
$ATTMODE
 70
     1
  9
$TEXTSIZE
 40
3.0
  9
$TRACEWID
 40
1.0
  9
$TEXTSTYLE
  7
YOKO
  9
$CLAYER
  8
240
  9
$CELTYPE
  6
BYLAYER
  9
$CECOLOR
 62
   256
  9
$DIMSCALE
 40
1.0
  9
$DIMASZ
 40
2.2299999999999991
  9
$DIMEXO
 40
0.5
  9
$DIMDLI
 40
7.0
  9
$DIMRND
 40
0.0
  9
$DIMDLE
 40
0.0
  9
$DIMEXE
 40
1.0
  9
$DIMTP
 40
0.0
  9
$DIMTM
 40
0.01
  9
$DIMTXT
 40
2.7999999999999989
  9
$DIMCEN
 40
0.0
  9
$DIMTSZ
 40
0.0
  9
$DIMTOL
 70
     0
  9
$DIMLIM
 70
     0
  9
$DIMTIH
 70
     0
  9
$DIMTOH
 70
     0
  9
$DIMSE1
 70
     0
  9
$DIMSE2
 70
     0
  9
$DIMTAD
 70
     3
  9
$DIMZIN
 70
     9
  9
$DIMBLK
  1
OPEN
  9
$DIMASO
 70
     1
  9
$DIMSHO
 70
     1
  9
$DIMPOST
  1

  9
$DIMAPOST
  1

  9
$DIMALT
 70
     0
  9
$DIMALTD
 70
     2
  9
$DIMALTF
 40
25.399999999999999
  9
$DIMLFAC
 40
1.0
  9
$DIMTOFL
 70
     1
  9
$DIMTVP
 40
0.0
  9
$DIMTIX
 70
     1
  9
$DIMSOXD
 70
     0
  9
$DIMSAH
 70
     0
  9
$DIMBLK1
  1

  9
$DIMBLK2
  1

  9
$DIMSTYLE
  2
BIGT
  9
$DIMCLRD
 70
   256
  9
$DIMCLRE
 70
   256
  9
$DIMCLRT
 70
    40
  9
$DIMTFAC
 40
1.0
  9
$DIMGAP
 40
1.0
  9
$LUNITS
 70
     2
  9
$LUPREC
 70
     6
  9
$SKETCHINC
 40
1.0
  9
$FILLETRAD
 40
0.0
  9
$AUNITS
 70
     0
  9
$AUPREC
 70
     6
  9
$MENU
  1
.
  9
$ELEVATION
 40
0.0
  9
$PELEVATION
 40
0.0
  9
$THICKNESS
 40
0.0
  9
$LIMCHECK
 70
     0
  9
$BLIPMODE
 70
     0
  9
$CHAMFERA
 40
0.2
  9
$CHAMFERB
 40
0.2
  9
$SKPOLY
 70
     0
  9
$TDCREATE
 40
2459494.7120799068
  9
$TDUPDATE
 40
2459495.3622633219
  9
$TDINDWG
 40
0.0115194907
  9
$TDUSRTIMER
 40
0.0115194329
  9
$USRTIMER
 70
     1
  9
$ANGBASE
 50
0.0
  9
$ANGDIR
 70
     0
  9
$PDMODE
 70
     1
  9
$PDSIZE
 40
0.0
  9
$PLINEWID
 40
0.0
  9
$COORDS
 70
     1
  9
$SPLFRAME
 70
     0
  9
$SPLINETYPE
 70
     6
  9
$SPLINESEGS
 70
     4
  9
$ATTDIA
 70
     1
  9
$ATTREQ
 70
     1
  9
$HANDLING
 70
     1
  9
$HANDSEED
  5
4C2C
  9
$SURFTAB1
 70
     6
  9
$SURFTAB2
 70
     6
  9
$SURFTYPE
 70
     6
  9
$SURFU
 70
     6
  9
$SURFV
 70
     6
  9
$UCSNAME
  2

  9
$UCSORG
 10
0.0
 20
0.0
 30
0.0
  9
$UCSXDIR
 10
1.0
 20
0.0
 30
0.0
  9
$UCSYDIR
 10
0.0
 20
1.0
 30
0.0
  9
$PUCSNAME
  2

  9
$PUCSORG
 10
0.0
 20
0.0
 30
0.0
  9
$PUCSXDIR
 10
1.0
 20
0.0
 30
0.0
  9
$PUCSYDIR
 10
0.0
 20
1.0
 30
0.0
  9
$USERI1
 70
     1
  9
$USERI2
 70
     0
  9
$USERI3
 70
     0
  9
$USERI4
 70
     0
  9
$USERI5
 70
     0
  9
$USERR1
 40
0.0
  9
$USERR2
 40
0.0
  9
$USERR3
 40
0.0
  9
$USERR4
 40
0.0
  9
$USERR5
 40
0.0
  9
$WORLDVIEW
 70
     1
  9
$SHADEDGE
 70
     3
  9
$SHADEDIF
 70
    70
  9
$TILEMODE
 70
     1
  9
$MAXACTVP
 70
    16
  9
$PLIMCHECK
 70
     0
  9
$PEXTMIN
 10
1.0000000000000000E+020
 20
1.0000000000000000E+020
 30
1.0000000000000000E+020
  9
$PEXTMAX
 10
-1.0000000000000000E+020
 20
-1.0000000000000000E+020
 30
-1.0000000000000000E+020
  9
$PLIMMIN
 10
0.0
 20
0.0
  9
$PLIMMAX
 10
420.0
 20
297.0
  9
$UNITMODE
 70
     0
  9
$VISRETAIN
 70
     1
  9
$PLINEGEN
 70
     0
  9
$PSLTSCALE
 70
     1
  0
ENDSEC
  0
SECTION
  2
TABLES
  0
TABLE
  2
VPORT
 70
     1
  0
VPORT
  2
*ACTIVE
 70
     0
 10
0.0
 20
0.0
 11
1.0
 21
1.0
 12
139.5519029657996
 22
47.306751036486332
 13
0.0
 23
0.0
 14
7.0
 24
7.0
 15
7.0
 25
7.0
 16
0.0
 26
0.0
 36
1.0
 17
0.0
 27
0.0
 37
0.0
 40
393.6609062699099
 41
1.806872037914691
 42
50.0
 43
0.0
 44
0.0
 50
0.0
 51
0.0
 71
     0
 72
  2000
 73
     1
 74
     0
 75
     1
 76
     1
 77
     0
 78
     0
  0
ENDTAB
  0
TABLE
  2
LTYPE
 70
    21
  0
LTYPE
  2
CONTINUOUS
 70
     0
  3
Solid line
 72
    65
 73
     0
 40
0.0
  0
LTYPE
  2
CENTER2
 70
     0
  3
___ _ ___ _ ___ _ ___ _ ___ _ ___ _ ___ _ ___ _
 72
    65
 73
     4
 40
1.125
 49
0.75
 49
-0.125
 49
0.125
 49
-0.125
  0
LTYPE
  2
HIDDEN2
 70
     0
  3
_ _ _ _ _ _ _ _ _ _ _ _ _ _ _ _ _ _ _ _ _ _ _ _
 72
    65
 73
     2
 40
0.1875
 49
0.125
 49
-0.0625
  0
LTYPE
  2
PHANTOM2
 70
     0
  3
___ _ _ ___ _ _ ___ _ _ ___ _ _ ___ _ _ ___ _ _
 72
    65
 73
     6
 40
1.25
 49
0.625
 49
-0.125
 49
0.125
 49
-0.125
 49
0.125
 49
-0.125
  0
LTYPE
  2
AM_ISO02W050
 70
     0
  3
__ __ __ __ __ __ __ __ __ __ __ __ __ __ __
 72
    65
 73
     2
 40
7.5
 49
6.0
 49
-1.5
  0
LTYPE
  2
AMCONSTR
 70
     0
  3
_______________________
 72
    65
 73
     2
 40
9999.0
 49
9999.0
 49
0.0
  0
LTYPE
  2
ACISOWELD
 70
     0
  3
_ _ _ _ _
 72
    65
 73
     2
 40
2.0
 49
2.0
 49
-1.0
  0
LTYPE
  2
ACISOTGB
 70
     0
  3
__ . . __ . .
 72
    65
 73
     6
 40
9.0
 49
4.0
 49
-1.0
 49
1.0
 49
-1.0
 49
1.0
 49
-1.0
  0
LTYPE
  2
ACISOTGL
 70
     0
  3
_ _ _ _ _
 72
    65
 73
     2
 40
3.0
 49
2.0
 49
-1.0
  0
LTYPE
  2
ACJISTGB
 70
     0
  3
__ . . __ . .
 72
    65
 73
     6
 40
9.0
 49
4.0
 49
-1.0
 49
1.0
 49
-1.0
 49
1.0
 49
-1.0
  0
LTYPE
  2
ACJISTGL
 70
     0
  3
_ _ _ _ _
 72
    65
 73
     2
 40
3.0
 49
2.0
 49
-1.0
  0
ENDTAB
  0
TABLE
  2
LAYER
 70
    16
  0
LAYER
  2
0
 70
     0
 62
     7
  6
CONTINUOUS
  0
LAYER
  2
DEFPOINTS
 70
     0
 62
     7
  6
CONTINUOUS
  0
LAYER
  2
245
 70
     0
 62
     2
  6
CENTER2
  0
LAYER
  2
240
 70
     0
 62
     4
  6
CONTINUOUS
  0
LAYER
  2
241
 70
     0
 62
   211
  6
CONTINUOUS
  0
LAYER
  2
246
 70
     0
 62
     3
  6
PHANTOM2
  0
LAYER
  2
250
 70
     0
 62
     3
  6
CONTINUOUS
  0
ENDTAB
  0
TABLE
  2
STYLE
 70
     9
  0
STYLE
  2
STANDARD
 70
     0
 40
0.0
 41
1.0
 50
0.0
 71
     0
 42
3.0
  3
romans.shx
  4
extfont.shx
  0
STYLE
  2
ACISOTS
 70
     0
 40
1.0
 41
1.0
 50
0.0
 71
     0
 42
3.0
  3
amgdt.shx
  4
extfont.shx
  0
STYLE
  2
ACISOGDT
 70
     0
 40
0.0
 41
1.0
 50
0.0
 71
     0
 42
3.0
  3
amgdt.shx
  4
extfont.shx
  0
STYLE
  2
ACJISTS
 70
     0
 40
1.0
 41
1.0
 50
0.0
 71
     0
 42
3.0
  3
amgdt.shx
  4
extfont.shx
  0
STYLE
  2
ACJISGDT
 70
     0
 40
0.0
 41
1.0
 50
0.0
 71
     0
 42
3.0
  3
amgdt.shx
  4
extfont.shx
  0
STYLE
  2
YOKO
 70
     0
 40
0.0
 41
1.0
 50
0.0
 71
     0
 42
3.0
  3
romans.shx
  4
extfont.shx
  0
ENDTAB
  0
TABLE
  2
VIEW
 70
     0
  0
ENDTAB
  0
TABLE
  2
UCS
 70
     0
  0
ENDTAB
  0
TABLE
  2
APPID
 70
    44
  0
APPID
  2
ACAD
 70
     0
  0
APPID
  2
GLOBAL
 70
     0
  0
APPID
  2
DETAIL
 70
     0
  0
APPID
  2
GRPNAME
 70
     0
  0
APPID
  2
GPARA
 70
     0
  0
APPID
  2
MCAD_NO_VIS
 70
     0
  0
APPID
  2
ACAD_TEMP_GRAPHIC
 70
     0
  0
APPID
  2
ACATTRIBSERVICES
 70
     0
  0
APPID
  2
GENIUS_GENSCREG_15
 70
     0
  0
APPID
  2
GENIUS_GENODEF_13
 70
     0
  0
APPID
  2
GENIUS_GENOBJ-N-SDF_13
 70
     0
  0
APPID
  2
GENIUS_GENREC_14
 70
     0
  0
APPID
  2
GENIUS_GENOBJ-N-REC_13
 70
     0
  0
APPID
  2
GENIUS_GENDIMSH_14
 70
     0
  0
APPID
  2
GENIUS_GENOBJ-N-DIM_13
 70
     0
  0
APPID
  2
GENIUS_GENDIM_13
 70
     0
  0
APPID
  2
GENIUS_GENDTOL_13
 70
     0
  0
APPID
  2
GENIUS_GENOLIS_13
 70
     0
  0
APPID
  2
GENIUS_GENOENT_13
 70
     0
  0
APPID
  2
GENIUS_GENOBJ-F-FEM_13
 70
     0
  0
APPID
  2
GENIUS_GENOREF_13
 70
     0
  0
APPID
  2
GENIUS_GEFFEM_13
 70
     0
  0
APPID
  2
GENIUS_GEFFEMP_13
 70
     0
  0
APPID
  2
AD_DRAW
 70
     0
  0
APPID
  2
DESIGNERASSEMBLIES
 70
     0
  0
APPID
  2
ACADM_DIM_EDIT
 70
     0
  0
APPID
  2
AMDT_DM_ADJ
 70
     0
  0
APPID
  2
ITEMNAME
 70
     0
  0
APPID
  2
GENIUS_GENOBJ-N-FIL_13
 70
     0
  0
APPID
  2
GENIUS_GENFIL_13
 70
     0
  0
APPID
  2
GENIUS_GENOBJ-N-CHA_13
 70
     0
  0
APPID
  2
ACAD_NAV_VCDISPLAY
 70
     0
  0
APPID
  2
ACAECLAYERSTANDARD
 70
     0
  0
APPID
  2
LAYER_SCALE
 70
     0
  0
APPID
  2
ASK_MEN_XD
 70
     0
  0
APPID
  2
ACAD_DSTYLE_DIMINSPECT
 70
     0
  0
APPID
  2
ACAD_DSTYLE_DIMJAG
 70
     0
  0
APPID
  2
ACAD_DSTYLE_DIMBREAK
 70
     0
  0
APPID
  2
ACAD_EXEMPT_FROM_CAD_STANDARDS
 70
     0
  0
APPID
  2
ACAD_MLEADERVER
 70
     0
  0
APPID
  2
ACAD_DSTYLE_DIMARC_LENGTH_
 70
     0
  0
APPID
  2
ACAD_DSTYLE_DIM_LINETYPE
 70
     0
  0
APPID
  2
ACAD_DSTYLE_DIM_EXT1_LINETYPE
 70
     0
  0
APPID
  2
ACAD_DSTYLE_DIM_EXT2_LINETYPE
 70
     0
  0
ENDTAB
  0
TABLE
  2
DIMSTYLE
 70
    33
  0
DIMSTYLE
  2
BIGT
 70
     0
  3

  4

  5
OPEN
  6

  7

 40
1.0
 41
2.2299999999999991
 42
0.5
 43
7.0
 44
1.0
 45
0.0
 46
0.0
 47
0.0
 48
0.01
140
2.7999999999999989
141
0.0
142
0.0
143
25.399999999999999
144
1.0
145
0.0
146
1.0
147
1.0
 71
     0
 72
     0
 73
     0
 74
     0
 75
     0
 76
     0
 77
     3
 78
     9
170
     0
171
     2
172
     1
173
     0
174
     1
175
     0
176
   256
177
   256
178
    40
  0
DIMSTYLE
  2
AM_ISO
 70
     0
  3

  4
"
  5

  6

  7

 40
1.0
 41
2.5
 42
1.0
 43
10.0
 44
1.0
 45
0.0
 46
0.0
 47
0.1
 48
0.1
140
3.5
141
0.0
142
0.0
143
0.0393701
144
1.0
145
0.0
146
0.71
147
1.5
 71
     0
 72
     0
 73
     0
 74
     0
 75
     0
 76
     0
 77
     1
 78
     8
170
     0
171
     2
172
     1
173
     0
174
     0
175
     0
176
   256
177
   256
178
     2
  0
DIMSTYLE
  2
AM_ISO$3
 70
     0
  3

  4
"
  5

  6

  7

 40
1.0
 41
2.5
 42
1.0
 43
10.0
 44
1.0
 45
0.0
 46
0.0
 47
0.1
 48
0.1
140
3.5
141
0.0
142
0.0
143
0.0393701
144
1.0
145
0.0
146
0.71
147
1.5
 71
     0
 72
     0
 73
     0
 74
     1
 75
     0
 76
     0
 77
     1
 78
     8
170
     0
171
     2
172
     0
173
     0
174
     0
175
     0
176
   256
177
   256
178
     2
  0
DIMSTYLE
  2
AM_ISO$4
 70
     0
  3

  4
"
  5

  6

  7

 40
1.0
 41
2.5
 42
1.0
 43
10.0
 44
1.0
 45
0.0
 46
0.0
 47
0.1
 48
0.1
140
3.5
141
0.0
142
0.0
143
0.0393701
144
1.0
145
0.0
146
0.71
147
1.5
 71
     0
 72
     0
 73
     0
 74
     1
 75
     0
 76
     0
 77
     1
 78
     8
170
     0
171
     2
172
     0
173
     0
174
     0
175
     0
176
   256
177
   256
178
     2
  0
DIMSTYLE
  2
AM_ISO$6
 70
     0
  3

  4
"
  5

  6

  7

 40
1.0
 41
2.5
 42
1.0
 43
10.0
 44
1.0
 45
0.0
 46
0.0
 47
0.1
 48
0.1
140
3.5
141
0.0
142
0.0
143
0.0393701
144
1.0
145
0.0
146
0.71
147
1.5
 71
     0
 72
     0
 73
     0
 74
     0
 75
     0
 76
     0
 77
     0
 78
     8
170
     0
171
     2
172
     1
173
     0
174
     0
175
     0
176
   256
177
   256
178
     2
  0
DIMSTYLE
  2
AM_ISO$7
 70
     0
  3

  4
"
  5

  6

  7

 40
1.0
 41
2.5
 42
1.0
 43
10.0
 44
1.0
 45
0.0
 46
0.0
 47
0.1
 48
0.1
140
5.0
141
0.0
142
0.0
143
0.0393701
144
1.0
145
0.0
146
0.71
147
1.5
 71
     0
 72
     0
 73
     0
 74
     0
 75
     0
 76
     0
 77
     1
 78
     8
170
     0
171
     2
172
     1
173
     0
174
     0
175
     0
176
   256
177
   256
178
     2
  0
DIMSTYLE
  2
AM_ISO$SF
 70
     0
  3

  4
"
  5

  6

  7

 40
1.0
 41
2.5
 42
1.0
 43
10.0
 44
1.0
 45
0.0
 46
0.0
 47
0.1
 48
0.1
140
3.5
141
0.0
142
0.0
143
0.0393701
144
1.0
145
0.0
146
0.71
147
1.5
 71
     0
 72
     0
 73
     0
 74
     0
 75
     1
 76
     1
 77
     1
 78
     8
170
     0
171
     2
172
     1
173
     0
174
     0
175
     0
176
   256
177
   256
178
     2
  0
DIMSTYLE
  2
AM_ISO$SH
 70
     0
  3

  4
"
  5

  6
GENAXEH
  7

 40
1.0
 41
2.5
 42
1.0
 43
10.0
 44
1.0
 45
0.0
 46
0.0
 47
0.1
 48
0.1
140
3.5
141
0.0
142
0.0
143
0.0393701
144
2.0
145
0.0
146
0.71
147
1.5
 71
     0
 72
     0
 73
     0
 74
     0
 75
     1
 76
     1
 77
     1
 78
     8
170
     0
171
     2
172
     1
173
     1
174
     0
175
     0
176
   256
177
   256
178
     2
  0
DIMSTYLE
  2
BIGT$2
 70
     0
  3

  4

  5
OPEN
  6

  7

 40
1.0
 41
2.2299999999999991
 42
0.5
 43
7.0
 44
1.0
 45
0.0
 46
0.0
 47
0.0
 48
0.01
140
2.7999999999999989
141
0.0
142
0.0
143
25.399999999999999
144
1.0
145
0.0
146
1.0
147
1.0
 71
     0
 72
     0
 73
     0
 74
     0
 75
     0
 76
     0
 77
     3
 78
     9
170
     0
171
     2
172
     1
173
     0
174
     0
175
     0
176
   256
177
   256
178
    40
  0
DIMSTYLE
  2
BIGT$3
 70
     0
  3

  4

  5
OPEN
  6

  7

 40
1.0
 41
2.2299999999999991
 42
0.5
 43
2.5
 44
1.0
 45
0.0
 46
0.0
 47
0.0
 48
0.01
140
2.7999999999999989
141
0.0
142
0.0
143
25.399999999999999
144
1.0
145
0.0
146
1.0
147
1.0
 71
     0
 72
     0
 73
     0
 74
     0
 75
     0
 76
     0
 77
     3
 78
     9
170
     0
171
     2
172
     1
173
     0
174
     0
175
     0
176
   256
177
   256
178
    40
  0
DIMSTYLE
  2
BIGT$7
 70
     0
  3

  4

  5
OPEN
  6

  7

 40
0.0
 41
2.2299999999999991
 42
0.5
 43
7.0
 44
1.0
 45
0.0
 46
0.0
 47
0.0
 48
0.01
140
2.7999999999999989
141
0.0
142
0.0
143
25.399999999999999
144
1.0
145
0.0
146
1.0
147
1.0
 71
     0
 72
     0
 73
     0
 74
     0
 75
     0
 76
     0
 77
     3
 78
     9
170
     0
171
     2
172
     0
173
     0
174
     0
175
     0
176
   256
177
   256
178
    40
  0
DIMSTYLE
  2
BIGT$6
 70
     0
  3

  4

  5
OPEN
  6

  7

 40
1.0
 41
2.2299999999999991
 42
0.5
 43
2.5
 44
1.0
 45
0.0
 46
0.0
 47
0.0
 48
0.01
140
2.7999999999999989
141
0.0
142
0.0
143
25.399999999999999
144
1.0
145
0.0
146
1.0
147
1.0
 71
     0
 72
     0
 73
     0
 74
     0
 75
     0
 76
     0
 77
     3
 78
     9
170
     0
171
     2
172
     1
173
     0
174
     0
175
     0
176
   256
177
   256
178
    40
  0
DIMSTYLE
  2
BIGT$0
 70
     0
  3

  4

  5
OPEN
  6

  7

 40
1.0
 41
2.2299999999999991
 42
0.5
 43
7.0
 44
1.0
 45
0.0
 46
0.0
 47
0.0
 48
0.01
140
2.7999999999999989
141
0.0
142
0.0
143
25.399999999999999
144
1.0
145
0.0
146
1.0
147
1.0
 71
     0
 72
     0
 73
     0
 74
     0
 75
     0
 76
     0
 77
     3
 78
     9
170
     0
171
     2
172
     1
173
     0
174
     1
175
     0
176
   256
177
   256
178
    40
  0
DIMSTYLE
  2
BIGT$4
 70
     0
  3

  4

  5
OPEN
  6

  7

 40
1.0
 41
2.2299999999999991
 42
0.5
 43
2.5
 44
1.0
 45
0.0
 46
0.0
 47
0.0
 48
0.01
140
2.7999999999999989
141
0.0
142
0.0
143
25.399999999999999
144
1.0
145
0.0
146
1.0
147
1.0
 71
     0
 72
     0
 73
     0
 74
     0
 75
     0
 76
     0
 77
     3
 78
     9
170
     0
171
     2
172
     1
173
     0
174
     0
175
     0
176
   256
177
   256
178
    40
  0
DIMSTYLE
  2
BIGT$SH
 70
     0
  3

  4

  5
OPEN
  6

  7

 40
1.0
 41
2.2299999999999991
 42
0.5
 43
7.0
 44
1.0
 45
0.0
 46
0.0
 47
0.0
 48
0.0
140
2.7999999999999989
141
0.0
142
0.0
143
25.399999999999999
144
1.0
145
0.0
146
1.0
147
1.0
 71
     0
 72
     0
 73
     0
 74
     0
 75
     0
 76
     0
 77
     3
 78
     9
170
     0
171
     2
172
     1
173
     0
174
     0
175
     0
176
   256
177
   256
178
    40
  0
DIMSTYLE
  2
BIGT$SF
 70
     0
  3

  4

  5
OPEN
  6

  7

 40
1.0
 41
2.2299999999999991
 42
0.5
 43
7.0
 44
1.0
 45
0.0
 46
0.0
 47
0.0
 48
0.0
140
2.7999999999999989
141
0.0
142
0.0
143
25.399999999999999
144
1.0
145
0.0
146
1.0
147
1.0
 71
     0
 72
     0
 73
     0
 74
     0
 75
     0
 76
     0
 77
     3
 78
     9
170
     0
171
     2
172
     1
173
     0
174
     0
175
     0
176
   256
177
   256
178
    40
  0
DIMSTYLE
  2
TECHNICAL_OSAKA
 70
     0
  3

  4
"
  5
OPEN30
  6

  7

 40
1.0
 41
2.5
 42
1.0
 43
10.0
 44
1.0
 45
0.0
 46
0.0
 47
0.1
 48
0.1
140
2.7999999999999989
141
0.0
142
0.0
143
0.0393701
144
1.0
145
0.0
146
0.71
147
1.5
 71
     0
 72
     0
 73
     0
 74
     0
 75
     0
 76
     0
 77
     3
 78
     8
170
     0
171
     2
172
     1
173
     0
174
     0
175
     0
176
   256
177
   256
178
    40
  0
DIMSTYLE
  2
TECHNICAL_OSAKA$3
 70
     0
  3

  4
"
  5
OPEN30
  6

  7

 40
1.0
 41
2.5
 42
1.0
 43
10.0
 44
1.0
 45
0.0
 46
0.0
 47
0.1
 48
0.1
140
2.7999999999999989
141
0.0
142
0.0
143
0.0393701
144
1.0
145
0.0
146
0.71
147
1.5
 71
     0
 72
     0
 73
     0
 74
     1
 75
     0
 76
     0
 77
     3
 78
     8
170
     0
171
     2
172
     0
173
     0
174
     0
175
     0
176
   256
177
   256
178
    40
  0
DIMSTYLE
  2
TECHNICAL_OSAKA$4
 70
     0
  3

  4
"
  5
OPEN30
  6

  7

 40
1.0
 41
2.5
 42
1.0
 43
10.0
 44
1.0
 45
0.0
 46
0.0
 47
0.1
 48
0.1
140
2.7999999999999989
141
0.0
142
0.0
143
0.0393701
144
1.0
145
0.0
146
0.71
147
1.5
 71
     0
 72
     0
 73
     0
 74
     1
 75
     0
 76
     0
 77
     3
 78
     8
170
     0
171
     2
172
     0
173
     0
174
     0
175
     0
176
   256
177
   256
178
    40
  0
DIMSTYLE
  2
TECHNICAL_OSAKA$6
 70
     0
  3

  4
"
  5
OPEN30
  6

  7

 40
1.0
 41
2.5
 42
1.0
 43
10.0
 44
1.0
 45
0.0
 46
0.0
 47
0.1
 48
0.1
140
2.7999999999999989
141
0.0
142
0.0
143
0.0393701
144
1.0
145
0.0
146
0.71
147
1.5
 71
     0
 72
     0
 73
     0
 74
     0
 75
     0
 76
     0
 77
     0
 78
     8
170
     0
171
     2
172
     1
173
     0
174
     0
175
     0
176
   256
177
   256
178
    40
  0
DIMSTYLE
  2
TECHNICAL_OSAKA$7
 70
     0
  3

  4
"
  5
OPEN30
  6

  7

 40
1.0
 41
2.5
 42
1.0
 43
10.0
 44
1.0
 45
0.0
 46
0.0
 47
0.1
 48
0.1
140
2.7999999999999989
141
0.0
142
0.0
143
0.0393701
144
1.0
145
0.0
146
0.71
147
1.5
 71
     0
 72
     0
 73
     0
 74
     0
 75
     0
 76
     0
 77
     3
 78
     8
170
     0
171
     2
172
     1
173
     0
174
     0
175
     0
176
   256
177
   256
178
    40
  0
DIMSTYLE
  2
TECHNICAL_OSAKA$SF
 70
     0
  3

  4
"
  5
OPEN30
  6
OPEN30
  7
OPEN30
 40
1.0
 41
2.5
 42
1.0
 43
10.0
 44
1.0
 45
0.0
 46
0.0
 47
0.1
 48
0.1
140
3.5
141
0.0
142
0.0
143
0.0393701
144
1.0
145
0.0
146
0.71
147
1.5
 71
     0
 72
     0
 73
     0
 74
     0
 75
     1
 76
     1
 77
     3
 78
     8
170
     0
171
     2
172
     1
173
     0
174
     0
175
     0
176
   256
177
   256
178
    40
  0
DIMSTYLE
  2
TECHNICAL_OSAKA$SH
 70
     0
  3

  4
"
  5
OPEN30
  6
GENAXEH
  7
OPEN30
 40
1.0
 41
2.5
 42
1.0
 43
10.0
 44
1.0
 45
0.0
 46
0.0
 47
0.1
 48
0.1
140
3.5
141
0.0
142
0.0
143
0.0393701
144
2.0
145
0.0
146
0.71
147
1.5
 71
     0
 72
     0
 73
     0
 74
     0
 75
     1
 76
     1
 77
     3
 78
     8
170
     0
171
     2
172
     1
173
     1
174
     0
175
     0
176
   256
177
   256
178
    40
  0
DIMSTYLE
  2
STANDARD
 70
     0
  3

  4

  5

  6

  7

 40
1.0
 41
0.18
 42
0.0625
 43
0.38
 44
0.18
 45
0.0
 46
0.0
 47
0.0
 48
0.0
140
0.18
141
0.09
142
0.0
143
25.399999999999999
144
1.0
145
0.0
146
1.0
147
0.09
 71
     0
 72
     0
 73
     1
 74
     1
 75
     0
 76
     0
 77
     0
 78
     0
170
     0
171
     2
172
     0
173
     0
174
     0
175
     0
176
     0
177
     0
178
     0
  0
ENDTAB
  0
ENDSEC
  0
SECTION
  2
BLOCKS
  0
BLOCK
  8
0
  2
$MODEL_SPACE
 70
     0
 10
0.0
 20
0.0
 30
0.0
  3
$MODEL_SPACE
  1

  0
ENDBLK
  5
1C
  8
0
  0
BLOCK
 67
     1
  8
0
  2
$PAPER_SPACE
 70
     0
 10
0.0
 20
0.0
 30
0.0
  3
$PAPER_SPACE
  1

  0
ENDBLK
  5
19
 67
     1
  8
0
  0
BLOCK
  8
0
  2
_OPEN
 70
     0
 10
0.0
 20
0.0
 30
0.0
  3
_OPEN
  1

  0
LINE
  5
4A7B
  8
0
  6
BYBLOCK
 62
     0
 10
-1.0
 20
0.1666666666666666
 30
0.0
 11
0.0
 21
0.0
 31
0.0
  0
LINE
  5
4A7C
  8
0
  6
BYBLOCK
 62
     0
 10
-1.0
 20
-0.1666666666666666
 30
0.0
 11
0.0
 21
0.0
 31
0.0
  0
LINE
  5
4A7D
  8
0
  6
BYBLOCK
 62
     0
 10
0.0
 20
0.0
 30
0.0
 11
-1.0
 21
0.0
 31
0.0
  0
ENDBLK
  5
4A7E
  8
0
  0
BLOCK
  8
0
  2
GENAXEH
 70
     0
 10
0.0
 20
0.0
 30
0.0
  3
GENAXEH
  1

  0
LINE
  5
4AB6
  8
0
 10
-1.0
 20
0.0
 30
0.0
 11
1.0
 21
0.0
 31
0.0
  0
ENDBLK
  5
4AB7
  8
0
  0
BLOCK
  8
0
  2
_OPEN30
 70
     0
 10
0.0
 20
0.0
 30
0.0
  3
_OPEN30
  1

  0
LINE
  5
4AF2
  8
0
  6
BYBLOCK
 62
     0
 10
-1.0
 20
0.26794919
 30
0.0
 11
0.0
 21
0.0
 31
0.0
  0
LINE
  5
4AF3
  8
0
  6
BYBLOCK
 62
     0
 10
0.0
 20
0.0
 30
0.0
 11
-1.0
 21
-0.26794919
 31
0.0
  0
LINE
  5
4AF4
  8
0
  6
BYBLOCK
 62
     0
 10
0.0
 20
0.0
 30
0.0
 11
-1.0
 21
0.0
 31
0.0
  0
ENDBLK
  5
4AF5
  8
0
  0
BLOCK
  8
0
  2
*U67
 70
     1
 10
0.0
 20
0.0
 30
0.0
  3
*U67
  1

  0
TEXT
  5
4B71
  8
250
 62
    40
 10
223.91041073607559
 20
242.5339586467436
 30
0.0
 40
2.7999999999999989
  1
R2
 50
301.78303090011252
  7
YOKO
  0
ENDBLK
  5
4B73
  8
0
  0
BLOCK
  8
0
  2
*U68
 70
     1
 10
0.0
 20
0.0
 30
0.0
  3
*U68
  1

  0
TEXT
  5
4B75
  8
250
 62
    40
 10
522.3266666666666
 20
246.73559226266849
 30
0.0
 40
2.7999999999999989
  1
鍛造後ドリル加工\U+220520
  7
YOKO
  0
ENDBLK
  5
4B77
  8
0
  0
BLOCK
  8
0
  2
*U69
 70
     1
 10
0.0
 20
0.0
 30
0.0
  3
*U69
  1

  0
TEXT
  5
4B79
  8
250
 62
    40
 10
531.58842313170032
 20
232.6330355623663
 30
0.0
 40
2.7999999999999989
  1
R1
 50
35.562553309590577
  7
YOKO
  0
ENDBLK
  5
4B7B
  8
0
  0
BLOCK
  8
0
  2
*U70
 70
     1
 10
0.0
 20
0.0
 30
0.0
  3
*U70
  1

  0
TEXT
  5
4B7D
  8
250
 62
    40
 10
542.20433567390091
 20
233.68118371365591
 30
0.0
 40
2.7999999999999989
  1
R1
 50
316.05473469044608
  7
YOKO
  0
ENDBLK
  5
4B7F
  8
0
  0
BLOCK
  8
0
  2
*U71
 70
     1
 10
0.0
 20
0.0
 30
0.0
  3
*U71
  1

  0
TEXT
  5
4B81
  8
250
 62
    40
 10
567.84933851301184
 20
232.57579570011791
 30
0.0
 40
2.7999999999999989
  1
バリ厚2
 50
90.0
  7
YOKO
  0
ENDBLK
  5
4B83
  8
0
  0
BLOCK
  8
0
  2
*U72
 70
     1
 10
0.0
 20
0.0
 30
0.0
  3
*U72
  1

  0
TEXT
  5
4B85
  8
250
 62
    40
 10
531.33405353434512
 20
215.45153869425329
 30
0.0
 40
2.7999999999999989
  1
R1
 50
302.87421387003388
  7
YOKO
  0
ENDBLK
  5
4B87
  8
0
  0
BLOCK
  8
0
  2
*U73
 70
     1
 10
0.0
 20
0.0
 30
0.0
  3
*U73
  1

  0
TEXT
  5
4B89
  8
250
 62
    40
 10
544.13096344823236
 20
212.54192229618999
 30
0.0
 40
2.7999999999999989
  1
R1
 50
69.510918174662834
  7
YOKO
  0
ENDBLK
  5
4B8B
  8
0
  0
BLOCK
  8
0
  2
*U74
 70
     1
 10
0.0
 20
0.0
 30
0.0
  3
*U74
  1

  0
TEXT
  5
4B8D
  8
250
 62
    40
 10
306.73941055950201
 20
236.5553293951358
 30
0.0
 40
2.7999999999999989
  1
R1
 50
60.914123478016791
  7
YOKO
  0
ENDBLK
  5
4B8F
  8
0
  0
BLOCK
  8
0
  2
*U75
 70
     1
 10
0.0
 20
0.0
 30
0.0
  3
*U75
  1

  0
TEXT
  5
4B91
  8
250
 62
    40
 10
307.71508167811112
 20
212.77458064104911
 30
0.0
 40
2.7999999999999989
  1
R1
 50
290.94676775744301
  7
YOKO
  0
ENDBLK
  5
4B93
  8
0
  0
BLOCK
  8
0
  2
*U76
 70
     1
 10
0.0
 20
0.0
 30
0.0
  3
*U76
  1

  0
TEXT
  5
4B95
  8
250
 62
    40
 10
557.11147529495531
 20
232.6475776682062
 30
0.0
 40
2.7999999999999989
  1
R3
 50
47.063179702282383
  7
YOKO
  0
ENDBLK
  5
4B97
  8
0
  0
BLOCK
  8
0
  2
*U77
 70
     1
 10
0.0
 20
0.0
 30
0.0
  3
*U77
  1

  0
TEXT
  5
4B99
  8
250
 62
    40
 10
558.51881849335371
 20
216.64648566654549
 30
0.0
 40
2.7999999999999989
  1
R3
 50
312.26074979979728
  7
YOKO
  0
ENDBLK
  5
4B9B
  8
0
  0
BLOCK
  8
0
  2
*U78
 70
     1
 10
0.0
 20
0.0
 30
0.0
  3
*U78
  1

  0
TEXT
  5
4B9D
  8
250
 62
    40
 10
360.62152714621351
 20
238.56951160493369
 30
0.0
 40
2.7999999999999989
  1
30\U+00B0
 50
344.60188323554689
  7
YOKO
  0
ENDBLK
  5
4B9F
  8
0
  0
BLOCK
  8
0
  2
*U79
 70
     1
 10
0.0
 20
0.0
 30
0.0
  3
*U79
  1

  0
TEXT
  5
4BA1
  8
250
 62
    40
 10
310.11926752909682
 20
234.77912935322391
 30
0.0
 40
2.7999999999999989
  1
R0.5
 50
40.240465691001781
  7
YOKO
  0
ENDBLK
  5
4BA3
  8
0
  0
BLOCK
  8
0
  2
*U80
 70
     1
 10
0.0
 20
0.0
 30
0.0
  3
*U80
  1

  0
TEXT
  5
4BA5
  8
250
 62
    40
 10
351.43245455218658
 20
209.04980875796829
 30
0.0
 40
2.7999999999999989
  1
R0.5
 50
45.011161325125009
  7
YOKO
  0
ENDBLK
  5
4BA7
  8
0
  0
BLOCK
  8
0
  2
*U81
 70
     1
 10
0.0
 20
0.0
 30
0.0
  3
*U81
  1

  0
TEXT
  5
4BA9
  8
250
 62
    40
 10
339.35728545873752
 20
230.64598872507099
 30
0.0
 40
2.7999999999999989
  1
0.796\U+00B0
 50
89.404587447148813
  7
YOKO
  0
ENDBLK
  5
4BAB
  8
0
  0
BLOCK
  8
0
  2
*U82
 70
     1
 10
0.0
 20
0.0
 30
0.0
  3
*U82
  1

  0
TEXT
  5
4BAD
  8
250
 62
    40
 10
301.43578020095481
 20
225.18411178342339
 30
0.0
 40
2.7999999999999989
  1
3\U+00B0
 50
89.385819673432692
  7
YOKO
  0
ENDBLK
  5
4BAF
  8
0
  0
BLOCK
  8
0
  2
*U83
 70
     1
 10
0.0
 20
0.0
 30
0.0
  3
*U83
  1

  0
TEXT
  5
4BB1
  8
250
 62
    40
 10
523.84181102093385
 20
241.92980045147749
 30
0.0
 40
2.7999999999999989
  1
15\U+00B0
 50
7.5000000000010081
  7
YOKO
  0
ENDBLK
  5
4BB3
  8
0
  0
BLOCK
  8
0
  2
*U84
 70
     1
 10
0.0
 20
0.0
 30
0.0
  3
*U84
  1

  0
TEXT
  5
4BB5
  8
250
 62
    40
 10
501.81765684520838
 20
167.15527628116601
 30
0.0
 40
2.7999999999999989
  1
6
 50
90.0
  7
YOKO
  0
ENDBLK
  5
4BB7
  8
0
  0
BLOCK
  8
0
  2
*U85
 70
     1
 10
0.0
 20
0.0
 30
0.0
  3
*U85
  1

  0
TEXT
  5
4BB9
  8
250
 62
    40
 10
480.27131476008572
 20
156.0821940123943
 30
0.0
 40
2.7999999999999989
  1
R3
 50
57.142647862942262
  7
YOKO
  0
ENDBLK
  5
4BBB
  8
0
  0
BLOCK
  8
0
  2
*U86
 70
     1
 10
0.0
 20
0.0
 30
0.0
  3
*U86
  1

  0
TEXT
  5
4BBD
  8
250
 62
    40
 10
500.00002297298602
 20
162.32608118095891
 30
0.0
 40
2.7999999999999989
  1
R3
 50
302.59757679963042
  7
YOKO
  0
ENDBLK
  5
4BBF
  8
0
  0
BLOCK
  8
0
  2
*U87
 70
     1
 10
0.0
 20
0.0
 30
0.0
  3
*U87
  1

  0
TEXT
  5
4BC1
  8
250
 62
    40
 10
480.25716598947582
 20
164.05912920472019
 30
0.0
 40
2.7999999999999989
  1
10\U+00B0
 50
79.999999999999474
  7
YOKO
  0
ENDBLK
  5
4BC3
  8
0
  0
BLOCK
  8
0
  2
*U88
 70
     1
 10
0.0
 20
0.0
 30
0.0
  3
*U88
  1

  0
TEXT
  5
4BC5
  8
250
 62
    40
 10
-42.320523356704243
 20
116.7407314101311
 30
0.0
 40
2.7999999999999989
  1
R2
 50
301.78303090011298
  0
ENDBLK
  5
4BC7
  8
0
  0
BLOCK
  8
0
  2
*U89
 70
     1
 10
0.0
 20
0.0
 30
0.0
  3
*U89
  1

  0
TEXT
  5
4BC9
  8
250
 62
    40
 10
256.33801644263929
 20
120.55134261372881
 30
0.0
 40
2.7999999999999989
  1
鍛造後ドリル加工\U+220520
  0
ENDBLK
  5
4BCB
  8
0
  0
BLOCK
  8
0
  2
*U90
 70
     1
 10
0.0
 20
0.0
 30
0.0
  3
*U90
  1

  0
TEXT
  5
4BCD
  8
250
 62
    40
 10
265.77789098225969
 20
106.5761299324253
 30
0.0
 40
2.7999999999999989
  1
R1
 50
35.562553309590577
  0
ENDBLK
  5
4BCF
  8
0
  0
BLOCK
  8
0
  2
*U91
 70
     1
 10
0.0
 20
0.0
 30
0.0
  3
*U91
  1

  0
TEXT
  5
4BD1
  8
250
 62
    40
 10
276.21568544987372
 20
107.4969340647163
 30
0.0
 40
2.7999999999999989
  1
R1
 50
316.05473469044489
  0
ENDBLK
  5
4BD3
  8
0
  0
BLOCK
  8
0
  2
*U92
 70
     1
 10
0.0
 20
0.0
 30
0.0
  3
*U92
  1

  0
TEXT
  5
4BD5
  8
250
 62
    40
 10
301.8606882889847
 20
106.3915460511782
 30
0.0
 40
2.7999999999999989
  1
バリ厚2
 50
90.0
  0
ENDBLK
  5
4BD7
  8
0
  0
BLOCK
  8
0
  2
*U93
 70
     1
 10
0.0
 20
0.0
 30
0.0
  3
*U93
  1

  0
TEXT
  5
4BD9
  8
250
 62
    40
 10
265.59508971026509
 20
88.880951496424856
 30
0.0
 40
2.7999999999999989
  1
R1
 50
302.87421387003309
  0
ENDBLK
  5
4BDB
  8
0
  0
BLOCK
  8
0
  2
*U94
 70
     1
 10
0.0
 20
0.0
 30
0.0
  3
*U94
  1

  0
TEXT
  5
4BDD
  8
250
 62
    40
 10
278.14231322420528
 20
86.357672647250297
 30
0.0
 40
2.7999999999999989
  1
R1
 50
69.510918174662834
  0
ENDBLK
  5
4BDF
  8
0
  0
BLOCK
  8
0
  2
*U95
 70
     1
 10
0.0
 20
0.0
 30
0.0
  3
*U95
  1

  0
TEXT
  5
4BE1
  8
250
 62
    40
 10
40.750760335474801
 20
110.3710797461961
 30
0.0
 40
2.7999999999999989
  1
R1
 50
60.914123478016791
  0
ENDBLK
  5
4BE3
  8
0
  0
BLOCK
  8
0
  2
*U96
 70
     1
 10
0.0
 20
0.0
 30
0.0
  3
*U96
  1

  0
TEXT
  5
4BE5
  8
250
 62
    40
 10
41.890881650070703
 20
86.160731023487656
 30
0.0
 40
2.7999999999999989
  1
R1
 50
290.94676775744358
  0
ENDBLK
  5
4BE7
  8
0
  0
BLOCK
  8
0
  2
*U97
 70
     1
 10
0.0
 20
0.0
 30
0.0
  3
*U97
  1

  0
TEXT
  5
4BE9
  8
250
 62
    40
 10
291.43617315466429
 20
106.8000964536824
 30
0.0
 40
2.7999999999999989
  1
R3
 50
47.063179702282383
  0
ENDBLK
  5
4BEB
  8
0
  0
BLOCK
  8
0
  2
*U98
 70
     1
 10
0.0
 20
0.0
 30
0.0
  3
*U98
  1

  0
TEXT
  5
4BED
  8
250
 62
    40
 10
292.8395208797719
 20
90.121793713521072
 30
0.0
 40
2.7999999999999989
  1
R3
 50
312.26074979979938
  0
ENDBLK
  5
4BEF
  8
0
  0
BLOCK
  8
0
  2
*U99
 70
     1
 10
0.0
 20
0.0
 30
0.0
  3
*U99
  1

  0
TEXT
  5
4BF1
  8
250
 62
    40
 10
94.632876922186171
 20
112.3852619559941
 30
0.0
 40
2.7999999999999989
  1
30\U+00B0
 50
344.60188323554689
  0
ENDBLK
  5
4BF3
  8
0
  0
BLOCK
  8
0
  2
*U100
 70
     1
 10
0.0
 20
0.0
 30
0.0
  3
*U100
  1

  0
TEXT
  5
4BF5
  8
250
 62
    40
 10
36.866165185576818
 20
102.44714192132339
 30
0.0
 40
2.7999999999999989
  1
R0.5
 50
40.240465691003557
  0
ENDBLK
  5
4BF7
  8
0
  0
BLOCK
  8
0
  2
*U101
 70
     1
 10
0.0
 20
0.0
 30
0.0
  3
*U101
  1

  0
TEXT
  5
4BF9
  8
250
 62
    40
 10
92.171792854629928
 20
89.596169395780095
 30
0.0
 40
2.7999999999999989
  1
R0.5
 50
45.011161325122771
  0
ENDBLK
  5
4BFB
  8
0
  0
BLOCK
  8
0
  2
*U102
 70
     1
 10
0.0
 20
0.0
 30
0.0
  3
*U102
  1

  0
TEXT
  5
4BFD
  8
250
 62
    40
 10
73.371312651489674
 20
104.6921200197029
 30
0.0
 40
2.7999999999999989
  1
0.796\U+00B0
 50
89.381898405048034
  0
ENDBLK
  5
4BFF
  8
0
  0
BLOCK
  8
0
  2
*U103
 70
     1
 10
0.0
 20
0.0
 30
0.0
  3
*U103
  1

  0
TEXT
  5
4C01
  8
250
 62
    40
 10
35.447129976927648
 20
98.999862134483678
 30
0.0
 40
2.7999999999999989
  1
3\U+00B0
 50
89.385819673432692
  0
ENDBLK
  5
4C03
  8
0
  0
BLOCK
  8
0
  2
*U104
 70
     1
 10
0.0
 20
0.0
 30
0.0
  3
*U104
  1

  0
TEXT
  5
4C05
  8
250
 62
    40
 10
257.85316079690648
 20
115.74555080253781
 30
0.0
 40
2.7999999999999989
  1
15\U+00B0
 50
7.5000000000010081
  0
ENDBLK
  5
4C07
  8
0
  0
BLOCK
  8
0
  2
*U105
 70
     1
 10
0.0
 20
0.0
 30
0.0
  3
*U105
  1

  0
TEXT
  5
4C09
  8
250
 62
    40
 10
235.82900662118129
 20
40.971026632226348
 30
0.0
 40
2.7999999999999989
  1
6
 50
90.0
  0
ENDBLK
  5
4C0B
  8
0
  0
BLOCK
  8
0
  2
*U106
 70
     1
 10
0.0
 20
0.0
 30
0.0
  3
*U106
  1

  0
TEXT
  5
4C0D
  8
250
 62
    40
 10
214.2826645360586
 20
29.897944363454659
 30
0.0
 40
2.7999999999999989
  1
R3
 50
57.142647862942752
  0
ENDBLK
  5
4C0F
  8
0
  0
BLOCK
  8
0
  2
*U107
 70
     1
 10
0.0
 20
0.0
 30
0.0
  3
*U107
  1

  0
TEXT
  5
4C11
  8
250
 62
    40
 10
234.01137274895879
 20
36.14183153201931
 30
0.0
 40
2.7999999999999989
  1
R3
 50
302.59757679963121
  0
ENDBLK
  5
4C13
  8
0
  0
BLOCK
  8
0
  2
*U108
 70
     1
 10
0.0
 20
0.0
 30
0.0
  3
*U108
  1

  0
TEXT
  5
4C15
  8
250
 62
    40
 10
214.26851576544871
 20
37.874879555780453
 30
0.0
 40
2.7999999999999989
  1
10\U+00B0
 50
79.999999999999631
  0
ENDBLK
  5
4C17
  8
0
  0
BLOCK
  8
0
  2
*U109
 70
     1
 10
0.0
 20
0.0
 30
0.0
  3
*U109
  1

  0
TEXT
  5
4C19
  8
240
 62
    40
 10
-3.9219835573606998
 20
120.0
 30
0.0
 40
2.7999999999999989
  1
\U+220555
  0
ENDBLK
  5
4C1B
  8
0
  0
BLOCK
  8
0
  2
*U110
 70
     1
 10
0.0
 20
0.0
 30
0.0
  3
*U110
  1

  0
TEXT
  5
4C1D
  8
240
 62
    40
 10
-24.566666666666659
 20
50.078007918044563
 30
0.0
 40
2.7999999999999989
  1
39.8
  0
ENDBLK
  5
4C1F
  8
0
  0
BLOCK
  8
0
  2
*U111
 70
     1
 10
0.0
 20
0.0
 30
0.0
  3
*U111
  1

  0
TEXT
  5
4C21
  8
240
 62
    40
 10
141.0
 20
50.078007918044563
 30
0.0
 40
2.7999999999999989
  1
290
  0
ENDBLK
  5
4C23
  8
0
  0
BLOCK
  8
0
  2
*U112
 70
     1
 10
0.0
 20
0.0
 30
0.0
  3
*U112
  1

  0
TEXT
  5
4C25
  8
240
 62
    40
 10
119.09999999999999
 20
57.078007918044442
 30
0.0
 40
2.7999999999999989
  1
329.8
  0
ENDBLK
  5
4C27
  8
0
  0
ENDSEC
  0
SECTION
  2
ENTITIES
  0
LINE
  5
44E0
  8
245
  6
CENTER2
 10
0.0113497759726329
 20
109.90821963618551
 30
0.0
 11
0.0113497759726329
 21
85.345172491785092
 31
0.0
  0
CIRCLE
  5
44E1
  8
241
  6
CONTINUOUS
 10
-0.0000000000007958
 20
0.0
 30
0.0
 40
28.0
  0
LINE
  5
4513
  8
245
  6
CENTER2
 10
-41.470215663303861
 20
0.0
 30
0.0
 11
293.16517324275537
 21
0.0000000000000284
 31
0.0
  0
LINE
  5
4514
  8
245
  6
CENTER2
 10
0.0
 20
42.078007918044563
 30
0.0
 11
0.0
 21
-42.078007918044513
 31
0.0
  0
ARC
  5
4516
  8
241
  6
CONTINUOUS
 10
0.0
 20
0.0000000000000284
 30
0.0
 40
43.0
 50
344.13839225800592
 51
15.861607741994071
  0
ARC
  5
4517
  8
241
  6
CONTINUOUS
 10
43.767572295679592
 20
12.4358198500324
 30
0.0
 40
2.5
 50
81.999999999999218
 51
195.86160774199399
1001
ASK_MEN_XD
1005
4516
1070
     1
1005
4524
1070
     1
  0
ARC
  5
4518
  8
241
  6
CONTINUOUS
 10
43.767572295679592
 20
-12.4358198500324
 30
0.0
 40
2.5
 50
164.13839225800589
 51
278.0000000000008
1001
ASK_MEN_XD
1005
4523
1070
     1
1005
4516
1070
     1
  0
ARC
  5
4519
  8
241
  6
CONTINUOUS
 10
0.0
 20
0.0000000000000284
 30
0.0
 40
38.933909688853959
 50
328.31557130425512
 51
30.176099602836629
  0
ARC
  5
451A
  8
240
  6
CONTINUOUS
 10
274.0
 20
0.0000000000000284
 30
0.0
 40
16.0
 50
268.50000000000063
 51
91.499999999999474
  0
LINE
  5
451B
  8
241
  6
CONTINUOUS
 10
110.0
 20
12.056184030171289
 30
0.0
 11
110.0
 21
-12.05618403017135
 31
0.0
  0
LINE
  5
451C
  8
240
  6
CONTINUOUS
 10
273.58116882707418
 20
15.994517199608961
 30
0.0
 11
118.3065118148469
 21
11.928507209405799
 31
0.0
  0
ARC
  5
451D
  8
240
  6
CONTINUOUS
 10
115.68881698406049
 20
111.8942397069615
 30
0.0
 40
100.0
 50
261.9999999999992
 51
271.49999999999937
1001
ASK_MEN_XD
1005
451F
1070
     1
1005
451C
1070
     1
  0
LINE
  5
451E
  8
240
  6
CONTINUOUS
 10
273.58116882707418
 20
-15.994517199608961
 30
0.0
 11
118.306511814847
 21
-11.928507209405749
 31
0.0
  0
LINE
  5
451F
  8
240
  6
CONTINUOUS
 10
101.7715068880525
 20
12.86743283280472
 30
0.0
 11
49.656073555166472
 21
20.191779334286199
 31
0.0
  0
ARC
  5
4520
  8
240
  6
CONTINUOUS
 10
115.68881698406049
 20
-111.8942397069615
 30
0.0
 40
100.0
 50
88.50000000000054
 51
98.000000000000767
1001
ASK_MEN_XD
1005
451F
1070
     1
1005
451C
1070
     1
  0
LINE
  5
4521
  8
240
  6
CONTINUOUS
 10
101.7715068880525
 20
-12.86743283280472
 30
0.0
 11
49.656073555166472
 21
-20.19177933428622
 31
0.0
  0
LINE
  5
4522
  8
245
  6
CENTER2
 10
274.0
 20
-21.007198642308229
 30
0.0
 11
274.0
 21
21.007198642308278
 31
0.0
  0
LINE
  5
4523
  8
241
  6
CONTINUOUS
 10
92.677604195159574
 20
-8.0865320728546237
 30
0.0
 11
44.11550504807979
 21
-14.911490021886349
 31
0.0
  0
LINE
  5
4524
  8
241
  6
CONTINUOUS
 10
92.677604195159503
 20
8.0865320728545669
 30
0.0
 11
44.11550504807979
 21
14.911490021886349
 31
0.0
  0
LINE
  5
4525
  8
241
  6
CONTINUOUS
 10
247.44500812123371
 20
-9.3080609903011293
 30
0.0
 11
128.02110385720459
 21
-6.180835999758215
 31
0.0
  0
LINE
  5
4526
  8
241
  6
CONTINUOUS
 10
247.44500812123371
 20
9.3080609903011577
 30
0.0
 11
128.02110385720459
 21
6.1808359997583286
 31
0.0
  0
ARC
  5
4527
  8
241
  6
CONTINUOUS
 10
128.18295474392619
 20
0.0000000000000284
 30
0.0
 40
6.1829547439262766
 50
91.499999999999474
 51
268.50000000000063
  0
ARC
  5
4528
  8
241
  6
CONTINUOUS
 10
-0.0000000000000568
 20
-0.000000000000199
 30
0.0
 40
95.0
 50
356.5224197367578
 51
3.4775802632421708
  0
ARC
  5
4529
  8
241
  6
CONTINUOUS
 10
92.32967144275932
 20
-5.6108619010006739
 30
0.0
 40
2.5
 50
278.0000000000008
 51
356.5224197367578
1001
ASK_MEN_XD
1005
4523
1070
     1
1005
4528
1070
     1
  0
ARC
  5
452A
  8
241
  6
CONTINUOUS
 10
92.32967144275932
 20
5.6108619010007308
 30
0.0
 40
2.5
 50
3.4775802632421708
 51
81.999999999999218
1001
ASK_MEN_XD
1005
4524
1070
     1
1005
4528
1070
     1
  0
CIRCLE
  5
452B
  8
241
  6
CONTINUOUS
 10
274.00000000000011
 20
0.0
 30
0.0
 40
10.0
  0
ARC
  5
452C
  8
241
  6
CONTINUOUS
 10
247.6887482762869
 20
0.0000000000000568
 30
0.0
 40
9.3112517237131556
 50
268.50000000000063
 51
91.499999999999474
  0
POINT
  5
4531
  8
0
  6
CONTINUOUS
 62
     7
 10
44.625570586726212
 20
10.34905532218292
 30
0.0
 50
90.0
  0
POINT
  5
4532
  8
0
  6
CONTINUOUS
 62
     7
 10
44.625570586720983
 20
10.34905532218292
 30
0.0
 50
90.0
  0
POINT
  5
4533
  8
0
  6
CONTINUOUS
 62
     7
 10
46.625570586720748
 20
-0.0842780111528612
 30
0.0
 50
90.0
  0
POINT
  5
4534
  8
0
  6
CONTINUOUS
 62
     7
 10
53.461588073709443
 20
-0.8427930273085451
 30
0.0
 50
90.0
  0
POINT
  5
4535
  8
0
  6
CONTINUOUS
 62
     7
 10
52.361588073709413
 20
-0.8427930273085451
 30
0.0
 50
90.0
  0
LINE
  5
4536
  8
241
  6
CONTINUOUS
 10
52.22086131967194
 20
-6.9052239418741967
 30
0.0
 11
54.514459475609897
 21
-5.1768737621588619
 31
0.0
  0
LINE
  5
4537
  8
241
  6
CONTINUOUS
 10
48.625570586720748
 20
-10.517611344488641
 30
0.0
 11
48.625570586720748
 21
-7.2509446778218773
 31
0.0
  0
LINE
  5
4538
  8
241
  6
CONTINUOUS
 10
51.784684733082493
 20
4.6460756102800644
 30
0.0
 11
52.860647093889952
 21
4.8747784701796766
 31
0.0
  0
LINE
  5
4539
  8
241
  6
CONTINUOUS
 10
44.625570586720983
 20
-10.517611344488641
 30
0.0
 11
48.625570586720983
 21
-10.517611344488641
 31
0.0
  0
LINE
  5
453A
  8
241
  6
CONTINUOUS
 10
53.165774977076801
 20
-4.8655054115883161
 30
0.0
 11
54.514459475608312
 21
-5.1768737621634102
 31
0.0
  0
LINE
  5
453B
  8
241
  6
CONTINUOUS
 10
50.91704780284612
 20
-4.3463458365388021
 30
0.0
 11
52.090377242208881
 21
-4.6172302817988387
 31
0.0
  0
LINE
  5
453C
  8
241
  6
CONTINUOUS
 10
50.917047802849652
 20
-4.3463458365344252
 30
0.0
 11
52.220861319674441
 21
-6.9052239418741967
 31
0.0
  0
LINE
  5
453D
  8
241
  6
CONTINUOUS
 10
44.625570586720983
 20
-9.9176113444886767
 30
0.0
 11
48.025570586720853
 21
-9.9176113444886767
 31
0.0
  0
LINE
  5
453E
  8
241
  6
CONTINUOUS
 10
48.025570586720853
 20
-9.9176113444886767
 30
0.0
 11
48.025570586720853
 21
-7.2509446778218773
 31
0.0
  0
LINE
  5
453F
  8
241
  6
CONTINUOUS
 10
48.025570586720853
 20
-7.2509446778218773
 30
0.0
 11
48.625570586720748
 21
-7.2509446778218773
 31
0.0
  0
LINE
  5
4540
  8
241
  6
CONTINUOUS
 10
44.625570586720983
 20
7.9823886555115271
 30
0.0
 11
46.380203330146287
 21
7.9823886555115271
 31
0.0
  0
LINE
  5
4541
  8
241
  6
CONTINUOUS
 10
44.625570586720983
 20
7.3823886555115052
 30
0.0
 11
48.625570586720983
 21
7.3823886555115052
 31
0.0
  0
LINE
  5
4542
  8
241
  6
CONTINUOUS
 10
46.370785742594762
 20
8.8825552420144902
 30
0.0
 11
45.06866188307788
 21
10.30869089767574
 31
0.0
  0
LINE
  5
4543
  8
241
  6
CONTINUOUS
 10
46.380203330146287
 20
7.9823886555115271
 30
0.0
 11
44.625570586720983
 21
9.9041292792629463
 31
0.0
  0
LINE
  5
4544
  8
241
  6
CONTINUOUS
 10
46.775885593881981
 20
8.4388744525094523
 30
0.0
 11
48.625570586720869
 21
9.9605803796009411
 31
0.0
  0
LINE
  5
4545
  8
241
  6
CONTINUOUS
 10
46.370785742594762
 20
8.8825552420144334
 30
0.0
 11
48.244379749214318
 21
10.42393072804262
 31
0.0
  0
LINE
  5
4546
  8
241
  6
CONTINUOUS
 10
48.625570586720983
 20
7.3823886555115052
 30
0.0
 11
48.625570586720983
 21
7.9823886555115271
 31
0.0
  0
LINE
  5
4547
  8
241
  6
CONTINUOUS
 10
44.625570586720983
 20
7.3823886555115052
 30
0.0
 11
44.625570586720983
 21
7.9823886555115271
 31
0.0
  0
LINE
  5
4548
  8
241
  6
CONTINUOUS
 10
48.244379749214318
 20
10.42393072804262
 30
0.0
 11
48.625570586720869
 21
9.9605803796009411
 31
0.0
  0
LINE
  5
4549
  8
241
  6
CONTINUOUS
 10
44.625570586720983
 20
9.9041292792629463
 30
0.0
 11
45.06866188307788
 21
10.30869089767574
 31
0.0
  0
LINE
  5
454A
  8
241
  6
CONTINUOUS
 10
47.192676973749592
 20
7.9823886555115271
 30
0.0
 11
46.775885593881981
 21
8.4388744525094523
 31
0.0
  0
LINE
  5
454B
  8
241
  6
CONTINUOUS
 10
47.192676973749592
 20
7.9823886555115271
 30
0.0
 11
48.625570586720983
 21
7.9823886555115271
 31
0.0
  0
LINE
  5
454C
  8
241
  6
CONTINUOUS
 10
46.258903920053967
 20
-4.7514525787745754
 30
0.0
 11
46.992237253387422
 21
-4.7514525787745754
 31
0.0
  0
LINE
  5
454D
  8
241
  6
CONTINUOUS
 10
46.258903920053967
 20
-1.484785912107923
 30
0.0
 11
46.992237253387422
 21
-1.484785912107923
 31
0.0
  0
LINE
  5
454E
  8
241
  6
CONTINUOUS
 10
46.258903920053967
 20
-4.1514525787746086
 30
0.0
 11
46.992237253387422
 21
-4.1514525787746086
 31
0.0
  0
LINE
  5
454F
  8
241
  6
CONTINUOUS
 10
46.258903920053967
 20
-2.0847859121079462
 30
0.0
 11
46.992237253387422
 21
-2.0847859121079462
 31
0.0
  0
LINE
  5
4550
  8
241
  6
CONTINUOUS
 10
46.258903920053967
 20
1.9154680383685161
 30
0.0
 11
46.992237253387422
 21
1.9154680383685161
 31
0.0
  0
LINE
  5
4551
  8
241
  6
CONTINUOUS
 10
46.258903920053967
 20
1.31546803836855
 30
0.0
 11
46.992237253387422
 21
1.31546803836855
 31
0.0
  0
LINE
  5
4552
  8
241
  6
CONTINUOUS
 10
45.991457573448088
 20
3.9469247255338749
 30
0.0
 11
45.836166146386518
 21
4.5264802213073088
 31
0.0
  0
LINE
  5
4553
  8
241
  6
CONTINUOUS
 10
47.259683599993423
 20
3.9469247255338749
 30
0.0
 11
47.414975027054872
 21
4.5264802213073088
 31
0.0
  0
ARC
  5
4554
  8
241
  6
CONTINUOUS
 10
25.961588073709439
 20
-0.8427930273085451
 30
0.0
 40
26.400000000000009
 50
351.78019184719898
 51
11.99999999999979
  0
ARC
  5
4555
  8
241
  6
CONTINUOUS
 10
25.961588073709439
 20
-0.8427930273085451
 30
0.0
 40
27.5
 50
351.58856573578748
 51
11.99999999999979
  0
ARC
  5
4556
  8
241
  6
CONTINUOUS
 10
46.992237253387422
 20
-3.1181192454412492
 30
0.0
 40
1.633333333333314
 50
270.0
 51
90.0
  0
ARC
  5
4557
  8
241
  6
CONTINUOUS
 10
46.258903920053967
 20
-3.1181192454412492
 30
0.0
 40
1.633333333333314
 50
90.0
 51
270.0
  0
ARC
  5
4558
  8
241
  6
CONTINUOUS
 10
46.992237253387422
 20
-3.1181192454412492
 30
0.0
 40
1.0333333333333139
 50
270.0
 51
90.0
  0
ARC
  5
4559
  8
241
  6
CONTINUOUS
 10
46.258903920053967
 20
-3.1181192454412492
 30
0.0
 40
1.0333333333333139
 50
90.0
 51
270.0
  0
ARC
  5
455A
  8
241
  6
CONTINUOUS
 10
46.258903920053967
 20
2.9488013717018751
 30
0.0
 40
1.0333333333333139
 50
105.00000000000109
 51
270.0
  0
ARC
  5
455B
  8
241
  6
CONTINUOUS
 10
46.258903920053967
 20
2.9488013717018751
 30
0.0
 40
1.633333333333314
 50
105.00000000000109
 51
270.0
  0
ARC
  5
455C
  8
241
  6
CONTINUOUS
 10
46.992237253387422
 20
2.9488013717018751
 30
0.0
 40
1.633333333333314
 50
270.0
 51
74.999999999998835
  0
ARC
  5
455D
  8
241
  6
CONTINUOUS
 10
46.992237253387422
 20
2.9488013717018751
 30
0.0
 40
1.0333333333333139
 50
270.0
 51
74.999999999998835
  0
POINT
  5
455E
  8
0
  6
CONTINUOUS
 62
     7
 10
67.338493014939885
 20
4.7863489679749867
 30
0.0
  0
POINT
  5
459F
  8
0
  6
CONTINUOUS
 62
     7
 10
57.26761029058946
 20
-1.503132054340568
 30
0.0
  0
POINT
  5
466E
  8
0
  6
CONTINUOUS
 62
     7
 10
63.684146422377133
 20
-4.4542158977353656
 30
0.0
  0
LINE
  5
468F
  8
241
  6
CONTINUOUS
 10
44.625570586720983
 20
-10.517611344488699
 30
0.0
 11
44.625570586720983
 21
-9.9176113444886767
 31
0.0
  0
ARC
  5
4693
  8
240
  6
CONTINUOUS
 10
56.614728603170533
 20
69.705182771364605
 30
0.0
 40
50.0
 50
230.91640758902921
 51
261.9999999999992
1001
ASK_MEN_XD
1005
0
1070
     1
1005
4691
1070
     1
  0
ARC
  5
4694
  8
240
  6
CONTINUOUS
 10
56.614728603170533
 20
-69.705182771364548
 30
0.0
 40
50.0
 50
98.000000000000767
 51
129.08359241097071
1001
ASK_MEN_XD
1005
0
1070
     1
1005
4691
1070
     1
  0
LINE
  5
4695
  8
245
  6
CENTER2
 10
-40.630680854570073
 20
97.815750351060373
 30
0.0
 11
302.00654140992128
 21
97.815750351060387
 31
0.0
  0
LINE
  5
4699
  8
240
  6
CONTINUOUS
 10
-36.572725856166471
 20
107.5657503510604
 30
0.0
 11
36.595425408111737
 21
107.5657503510606
 31
0.0
  0
LINE
  5
469A
  8
240
  6
CONTINUOUS
 10
-36.572725856166471
 20
88.065750351060274
 30
0.0
 11
36.595425408111851
 21
88.065750351060345
 31
0.0
  0
ARC
  5
469D
  8
240
  6
CONTINUOUS
 10
12.50509977597261
 20
97.815750351060373
 30
0.0
 40
27.30625000000002
 50
342.16671019540649
 51
342.85303098063508
  0
ARC
  5
469E
  8
240
  6
CONTINUOUS
 10
12.50509977597261
 20
97.815750351060373
 30
0.0
 40
27.30625000000002
 50
17.146969019364871
 51
17.833289804595061
  0
ARC
  5
469F
  8
240
  6
CONTINUOUS
 10
39.553183668484223
 20
106.16110515515069
 30
0.0
 40
1.0
 50
197.1469690193648
 51
268.50000000000063
1001
ASK_MEN_XD
1005
46D8
1070
     1
1005
469E
1070
     1
  0
ARC
  5
46A3
  8
240
  6
CONTINUOUS
 10
-12.48240022402754
 20
97.815750351060345
 30
0.0
 40
27.306249999999821
 50
162.16671019540649
 51
197.83328980459351
  0
ARC
  5
46A4
  8
240
  6
CONTINUOUS
 10
-36.572725856166528
 20
105.5657503510604
 30
0.0
 40
2.0
 50
90.0
 51
162.16671019540649
  0
ARC
  5
46A5
  8
240
  6
CONTINUOUS
 10
-36.572725856166471
 20
90.065750351060274
 30
0.0
 40
2.0
 50
197.83328980459339
 51
270.0
  0
ARC
  5
46A6
  8
240
  6
CONTINUOUS
 10
36.595425408111737
 20
105.5657503510606
 30
0.0
 40
2.0
 50
17.833289804595061
 51
90.0
  0
ARC
  5
46A7
  8
240
  6
CONTINUOUS
 10
36.595425408111851
 20
90.065750351060359
 30
0.0
 40
2.0
 50
270.0
 51
342.16671019540649
  0
LINE
  5
46A9
  8
241
  6
CONTINUOUS
 10
289.980069198644
 20
98.815750351060473
 30
0.0
 11
-39.770333254260699
 21
98.815750351060444
 31
0.0
  0
LINE
  5
46AA
  8
241
  6
CONTINUOUS
 10
289.980069198644
 20
96.815750351060345
 30
0.0
 11
-39.770333254260713
 21
96.815750351060387
 31
0.0
  0
ARC
  5
46AB
  8
240
  6
CONTINUOUS
 10
274.01134977597258
 20
97.815750351060373
 30
0.0
 40
16.0
 50
348.91251078903002
 51
11.08748921097003
  0
ARC
  5
46AC
  8
240
  6
CONTINUOUS
 10
286.76870059814559
 20
100.3157503510603
 30
0.0
 40
3.0
 50
11.08748921097003
 51
90.0
1001
ASK_MEN_XD
1005
46AB
1070
     1
1005
46AE
1070
     1
  0
ARC
  5
46AD
  8
240
  6
CONTINUOUS
 10
286.76870059814559
 20
95.315750351060345
 30
0.0
 40
3.0
 50
270.0
 51
348.91251078903002
1001
ASK_MEN_XD
1005
46AF
1070
     1
1005
46AB
1070
     1
  0
LINE
  5
46AE
  8
240
  6
CONTINUOUS
 10
286.76870059814559
 20
103.3157503510603
 30
0.0
 11
111.32042148445539
 21
103.3157503510604
 31
0.0
  0
LINE
  5
46AF
  8
240
  6
CONTINUOUS
 10
286.76870059814559
 20
92.315750351060359
 30
0.0
 11
110.0113497759727
 21
92.315750351060359
 31
0.0
  0
LINE
  5
46D8
  8
240
  6
CONTINUOUS
 10
108.70272665366809
 20
103.3500178535047
 30
0.0
 11
39.52700672017636
 21
105.16144783017511
 31
0.0
  0
ARC
  5
46D9
  8
240
  6
CONTINUOUS
 10
111.32042148445549
 20
203.31575035106039
 30
0.0
 40
100.0
 50
268.50000000000063
 51
270.0
1001
ASK_MEN_XD
1005
46AE
1070
     1
1005
46D8
1070
     1
  0
ARC
  5
46DA
  8
240
  6
CONTINUOUS
 10
39.55318366848428
 20
89.470395546970025
 30
0.0
 40
1.0
 50
91.499999999999474
 51
162.85303098063511
1001
ASK_MEN_XD
1005
46D8
1070
     1
1005
469E
1070
     1
  0
LINE
  5
46DB
  8
240
  6
CONTINUOUS
 10
108.70272665366809
 20
92.281482848616037
 30
0.0
 11
39.52700672017636
 21
90.470052871945555
 31
0.0
  0
ARC
  5
46DC
  8
240
  6
CONTINUOUS
 10
111.32042148445549
 20
-7.684249648939697
 30
0.0
 40
100.0
 50
90.0
 51
91.499999999999474
1001
ASK_MEN_XD
1005
46AE
1070
     1
1005
46D8
1070
     1
  0
CIRCLE
  5
46F4
  8
241
  6
CONTINUOUS
 10
0.0
 20
0.0
 30
0.0
 40
38.0
  0
ARC
  5
46F5
  8
240
  6
CONTINUOUS
 10
0.0
 20
0.0
 30
0.0
 40
39.799999999999997
 50
50.916407589028843
 51
309.08359241097122
  0
LINE
  5
4891
  8
246
  6
PHANTOM2
 10
-27.488650224027371
 20
107.5657503510604
 30
0.0
 11
-27.48865022402736
 21
88.065750351060274
 31
0.0
  0
LINE
  5
4892
  8
246
  6
PHANTOM2
 10
27.51134977597264
 20
107.5657503510606
 30
0.0
 11
27.51134977597264
 21
88.065750351060345
 31
0.0
  0
CIRCLE
  5
4893
  8
246
  6
PHANTOM2
 10
0.0
 20
0.0
 30
0.0
 40
27.5
  0
TEXT
  5
4989
  8
241
  6
CONTINUOUS
 10
-42.0
 20
133.0
 30
0.0
 40
4.0
  1
MGR55L
  7
YOKO
  0
LINE
  5
498C
  8
250
  6
CONTINUOUS
 10
290.0
 20
0.5000000000000283
 30
0.0
 11
290.0
 21
57.078007918044442
 31
0.0
  0
LINE
  5
498D
  8
250
  6
CONTINUOUS
 10
-39.799999999999997
 20
0.5000000000000001
 30
0.0
 11
-39.799999999999997
 21
57.078007918044442
 31
0.0
  0
LINE
  5
498E
  8
250
  6
CONTINUOUS
 10
287.76999999999998
 20
56.078007918044442
 30
0.0
 11
-37.57
 21
56.078007918044442
 31
0.0
  0
LINE
  5
4992
  8
250
  6
CONTINUOUS
 10
0.0
 20
42.578007918044563
 30
0.0
 11
0.0000000000000005
 21
50.078007918044563
 31
0.0
  0
LINE
  5
4993
  8
250
  6
CONTINUOUS
 10
290.0
 20
0.5000000000000283
 30
0.0
 11
290.0
 21
50.078007918044563
 31
0.0
  0
LINE
  5
4994
  8
250
  6
CONTINUOUS
 10
2.23
 20
49.078007918044548
 30
0.0
 11
287.76999999999998
 21
49.078007918044548
 31
0.0
  0
LINE
  5
4998
  8
250
  6
CONTINUOUS
 10
-39.799999999999997
 20
0.5000000000000001
 30
0.0
 11
-39.799999999999997
 21
50.078007918044563
 31
0.0
  0
LINE
  5
4999
  8
250
  6
CONTINUOUS
 10
0.0
 20
42.578007918044563
 30
0.0
 11
0.0000000000000005
 21
50.078007918044563
 31
0.0
  0
LINE
  5
499A
  8
250
  6
CONTINUOUS
 10
-37.57
 20
49.078007918044563
 30
0.0
 11
-2.2299999999999991
 21
49.078007918044563
 31
0.0
  0
LINE
  5
499E
  8
250
  6
CONTINUOUS
 10
-27.488650224027371
 20
108.0657503510604
 30
0.0
 11
-27.488650224027371
 21
120.0
 31
0.0
  0
LINE
  5
499F
  8
250
  6
CONTINUOUS
 10
27.511349775972629
 20
108.0657503510606
 30
0.0
 11
27.511349775972629
 21
120.0
 31
0.0
  0
LINE
  5
49A0
  8
250
  6
CONTINUOUS
 10
-25.25865022402737
 20
119.0
 30
0.0
 11
25.281349775972629
 21
119.0
 31
0.0
  0
TEXT
  5
49A4
  8
250
  6
CONTINUOUS
 10
119.09999999999999
 20
57.078007918044442
 30
0.0
 40
2.7999999999999989
  1
329.8
  0
LINE
  5
49A5
  8
250
  6
CONTINUOUS
 10
-37.57
 20
55.706341251377772
 30
0.0
 11
-39.799999999999997
 21
56.078007918044442
 31
0.0
  0
LINE
  5
49A6
  8
250
  6
CONTINUOUS
 10
-37.57
 20
56.449674584711111
 30
0.0
 11
-39.799999999999997
 21
56.078007918044442
 31
0.0
  0
LINE
  5
49A7
  8
250
  6
CONTINUOUS
 10
-39.799999999999997
 20
56.078007918044442
 30
0.0
 11
-37.57
 21
56.078007918044442
 31
0.0
  0
LINE
  5
49A8
  8
250
  6
CONTINUOUS
 10
287.76999999999998
 20
56.449674584711111
 30
0.0
 11
290.0
 21
56.078007918044442
 31
0.0
  0
LINE
  5
49A9
  8
250
  6
CONTINUOUS
 10
287.76999999999998
 20
55.706341251377772
 30
0.0
 11
290.0
 21
56.078007918044442
 31
0.0
  0
LINE
  5
49AA
  8
250
  6
CONTINUOUS
 10
290.0
 20
56.078007918044442
 30
0.0
 11
287.76999999999998
 21
56.078007918044442
 31
0.0
  0
TEXT
  5
49AB
  8
250
  6
CONTINUOUS
 10
141.0
 20
50.078007918044563
 30
0.0
 40
2.7999999999999989
  1
290
  0
LINE
  5
49AC
  8
250
  6
CONTINUOUS
 10
287.76999999999998
 20
49.449674584711218
 30
0.0
 11
290.0
 21
49.078007918044548
 31
0.0
  0
LINE
  5
49AD
  8
250
  6
CONTINUOUS
 10
287.76999999999998
 20
48.706341251377879
 30
0.0
 11
290.0
 21
49.078007918044548
 31
0.0
  0
LINE
  5
49AE
  8
250
  6
CONTINUOUS
 10
290.0
 20
49.078007918044548
 30
0.0
 11
287.76999999999998
 21
49.078007918044548
 31
0.0
  0
LINE
  5
49AF
  8
250
  6
CONTINUOUS
 10
2.23
 20
48.706341251377879
 30
0.0
 11
0.0000000000000004
 21
49.078007918044548
 31
0.0
  0
LINE
  5
49B0
  8
250
  6
CONTINUOUS
 10
2.23
 20
49.449674584711218
 30
0.0
 11
0.0000000000000004
 21
49.078007918044548
 31
0.0
  0
LINE
  5
49B1
  8
250
  6
CONTINUOUS
 10
0.0000000000000004
 20
49.078007918044548
 30
0.0
 11
2.23
 21
49.078007918044548
 31
0.0
  0
TEXT
  5
49B2
  8
250
  6
CONTINUOUS
 10
-24.566666666666659
 20
50.078007918044563
 30
0.0
 40
2.7999999999999989
  1
39.8
  0
LINE
  5
49B3
  8
250
  6
CONTINUOUS
 10
-2.2299999999999991
 20
49.449674584711232
 30
0.0
 11
0.0000000000000004
 21
49.078007918044563
 31
0.0
  0
LINE
  5
49B4
  8
250
  6
CONTINUOUS
 10
-2.2299999999999991
 20
48.706341251377893
 30
0.0
 11
0.0000000000000004
 21
49.078007918044563
 31
0.0
  0
LINE
  5
49B5
  8
250
  6
CONTINUOUS
 10
0.0000000000000004
 20
49.078007918044563
 30
0.0
 11
-2.2299999999999991
 21
49.078007918044563
 31
0.0
  0
LINE
  5
49B6
  8
250
  6
CONTINUOUS
 10
-37.57
 20
48.706341251377893
 30
0.0
 11
-39.799999999999997
 21
49.078007918044563
 31
0.0
  0
LINE
  5
49B7
  8
250
  6
CONTINUOUS
 10
-37.57
 20
49.449674584711232
 30
0.0
 11
-39.799999999999997
 21
49.078007918044563
 31
0.0
  0
LINE
  5
49B8
  8
250
  6
CONTINUOUS
 10
-39.799999999999997
 20
49.078007918044563
 30
0.0
 11
-37.57
 21
49.078007918044563
 31
0.0
  0
TEXT
  5
49B9
  8
250
  6
CONTINUOUS
 10
-3.9219835573606998
 20
120.0
 30
0.0
 40
2.7999999999999989
  1
\U+220555
  0
LINE
  5
49BA
  8
250
  6
CONTINUOUS
 10
25.281349775972629
 20
119.3716666666666
 30
0.0
 11
27.511349775972629
 21
119.0
 31
0.0
  0
LINE
  5
49BB
  8
250
  6
CONTINUOUS
 10
25.281349775972629
 20
118.6283333333333
 30
0.0
 11
27.511349775972629
 21
119.0
 31
0.0
  0
LINE
  5
49BC
  8
250
  6
CONTINUOUS
 10
27.511349775972629
 20
119.0
 30
0.0
 11
25.281349775972629
 21
119.0
 31
0.0
  0
LINE
  5
49BD
  8
250
  6
CONTINUOUS
 10
-25.25865022402737
 20
118.6283333333333
 30
0.0
 11
-27.488650224027371
 21
119.0
 31
0.0
  0
LINE
  5
49BE
  8
250
  6
CONTINUOUS
 10
-25.25865022402737
 20
119.3716666666666
 30
0.0
 11
-27.488650224027371
 21
119.0
 31
0.0
  0
LINE
  5
49BF
  8
250
  6
CONTINUOUS
 10
-27.488650224027371
 20
119.0
 30
0.0
 11
-25.25865022402737
 21
119.0
 31
0.0
  0
VIEWPORT
  5
22
 67
     1
  8
0
 10
261.51769911504419
 20
148.5
 30
0.0
 40
523.0353982300885
 41
297.0
 68
     1
 69
     1
1001
ACAD
1000
MVIEW
1002
{
1070
    16
1010
0.0
1020
0.0
1030
0.0
1010
0.0
1020
0.0
1030
1.0
1040
0.0
1040
297.0
1040
261.51769911504419
1040
148.5
1040
50.0
1040
0.0
1040
0.0
1070
     0
1070
   100
1070
     1
1070
     1
1070
     0
1070
     0
1070
     0
1070
     0
1040
0.0
1040
0.0
1040
0.0
1040
1.0
1040
1.0
1040
10.0
1040
10.0
1070
     0
1002
{
1002
}
1002
}
1001
GENIUS_GENODEF_13
1002
{
1000
HIER
1070
     0
1002
}
1002
{
1000
MANEDIT
1070
     0
1002
}
1002
{
1000
NOSEL
1070
     0
1002
}
1002
{
1000
BEHIND
1070
     0
1002
}
1002
{
1000
OTHER
1070
     0
1002
}
1002
{
1000
REACTOR
1002
}
1001
GENIUS_GENOBJ-N-SDF_13
1002
{
1000
OWNER
1000
GEN
1002
}
1001
GENIUS_GENSCREG_15
1000
PF
1040
1.0
1000
DF
1040
1.0
1000
MIN
1011
0.0
1021
0.0
1031
0.0
1021
0.0
1031
0.0
1000
MAX
1011
523.0353982300885
1021
0.0
1031
0.0
1021
297.0
1031
0.0
1000
FLAGS
1070
     4
  0
ENDSEC
  0
EOF
