  0
SECTION
  2
HEADER
  9
$ACADVER
  1
AC1009
  9
$INSBASE
 10
0.0
 20
0.0
 30
0.0
  9
$EXTMIN
 10
-44.160000000001453
 20
-41.1119193516015
 30
0.0
  9
$EXTMAX
 10
301.97996214711537
 20
123.0
 30
0.0
  9
$LIMMIN
 10
0.0
 20
0.0
  9
$LIMMAX
 10
297.0
 20
210.0
  9
$ORTHOMODE
 70
     0
  9
$REGENMODE
 70
     1
  9
$FILLMODE
 70
     1
  9
$QTEXTMODE
 70
     0
  9
$MIRRTEXT
 70
     1
  9
$DRAGMODE
 70
     2
  9
$LTSCALE
 40
10.0
  9
$OSMODE
 70
    37
  9
$ATTMODE
 70
     1
  9
$TEXTSIZE
 40
3.0
  9
$TRACEWID
 40
1.0
  9
$TEXTSTYLE
  7
YOKO
  9
$CLAYER
  8
240
  9
$CELTYPE
  6
BYLAYER
  9
$CECOLOR
 62
   256
  9
$DIMSCALE
 40
1.0
  9
$DIMASZ
 40
2.2299999999999991
  9
$DIMEXO
 40
0.5
  9
$DIMDLI
 40
7.0
  9
$DIMRND
 40
0.0
  9
$DIMDLE
 40
0.0
  9
$DIMEXE
 40
1.0
  9
$DIMTP
 40
0.0
  9
$DIMTM
 40
0.01
  9
$DIMTXT
 40
2.7999999999999989
  9
$DIMCEN
 40
0.0
  9
$DIMTSZ
 40
0.0
  9
$DIMTOL
 70
     0
  9
$DIMLIM
 70
     0
  9
$DIMTIH
 70
     0
  9
$DIMTOH
 70
     0
  9
$DIMSE1
 70
     0
  9
$DIMSE2
 70
     0
  9
$DIMTAD
 70
     3
  9
$DIMZIN
 70
     9
  9
$DIMBLK
  1
OPEN
  9
$DIMASO
 70
     1
  9
$DIMSHO
 70
     1
  9
$DIMPOST
  1

  9
$DIMAPOST
  1

  9
$DIMALT
 70
     0
  9
$DIMALTD
 70
     2
  9
$DIMALTF
 40
25.399999999999999
  9
$DIMLFAC
 40
1.0
  9
$DIMTOFL
 70
     1
  9
$DIMTVP
 40
0.0
  9
$DIMTIX
 70
     1
  9
$DIMSOXD
 70
     0
  9
$DIMSAH
 70
     0
  9
$DIMBLK1
  1

  9
$DIMBLK2
  1

  9
$DIMSTYLE
  2
BIGT
  9
$DIMCLRD
 70
   256
  9
$DIMCLRE
 70
   256
  9
$DIMCLRT
 70
    40
  9
$DIMTFAC
 40
1.0
  9
$DIMGAP
 40
1.0
  9
$LUNITS
 70
     2
  9
$LUPREC
 70
     6
  9
$SKETCHINC
 40
1.0
  9
$FILLETRAD
 40
0.0
  9
$AUNITS
 70
     0
  9
$AUPREC
 70
     6
  9
$MENU
  1
.
  9
$ELEVATION
 40
0.0
  9
$PELEVATION
 40
0.0
  9
$THICKNESS
 40
0.0
  9
$LIMCHECK
 70
     0
  9
$BLIPMODE
 70
     0
  9
$CHAMFERA
 40
0.2
  9
$CHAMFERB
 40
0.2
  9
$SKPOLY
 70
     0
  9
$TDCREATE
 40
2459494.6974770259
  9
$TDUPDATE
 40
2459494.7115652659
  9
$TDINDWG
 40
0.0139846296
  9
$TDUSRTIMER
 40
0.0139845949
  9
$USRTIMER
 70
     1
  9
$ANGBASE
 50
0.0
  9
$ANGDIR
 70
     0
  9
$PDMODE
 70
     1
  9
$PDSIZE
 40
0.0
  9
$PLINEWID
 40
0.0
  9
$COORDS
 70
     1
  9
$SPLFRAME
 70
     0
  9
$SPLINETYPE
 70
     6
  9
$SPLINESEGS
 70
     4
  9
$ATTDIA
 70
     1
  9
$ATTREQ
 70
     1
  9
$HANDLING
 70
     1
  9
$HANDSEED
  5
4F29
  9
$SURFTAB1
 70
     6
  9
$SURFTAB2
 70
     6
  9
$SURFTYPE
 70
     6
  9
$SURFU
 70
     6
  9
$SURFV
 70
     6
  9
$UCSNAME
  2

  9
$UCSORG
 10
0.0
 20
0.0
 30
0.0
  9
$UCSXDIR
 10
1.0
 20
0.0
 30
0.0
  9
$UCSYDIR
 10
0.0
 20
1.0
 30
0.0
  9
$PUCSNAME
  2

  9
$PUCSORG
 10
0.0
 20
0.0
 30
0.0
  9
$PUCSXDIR
 10
1.0
 20
0.0
 30
0.0
  9
$PUCSYDIR
 10
0.0
 20
1.0
 30
0.0
  9
$USERI1
 70
     1
  9
$USERI2
 70
     0
  9
$USERI3
 70
     0
  9
$USERI4
 70
     0
  9
$USERI5
 70
     0
  9
$USERR1
 40
0.0
  9
$USERR2
 40
0.0
  9
$USERR3
 40
0.0
  9
$USERR4
 40
0.0
  9
$USERR5
 40
0.0
  9
$WORLDVIEW
 70
     1
  9
$SHADEDGE
 70
     3
  9
$SHADEDIF
 70
    70
  9
$TILEMODE
 70
     1
  9
$MAXACTVP
 70
    16
  9
$PLIMCHECK
 70
     0
  9
$PEXTMIN
 10
1.0000000000000000E+020
 20
1.0000000000000000E+020
 30
1.0000000000000000E+020
  9
$PEXTMAX
 10
-1.0000000000000000E+020
 20
-1.0000000000000000E+020
 30
-1.0000000000000000E+020
  9
$PLIMMIN
 10
0.0
 20
0.0
  9
$PLIMMAX
 10
420.0
 20
297.0
  9
$UNITMODE
 70
     0
  9
$VISRETAIN
 70
     1
  9
$PLINEGEN
 70
     0
  9
$PSLTSCALE
 70
     1
  0
ENDSEC
  0
SECTION
  2
TABLES
  0
TABLE
  2
VPORT
 70
     1
  0
VPORT
  2
*ACTIVE
 70
     0
 10
0.0
 20
0.0
 11
1.0
 21
1.0
 12
135.38105583095609
 22
34.145835812714267
 13
0.0
 23
0.0
 14
7.0
 24
7.0
 15
7.0
 25
7.0
 16
0.0
 26
0.0
 36
1.0
 17
0.0
 27
0.0
 37
0.0
 40
265.34851805453837
 41
1.806872037914691
 42
50.0
 43
0.0
 44
0.0
 50
0.0
 51
0.0
 71
     0
 72
  2000
 73
     1
 74
     0
 75
     0
 76
     1
 77
     0
 78
     0
  0
ENDTAB
  0
TABLE
  2
LTYPE
 70
    16
  0
LTYPE
  2
CONTINUOUS
 70
     0
  3
Solid line
 72
    65
 73
     0
 40
0.0
  0
LTYPE
  2
CENTER2
 70
     0
  3
___ _ ___ _ ___ _ ___ _ ___ _ ___ _ ___ _ ___ _
 72
    65
 73
     4
 40
1.125
 49
0.75
 49
-0.125
 49
0.125
 49
-0.125
  0
LTYPE
  2
HIDDEN2
 70
     0
  3
_ _ _ _ _ _ _ _ _ _ _ _ _ _ _ _ _ _ _ _ _ _ _ _
 72
    65
 73
     2
 40
0.1875
 49
0.125
 49
-0.0625
  0
LTYPE
  2
PHANTOM2
 70
     0
  3
___ _ _ ___ _ _ ___ _ _ ___ _ _ ___ _ _ ___ _ _
 72
    65
 73
     6
 40
1.25
 49
0.625
 49
-0.125
 49
0.125
 49
-0.125
 49
0.125
 49
-0.125
  0
LTYPE
  2
AM_ISO02W050
 70
     0
  3
__ __ __ __ __ __ __ __ __ __ __ __ __ __ __
 72
    65
 73
     2
 40
7.5
 49
6.0
 49
-1.5
  0
LTYPE
  2
AMCONSTR
 70
     0
  3
_______________________
 72
    65
 73
     2
 40
9999.0
 49
9999.0
 49
0.0
  0
LTYPE
  2
ACISOWELD
 70
     0
  3
_ _ _ _ _
 72
    65
 73
     2
 40
2.0
 49
2.0
 49
-1.0
  0
LTYPE
  2
ACISOTGB
 70
     0
  3
__ . . __ . .
 72
    65
 73
     6
 40
9.0
 49
4.0
 49
-1.0
 49
1.0
 49
-1.0
 49
1.0
 49
-1.0
  0
LTYPE
  2
ACISOTGL
 70
     0
  3
_ _ _ _ _
 72
    65
 73
     2
 40
3.0
 49
2.0
 49
-1.0
  0
LTYPE
  2
ACJISTGB
 70
     0
  3
__ . . __ . .
 72
    65
 73
     6
 40
9.0
 49
4.0
 49
-1.0
 49
1.0
 49
-1.0
 49
1.0
 49
-1.0
  0
LTYPE
  2
ACJISTGL
 70
     0
  3
_ _ _ _ _
 72
    65
 73
     2
 40
3.0
 49
2.0
 49
-1.0
  0
ENDTAB
  0
TABLE
  2
LAYER
 70
     7
  0
LAYER
  2
0
 70
     0
 62
     7
  6
CONTINUOUS
  0
LAYER
  2
DEFPOINTS
 70
     0
 62
     7
  6
CONTINUOUS
  0
LAYER
  2
245
 70
     0
 62
     2
  6
CENTER2
  0
LAYER
  2
240
 70
     0
 62
     4
  6
CONTINUOUS
  0
LAYER
  2
241
 70
     0
 62
   211
  6
CONTINUOUS
  0
LAYER
  2
246
 70
     0
 62
     3
  6
PHANTOM2
  0
LAYER
  2
250
 70
     0
 62
     3
  6
CONTINUOUS
  0
ENDTAB
  0
TABLE
  2
STYLE
 70
     8
  0
STYLE
  2
STANDARD
 70
     0
 40
0.0
 41
1.0
 50
0.0
 71
     0
 42
3.0
  3
romans.shx
  4
extfont.shx
  0
STYLE
  2
ACISOTS
 70
     0
 40
1.0
 41
1.0
 50
0.0
 71
     0
 42
3.0
  3
amgdt.shx
  4
extfont.shx
  0
STYLE
  2
ACISOGDT
 70
     0
 40
0.0
 41
1.0
 50
0.0
 71
     0
 42
3.0
  3
amgdt.shx
  4
extfont.shx
  0
STYLE
  2
ACJISTS
 70
     0
 40
1.0
 41
1.0
 50
0.0
 71
     0
 42
3.0
  3
amgdt.shx
  4
extfont.shx
  0
STYLE
  2
ACJISGDT
 70
     0
 40
0.0
 41
1.0
 50
0.0
 71
     0
 42
3.0
  3
amgdt.shx
  4
extfont.shx
  0
STYLE
  2
YOKO
 70
     0
 40
0.0
 41
1.0
 50
0.0
 71
     0
 42
3.0
  3
romans.shx
  4
extfont.shx
  0
ENDTAB
  0
TABLE
  2
VIEW
 70
     0
  0
ENDTAB
  0
TABLE
  2
UCS
 70
     0
  0
ENDTAB
  0
TABLE
  2
APPID
 70
    44
  0
APPID
  2
ACAD
 70
     0
  0
APPID
  2
GLOBAL
 70
     0
  0
APPID
  2
DETAIL
 70
     0
  0
APPID
  2
GRPNAME
 70
     0
  0
APPID
  2
GPARA
 70
     0
  0
APPID
  2
MCAD_NO_VIS
 70
     0
  0
APPID
  2
ACAD_TEMP_GRAPHIC
 70
     0
  0
APPID
  2
ACATTRIBSERVICES
 70
     0
  0
APPID
  2
GENIUS_GENSCREG_15
 70
     0
  0
APPID
  2
GENIUS_GENODEF_13
 70
     0
  0
APPID
  2
GENIUS_GENOBJ-N-SDF_13
 70
     0
  0
APPID
  2
GENIUS_GENREC_14
 70
     0
  0
APPID
  2
GENIUS_GENOBJ-N-REC_13
 70
     0
  0
APPID
  2
GENIUS_GENDIMSH_14
 70
     0
  0
APPID
  2
GENIUS_GENOBJ-N-DIM_13
 70
     0
  0
APPID
  2
GENIUS_GENDIM_13
 70
     0
  0
APPID
  2
GENIUS_GENDTOL_13
 70
     0
  0
APPID
  2
GENIUS_GENOLIS_13
 70
     0
  0
APPID
  2
GENIUS_GENOENT_13
 70
     0
  0
APPID
  2
GENIUS_GENOBJ-F-FEM_13
 70
     0
  0
APPID
  2
GENIUS_GENOREF_13
 70
     0
  0
APPID
  2
GENIUS_GEFFEM_13
 70
     0
  0
APPID
  2
GENIUS_GEFFEMP_13
 70
     0
  0
APPID
  2
AD_DRAW
 70
     0
  0
APPID
  2
DESIGNERASSEMBLIES
 70
     0
  0
APPID
  2
ACADM_DIM_EDIT
 70
     0
  0
APPID
  2
AMDT_DM_ADJ
 70
     0
  0
APPID
  2
ITEMNAME
 70
     0
  0
APPID
  2
GENIUS_GENOBJ-N-FIL_13
 70
     0
  0
APPID
  2
GENIUS_GENFIL_13
 70
     0
  0
APPID
  2
GENIUS_GENOBJ-N-CHA_13
 70
     0
  0
APPID
  2
ACAD_NAV_VCDISPLAY
 70
     0
  0
APPID
  2
ACAECLAYERSTANDARD
 70
     0
  0
APPID
  2
LAYER_SCALE
 70
     0
  0
APPID
  2
ASK_MEN_XD
 70
     0
  0
APPID
  2
ACAD_EXEMPT_FROM_CAD_STANDARDS
 70
     0
  0
APPID
  2
ACAD_DSTYLE_DIMINSPECT
 70
     0
  0
APPID
  2
ACAD_DSTYLE_DIMJAG
 70
     0
  0
APPID
  2
ACAD_DSTYLE_DIMBREAK
 70
     0
  0
APPID
  2
ACAD_MLEADERVER
 70
     0
  0
APPID
  2
ACAD_DSTYLE_DIMARC_LENGTH_
 70
     0
  0
APPID
  2
ACAD_DSTYLE_DIM_LINETYPE
 70
     0
  0
APPID
  2
ACAD_DSTYLE_DIM_EXT1_LINETYPE
 70
     0
  0
APPID
  2
ACAD_DSTYLE_DIM_EXT2_LINETYPE
 70
     0
  0
ENDTAB
  0
TABLE
  2
DIMSTYLE
 70
    30
  0
DIMSTYLE
  2
BIGT
 70
     0
  3

  4

  5
OPEN
  6

  7

 40
1.0
 41
2.2299999999999991
 42
0.5
 43
7.0
 44
1.0
 45
0.0
 46
0.0
 47
0.0
 48
0.01
140
2.7999999999999989
141
0.0
142
0.0
143
25.399999999999999
144
1.0
145
0.0
146
1.0
147
1.0
 71
     0
 72
     0
 73
     0
 74
     0
 75
     0
 76
     0
 77
     3
 78
     9
170
     0
171
     2
172
     1
173
     0
174
     1
175
     0
176
   256
177
   256
178
    40
  0
DIMSTYLE
  2
AM_ISO
 70
     0
  3

  4
"
  5

  6

  7

 40
1.0
 41
2.5
 42
1.0
 43
10.0
 44
1.0
 45
0.0
 46
0.0
 47
0.1
 48
0.1
140
3.5
141
0.0
142
0.0
143
0.0393701
144
1.0
145
0.0
146
0.71
147
1.5
 71
     0
 72
     0
 73
     0
 74
     0
 75
     0
 76
     0
 77
     1
 78
     8
170
     0
171
     2
172
     1
173
     0
174
     0
175
     0
176
   256
177
   256
178
     2
  0
DIMSTYLE
  2
AM_ISO$3
 70
     0
  3

  4
"
  5

  6

  7

 40
1.0
 41
2.5
 42
1.0
 43
10.0
 44
1.0
 45
0.0
 46
0.0
 47
0.1
 48
0.1
140
3.5
141
0.0
142
0.0
143
0.0393701
144
1.0
145
0.0
146
0.71
147
1.5
 71
     0
 72
     0
 73
     0
 74
     1
 75
     0
 76
     0
 77
     1
 78
     8
170
     0
171
     2
172
     0
173
     0
174
     0
175
     0
176
   256
177
   256
178
     2
  0
DIMSTYLE
  2
AM_ISO$4
 70
     0
  3

  4
"
  5

  6

  7

 40
1.0
 41
2.5
 42
1.0
 43
10.0
 44
1.0
 45
0.0
 46
0.0
 47
0.1
 48
0.1
140
3.5
141
0.0
142
0.0
143
0.0393701
144
1.0
145
0.0
146
0.71
147
1.5
 71
     0
 72
     0
 73
     0
 74
     1
 75
     0
 76
     0
 77
     1
 78
     8
170
     0
171
     2
172
     0
173
     0
174
     0
175
     0
176
   256
177
   256
178
     2
  0
DIMSTYLE
  2
AM_ISO$6
 70
     0
  3

  4
"
  5

  6

  7

 40
1.0
 41
2.5
 42
1.0
 43
10.0
 44
1.0
 45
0.0
 46
0.0
 47
0.1
 48
0.1
140
3.5
141
0.0
142
0.0
143
0.0393701
144
1.0
145
0.0
146
0.71
147
1.5
 71
     0
 72
     0
 73
     0
 74
     0
 75
     0
 76
     0
 77
     0
 78
     8
170
     0
171
     2
172
     1
173
     0
174
     0
175
     0
176
   256
177
   256
178
     2
  0
DIMSTYLE
  2
AM_ISO$7
 70
     0
  3

  4
"
  5

  6

  7

 40
1.0
 41
2.5
 42
1.0
 43
10.0
 44
1.0
 45
0.0
 46
0.0
 47
0.1
 48
0.1
140
5.0
141
0.0
142
0.0
143
0.0393701
144
1.0
145
0.0
146
0.71
147
1.5
 71
     0
 72
     0
 73
     0
 74
     0
 75
     0
 76
     0
 77
     1
 78
     8
170
     0
171
     2
172
     1
173
     0
174
     0
175
     0
176
   256
177
   256
178
     2
  0
DIMSTYLE
  2
AM_ISO$SF
 70
     0
  3

  4
"
  5

  6

  7

 40
1.0
 41
2.5
 42
1.0
 43
10.0
 44
1.0
 45
0.0
 46
0.0
 47
0.1
 48
0.1
140
3.5
141
0.0
142
0.0
143
0.0393701
144
1.0
145
0.0
146
0.71
147
1.5
 71
     0
 72
     0
 73
     0
 74
     0
 75
     1
 76
     1
 77
     1
 78
     8
170
     0
171
     2
172
     1
173
     0
174
     0
175
     0
176
   256
177
   256
178
     2
  0
DIMSTYLE
  2
AM_ISO$SH
 70
     0
  3

  4
"
  5

  6
GENAXEH
  7

 40
1.0
 41
2.5
 42
1.0
 43
10.0
 44
1.0
 45
0.0
 46
0.0
 47
0.1
 48
0.1
140
3.5
141
0.0
142
0.0
143
0.0393701
144
2.0
145
0.0
146
0.71
147
1.5
 71
     0
 72
     0
 73
     0
 74
     0
 75
     1
 76
     1
 77
     1
 78
     8
170
     0
171
     2
172
     1
173
     1
174
     0
175
     0
176
   256
177
   256
178
     2
  0
DIMSTYLE
  2
BIGT$2
 70
     0
  3

  4

  5
OPEN
  6

  7

 40
1.0
 41
2.2299999999999991
 42
0.5
 43
7.0
 44
1.0
 45
0.0
 46
0.0
 47
0.0
 48
0.01
140
2.7999999999999989
141
0.0
142
0.0
143
25.399999999999999
144
1.0
145
0.0
146
1.0
147
1.0
 71
     0
 72
     0
 73
     0
 74
     0
 75
     0
 76
     0
 77
     3
 78
     9
170
     0
171
     2
172
     1
173
     0
174
     0
175
     0
176
   256
177
   256
178
    40
  0
DIMSTYLE
  2
BIGT$3
 70
     0
  3

  4

  5
OPEN
  6

  7

 40
1.0
 41
2.2299999999999991
 42
0.5
 43
2.5
 44
1.0
 45
0.0
 46
0.0
 47
0.0
 48
0.01
140
2.7999999999999989
141
0.0
142
0.0
143
25.399999999999999
144
1.0
145
0.0
146
1.0
147
1.0
 71
     0
 72
     0
 73
     0
 74
     0
 75
     0
 76
     0
 77
     3
 78
     9
170
     0
171
     2
172
     1
173
     0
174
     0
175
     0
176
   256
177
   256
178
    40
  0
DIMSTYLE
  2
BIGT$7
 70
     0
  3

  4

  5
OPEN
  6

  7

 40
0.0
 41
2.2299999999999991
 42
0.5
 43
7.0
 44
1.0
 45
0.0
 46
0.0
 47
0.0
 48
0.01
140
2.7999999999999989
141
0.0
142
0.0
143
25.399999999999999
144
1.0
145
0.0
146
1.0
147
1.0
 71
     0
 72
     0
 73
     0
 74
     0
 75
     0
 76
     0
 77
     3
 78
     9
170
     0
171
     2
172
     0
173
     0
174
     0
175
     0
176
   256
177
   256
178
    40
  0
DIMSTYLE
  2
BIGT$6
 70
     0
  3

  4

  5
OPEN
  6

  7

 40
1.0
 41
2.2299999999999991
 42
0.5
 43
2.5
 44
1.0
 45
0.0
 46
0.0
 47
0.0
 48
0.01
140
2.7999999999999989
141
0.0
142
0.0
143
25.399999999999999
144
1.0
145
0.0
146
1.0
147
1.0
 71
     0
 72
     0
 73
     0
 74
     0
 75
     0
 76
     0
 77
     3
 78
     9
170
     0
171
     2
172
     1
173
     0
174
     0
175
     0
176
   256
177
   256
178
    40
  0
DIMSTYLE
  2
BIGT$0
 70
     0
  3

  4

  5
OPEN
  6

  7

 40
1.0
 41
2.2299999999999991
 42
0.5
 43
7.0
 44
1.0
 45
0.0
 46
0.0
 47
0.0
 48
0.01
140
2.7999999999999989
141
0.0
142
0.0
143
25.399999999999999
144
1.0
145
0.0
146
1.0
147
1.0
 71
     0
 72
     0
 73
     0
 74
     0
 75
     0
 76
     0
 77
     3
 78
     9
170
     0
171
     2
172
     1
173
     0
174
     1
175
     0
176
   256
177
   256
178
    40
  0
DIMSTYLE
  2
BIGT$4
 70
     0
  3

  4

  5
OPEN
  6

  7

 40
1.0
 41
2.2299999999999991
 42
0.5
 43
2.5
 44
1.0
 45
0.0
 46
0.0
 47
0.0
 48
0.01
140
2.7999999999999989
141
0.0
142
0.0
143
25.399999999999999
144
1.0
145
0.0
146
1.0
147
1.0
 71
     0
 72
     0
 73
     0
 74
     0
 75
     0
 76
     0
 77
     3
 78
     9
170
     0
171
     2
172
     1
173
     0
174
     0
175
     0
176
   256
177
   256
178
    40
  0
DIMSTYLE
  2
BIGT$SH
 70
     0
  3

  4

  5
OPEN
  6

  7

 40
1.0
 41
2.2299999999999991
 42
0.5
 43
7.0
 44
1.0
 45
0.0
 46
0.0
 47
0.0
 48
0.0
140
2.7999999999999989
141
0.0
142
0.0
143
25.399999999999999
144
1.0
145
0.0
146
1.0
147
1.0
 71
     0
 72
     0
 73
     0
 74
     0
 75
     0
 76
     0
 77
     3
 78
     9
170
     0
171
     2
172
     1
173
     0
174
     0
175
     0
176
   256
177
   256
178
    40
  0
DIMSTYLE
  2
BIGT$SF
 70
     0
  3

  4

  5
OPEN
  6

  7

 40
1.0
 41
2.2299999999999991
 42
0.5
 43
7.0
 44
1.0
 45
0.0
 46
0.0
 47
0.0
 48
0.0
140
2.7999999999999989
141
0.0
142
0.0
143
25.399999999999999
144
1.0
145
0.0
146
1.0
147
1.0
 71
     0
 72
     0
 73
     0
 74
     0
 75
     0
 76
     0
 77
     3
 78
     9
170
     0
171
     2
172
     1
173
     0
174
     0
175
     0
176
   256
177
   256
178
    40
  0
DIMSTYLE
  2
TECHNICAL_OSAKA
 70
     0
  3

  4
"
  5
OPEN30
  6

  7

 40
1.0
 41
2.5
 42
1.0
 43
10.0
 44
1.0
 45
0.0
 46
0.0
 47
0.1
 48
0.1
140
2.7999999999999989
141
0.0
142
0.0
143
0.0393701
144
1.0
145
0.0
146
0.71
147
1.5
 71
     0
 72
     0
 73
     0
 74
     0
 75
     0
 76
     0
 77
     3
 78
     8
170
     0
171
     2
172
     1
173
     0
174
     0
175
     0
176
   256
177
   256
178
    40
  0
DIMSTYLE
  2
TECHNICAL_OSAKA$3
 70
     0
  3

  4
"
  5
OPEN30
  6

  7

 40
1.0
 41
2.5
 42
1.0
 43
10.0
 44
1.0
 45
0.0
 46
0.0
 47
0.1
 48
0.1
140
2.7999999999999989
141
0.0
142
0.0
143
0.0393701
144
1.0
145
0.0
146
0.71
147
1.5
 71
     0
 72
     0
 73
     0
 74
     1
 75
     0
 76
     0
 77
     3
 78
     8
170
     0
171
     2
172
     0
173
     0
174
     0
175
     0
176
   256
177
   256
178
    40
  0
DIMSTYLE
  2
TECHNICAL_OSAKA$4
 70
     0
  3

  4
"
  5
OPEN30
  6

  7

 40
1.0
 41
2.5
 42
1.0
 43
10.0
 44
1.0
 45
0.0
 46
0.0
 47
0.1
 48
0.1
140
2.7999999999999989
141
0.0
142
0.0
143
0.0393701
144
1.0
145
0.0
146
0.71
147
1.5
 71
     0
 72
     0
 73
     0
 74
     1
 75
     0
 76
     0
 77
     3
 78
     8
170
     0
171
     2
172
     0
173
     0
174
     0
175
     0
176
   256
177
   256
178
    40
  0
DIMSTYLE
  2
TECHNICAL_OSAKA$6
 70
     0
  3

  4
"
  5
OPEN30
  6

  7

 40
1.0
 41
2.5
 42
1.0
 43
10.0
 44
1.0
 45
0.0
 46
0.0
 47
0.1
 48
0.1
140
2.7999999999999989
141
0.0
142
0.0
143
0.0393701
144
1.0
145
0.0
146
0.71
147
1.5
 71
     0
 72
     0
 73
     0
 74
     0
 75
     0
 76
     0
 77
     0
 78
     8
170
     0
171
     2
172
     1
173
     0
174
     0
175
     0
176
   256
177
   256
178
    40
  0
DIMSTYLE
  2
TECHNICAL_OSAKA$7
 70
     0
  3

  4
"
  5
OPEN30
  6

  7

 40
1.0
 41
2.5
 42
1.0
 43
10.0
 44
1.0
 45
0.0
 46
0.0
 47
0.1
 48
0.1
140
2.7999999999999989
141
0.0
142
0.0
143
0.0393701
144
1.0
145
0.0
146
0.71
147
1.5
 71
     0
 72
     0
 73
     0
 74
     0
 75
     0
 76
     0
 77
     3
 78
     8
170
     0
171
     2
172
     1
173
     0
174
     0
175
     0
176
   256
177
   256
178
    40
  0
DIMSTYLE
  2
TECHNICAL_OSAKA$SF
 70
     0
  3

  4
"
  5
OPEN30
  6
OPEN30
  7
OPEN30
 40
1.0
 41
2.5
 42
1.0
 43
10.0
 44
1.0
 45
0.0
 46
0.0
 47
0.1
 48
0.1
140
3.5
141
0.0
142
0.0
143
0.0393701
144
1.0
145
0.0
146
0.71
147
1.5
 71
     0
 72
     0
 73
     0
 74
     0
 75
     1
 76
     1
 77
     3
 78
     8
170
     0
171
     2
172
     1
173
     0
174
     0
175
     0
176
   256
177
   256
178
    40
  0
DIMSTYLE
  2
TECHNICAL_OSAKA$SH
 70
     0
  3

  4
"
  5
OPEN30
  6
GENAXEH
  7
OPEN30
 40
1.0
 41
2.5
 42
1.0
 43
10.0
 44
1.0
 45
0.0
 46
0.0
 47
0.1
 48
0.1
140
3.5
141
0.0
142
0.0
143
0.0393701
144
2.0
145
0.0
146
0.71
147
1.5
 71
     0
 72
     0
 73
     0
 74
     0
 75
     1
 76
     1
 77
     3
 78
     8
170
     0
171
     2
172
     1
173
     1
174
     0
175
     0
176
   256
177
   256
178
    40
  0
DIMSTYLE
  2
STANDARD
 70
     0
  3

  4

  5

  6

  7

 40
1.0
 41
0.18
 42
0.0625
 43
0.38
 44
0.18
 45
0.0
 46
0.0
 47
0.0
 48
0.0
140
0.18
141
0.09
142
0.0
143
25.399999999999999
144
1.0
145
0.0
146
1.0
147
0.09
 71
     0
 72
     0
 73
     1
 74
     1
 75
     0
 76
     0
 77
     0
 78
     0
170
     0
171
     2
172
     0
173
     0
174
     0
175
     0
176
     0
177
     0
178
     0
  0
ENDTAB
  0
ENDSEC
  0
SECTION
  2
BLOCKS
  0
BLOCK
  8
0
  2
$MODEL_SPACE
 70
     0
 10
0.0
 20
0.0
 30
0.0
  3
$MODEL_SPACE
  1

  0
ENDBLK
  5
1C
  8
0
  0
BLOCK
 67
     1
  8
0
  2
$PAPER_SPACE
 70
     0
 10
0.0
 20
0.0
 30
0.0
  3
$PAPER_SPACE
  1

  0
ENDBLK
  5
19
 67
     1
  8
0
  0
BLOCK
  8
0
  2
_OPEN
 70
     0
 10
0.0
 20
0.0
 30
0.0
  3
_OPEN
  1

  0
LINE
  5
4E30
  8
0
  6
BYBLOCK
 62
     0
 10
-1.0
 20
0.1666666666666666
 30
0.0
 11
0.0
 21
0.0
 31
0.0
  0
LINE
  5
4E31
  8
0
  6
BYBLOCK
 62
     0
 10
-1.0
 20
-0.1666666666666666
 30
0.0
 11
0.0
 21
0.0
 31
0.0
  0
LINE
  5
4E32
  8
0
  6
BYBLOCK
 62
     0
 10
0.0
 20
0.0
 30
0.0
 11
-1.0
 21
0.0
 31
0.0
  0
ENDBLK
  5
4E33
  8
0
  0
BLOCK
  8
0
  2
GENAXEH
 70
     0
 10
0.0
 20
0.0
 30
0.0
  3
GENAXEH
  1

  0
LINE
  5
4E6B
  8
0
 10
-1.0
 20
0.0
 30
0.0
 11
1.0
 21
0.0
 31
0.0
  0
ENDBLK
  5
4E6C
  8
0
  0
BLOCK
  8
0
  2
_OPEN30
 70
     0
 10
0.0
 20
0.0
 30
0.0
  3
_OPEN30
  1

  0
LINE
  5
4EA7
  8
0
  6
BYBLOCK
 62
     0
 10
-1.0
 20
0.26794919
 30
0.0
 11
0.0
 21
0.0
 31
0.0
  0
LINE
  5
4EA8
  8
0
  6
BYBLOCK
 62
     0
 10
0.0
 20
0.0
 30
0.0
 11
-1.0
 21
-0.26794919
 31
0.0
  0
LINE
  5
4EA9
  8
0
  6
BYBLOCK
 62
     0
 10
0.0
 20
0.0
 30
0.0
 11
-1.0
 21
0.0
 31
0.0
  0
ENDBLK
  5
4EAA
  8
0
  0
ENDSEC
  0
SECTION
  2
ENTITIES
  0
LINE
  5
460D
  8
241
 10
-40.642030630542877
 20
84.000000000000057
 30
0.0
 11
201.7541221637928
 21
84.000000000000057
 31
0.0
  0
LINE
  5
460E
  8
245
  6
CENTER2
 10
-0.0000000000002274
 20
96.092469285125276
 30
0.0
 11
-0.0000000000002274
 21
71.529422140724805
 31
0.0
  0
LINE
  5
460F
  8
245
  6
CENTER2
 10
-0.0000000000002274
 20
42.0
 30
0.0
 11
-0.0000000000002274
 21
-41.1119193516015
 31
0.0
  0
CIRCLE
  5
4618
  8
241
  6
CONTINUOUS
 10
-0.0000000000013642
 20
0.0
 30
0.0
 40
25.5
  0
LINE
  5
4668
  8
241
  6
CONTINUOUS
 10
50.220861319671712
 20
-6.9052239418742261
 30
0.0
 11
52.514459475609662
 21
-5.1768737621588912
 31
0.0
  0
LINE
  5
4669
  8
241
  6
CONTINUOUS
 10
46.625570586720521
 20
-10.517611344488669
 30
0.0
 11
46.625570586720521
 21
-7.2509446778219049
 31
0.0
  0
LINE
  5
466A
  8
241
  6
CONTINUOUS
 10
49.784684733082251
 20
4.646075610280036
 30
0.0
 11
50.860647093889717
 21
4.874778470179649
 31
0.0
  0
LINE
  5
466B
  8
241
  6
CONTINUOUS
 10
42.625570586720748
 20
-10.517611344488669
 30
0.0
 11
46.625570586720748
 21
-10.517611344488669
 31
0.0
  0
LINE
  5
466C
  8
241
  6
CONTINUOUS
 10
51.16577497707658
 20
-4.8655054115883436
 30
0.0
 11
52.514459475608071
 21
-5.1768737621634378
 31
0.0
  0
LINE
  5
466D
  8
241
  6
CONTINUOUS
 10
48.9170478028459
 20
-4.3463458365388297
 30
0.0
 11
50.09037724220866
 21
-4.6172302817988671
 31
0.0
  0
LINE
  5
466E
  8
241
  6
CONTINUOUS
 10
48.917047802849432
 20
-4.3463458365344527
 30
0.0
 11
50.220861319674214
 21
-6.9052239418742261
 31
0.0
  0
LINE
  5
466F
  8
241
  6
CONTINUOUS
 10
42.625570586720748
 20
-9.9176113444887051
 30
0.0
 11
46.025570586720612
 21
-9.9176113444887051
 31
0.0
  0
LINE
  5
4670
  8
241
  6
CONTINUOUS
 10
46.025570586720612
 20
-9.9176113444887051
 30
0.0
 11
46.025570586720612
 21
-7.2509446778219049
 31
0.0
  0
LINE
  5
4671
  8
241
  6
CONTINUOUS
 10
46.025570586720612
 20
-7.2509446778219049
 30
0.0
 11
46.625570586720521
 21
-7.2509446778219049
 31
0.0
  0
LINE
  5
4672
  8
241
  6
CONTINUOUS
 10
42.625570586720748
 20
7.9823886555114987
 30
0.0
 11
44.380203330146053
 21
7.9823886555114987
 31
0.0
  0
LINE
  5
4673
  8
241
  6
CONTINUOUS
 10
42.625570586720748
 20
7.3823886555114759
 30
0.0
 11
46.625570586720748
 21
7.3823886555114759
 31
0.0
  0
LINE
  5
4674
  8
241
  6
CONTINUOUS
 10
44.370785742594528
 20
8.8825552420144618
 30
0.0
 11
43.068661883077652
 21
10.308690897675721
 31
0.0
  0
LINE
  5
4675
  8
241
  6
CONTINUOUS
 10
44.380203330146053
 20
7.9823886555114987
 30
0.0
 11
42.625570586720748
 21
9.9041292792629179
 31
0.0
  0
LINE
  5
4676
  8
241
  6
CONTINUOUS
 10
44.775885593881753
 20
8.4388744525094221
 30
0.0
 11
46.625570586720642
 21
9.9605803796009127
 31
0.0
  0
LINE
  5
4677
  8
241
  6
CONTINUOUS
 10
44.370785742594528
 20
8.8825552420144032
 30
0.0
 11
46.244379749214083
 21
10.42393072804259
 31
0.0
  0
LINE
  5
4678
  8
241
  6
CONTINUOUS
 10
46.625570586720748
 20
7.3823886555114759
 30
0.0
 11
46.625570586720748
 21
7.9823886555114987
 31
0.0
  0
LINE
  5
4679
  8
241
  6
CONTINUOUS
 10
42.625570586720748
 20
7.3823886555114759
 30
0.0
 11
42.625570586720748
 21
7.9823886555114987
 31
0.0
  0
LINE
  5
467A
  8
241
  6
CONTINUOUS
 10
46.244379749214083
 20
10.42393072804259
 30
0.0
 11
46.625570586720642
 21
9.9605803796009127
 31
0.0
  0
LINE
  5
467B
  8
241
  6
CONTINUOUS
 10
42.625570586720748
 20
9.9041292792629179
 30
0.0
 11
43.068661883077652
 21
10.308690897675721
 31
0.0
  0
LINE
  5
467C
  8
241
  6
CONTINUOUS
 10
45.192676973749371
 20
7.9823886555114987
 30
0.0
 11
44.775885593881753
 21
8.4388744525094221
 31
0.0
  0
LINE
  5
467D
  8
241
  6
CONTINUOUS
 10
45.192676973749371
 20
7.9823886555114987
 30
0.0
 11
46.625570586720748
 21
7.9823886555114987
 31
0.0
  0
LINE
  5
467E
  8
241
  6
CONTINUOUS
 10
44.258903920053733
 20
-4.7514525787746029
 30
0.0
 11
44.992237253387202
 21
-4.7514525787746029
 31
0.0
  0
LINE
  5
467F
  8
241
  6
CONTINUOUS
 10
44.258903920053733
 20
-1.4847859121079521
 30
0.0
 11
44.992237253387202
 21
-1.4847859121079521
 31
0.0
  0
LINE
  5
4680
  8
241
  6
CONTINUOUS
 10
44.258903920053733
 20
-4.151452578774637
 30
0.0
 11
44.992237253387202
 21
-4.151452578774637
 31
0.0
  0
LINE
  5
4681
  8
241
  6
CONTINUOUS
 10
44.258903920053733
 20
-2.084785912107975
 30
0.0
 11
44.992237253387202
 21
-2.084785912107975
 31
0.0
  0
LINE
  5
4682
  8
241
  6
CONTINUOUS
 10
44.258903920053733
 20
1.915468038368487
 30
0.0
 11
44.992237253387202
 21
1.915468038368487
 31
0.0
  0
LINE
  5
4683
  8
241
  6
CONTINUOUS
 10
44.258903920053733
 20
1.3154680383685211
 30
0.0
 11
44.992237253387202
 21
1.3154680383685211
 31
0.0
  0
LINE
  5
4684
  8
241
  6
CONTINUOUS
 10
43.991457573447853
 20
3.9469247255338469
 30
0.0
 11
43.836166146386283
 21
4.5264802213072812
 31
0.0
  0
LINE
  5
4685
  8
241
  6
CONTINUOUS
 10
45.259683599993188
 20
3.9469247255338469
 30
0.0
 11
45.414975027054652
 21
4.5264802213072812
 31
0.0
  0
ARC
  5
4686
  8
241
  6
CONTINUOUS
 10
23.961588073709208
 20
-0.8427930273085735
 30
0.0
 40
26.400000000000009
 50
351.78019184719892
 51
11.999999999999609
  0
ARC
  5
4687
  8
241
  6
CONTINUOUS
 10
23.961588073709208
 20
-0.8427930273085735
 30
0.0
 40
27.5
 50
351.58856573578743
 51
11.999999999999609
  0
ARC
  5
4688
  8
241
  6
CONTINUOUS
 10
44.992237253387202
 20
-3.1181192454412781
 30
0.0
 40
1.633333333333314
 50
270.0
 51
90.0
  0
ARC
  5
4689
  8
241
  6
CONTINUOUS
 10
44.258903920053733
 20
-3.1181192454412781
 30
0.0
 40
1.633333333333314
 50
90.0
 51
270.0
  0
ARC
  5
468A
  8
241
  6
CONTINUOUS
 10
44.992237253387202
 20
-3.1181192454412781
 30
0.0
 40
1.0333333333333139
 50
270.0
 51
90.0
  0
ARC
  5
468B
  8
241
  6
CONTINUOUS
 10
44.258903920053733
 20
-3.1181192454412781
 30
0.0
 40
1.0333333333333139
 50
90.0
 51
270.0
  0
ARC
  5
468C
  8
241
  6
CONTINUOUS
 10
44.258903920053733
 20
2.9488013717018471
 30
0.0
 40
1.0333333333333139
 50
105.00000000000151
 51
270.0
  0
ARC
  5
468D
  8
241
  6
CONTINUOUS
 10
44.258903920053733
 20
2.9488013717018471
 30
0.0
 40
1.633333333333314
 50
105.00000000000151
 51
270.0
  0
ARC
  5
468E
  8
241
  6
CONTINUOUS
 10
44.992237253387202
 20
2.9488013717018471
 30
0.0
 40
1.633333333333314
 50
270.0
 51
75.000000000002217
  0
ARC
  5
468F
  8
241
  6
CONTINUOUS
 10
44.992237253387202
 20
2.9488013717018471
 30
0.0
 40
1.0333333333333139
 50
270.0
 51
75.000000000002217
  0
LINE
  5
4690
  8
241
  6
CONTINUOUS
 10
42.625570586720748
 20
-10.51761134448873
 30
0.0
 11
42.625570586720748
 21
-9.9176113444887051
 31
0.0
  0
LINE
  5
4691
  8
240
  6
CONTINUOUS
 10
-33.584313308902438
 20
93.750000000000057
 30
0.0
 11
33.584313308901983
 21
93.750000000000057
 31
0.0
  0
LINE
  5
4692
  8
240
  6
CONTINUOUS
 10
33.584313308901983
 20
74.250000000000057
 30
0.0
 11
-33.584313308902438
 21
74.250000000000057
 31
0.0
  0
LINE
  5
4693
  8
245
  6
CENTER2
 10
-39.730232286496403
 20
84.000000000000057
 30
0.0
 11
301.97996214711537
 21
84.000000000000057
 31
0.0
  0
ARC
  5
4694
  8
240
  6
CONTINUOUS
 10
-9.5054059091127101
 20
84.000000000000057
 30
0.0
 40
27.294428729521641
 50
162.1580956681693
 51
197.84190433183059
  0
ARC
  5
4695
  8
240
  6
CONTINUOUS
 10
-33.584313308902438
 20
91.750000000000057
 30
0.0
 40
2.0
 50
90.0
 51
162.1580956681693
1001
ASK_MEN_XD
1005
4694
1070
     1
1005
4691
1070
     1
  0
ARC
  5
4696
  8
240
  6
CONTINUOUS
 10
-33.584313308902438
 20
76.250000000000057
 30
0.0
 40
2.0
 50
197.84190433183059
 51
270.0
1001
ASK_MEN_XD
1005
4692
1070
     1
1005
4694
1070
     1
  0
ARC
  5
4698
  8
240
  6
CONTINUOUS
 10
9.5064059091122317
 20
84.000000000000085
 30
0.0
 40
27.294428729521641
 50
342.15809566816932
 51
342.95751835195131
  0
ARC
  5
4699
  8
240
  6
CONTINUOUS
 10
9.5064059091122317
 20
84.000000000000085
 30
0.0
 40
27.294428729521641
 50
17.042481648048721
 51
17.841904331830669
  0
ARC
  5
469A
  8
240
  6
CONTINUOUS
 10
36.558361639955713
 20
92.292550166653712
 30
0.0
 40
1.0
 50
197.04248164804869
 51
268.5000000000004
1001
ASK_MEN_XD
1005
46A7
1070
     1
1005
4699
1070
     1
  0
ARC
  5
469B
  8
240
  6
CONTINUOUS
 10
33.584313308901983
 20
91.750000000000114
 30
0.0
 40
2.0
 50
17.841904331830669
 51
90.0
1001
ASK_MEN_XD
1005
4694
1070
     1
1005
4691
1070
     1
  0
ARC
  5
469C
  8
240
  6
CONTINUOUS
 10
33.584313308901983
 20
76.250000000000114
 30
0.0
 40
2.0
 50
270.0
 51
342.15809566816932
1001
ASK_MEN_XD
1005
4692
1070
     1
1005
4694
1070
     1
  0
LINE
  5
469D
  8
241
  6
CONTINUOUS
 10
-36.781509730423707
 20
85.000000000000057
 30
0.0
 11
289.99999999999977
 21
85.000000000000057
 31
0.0
  0
LINE
  5
469E
  8
241
  6
CONTINUOUS
 10
-36.781509730423707
 20
83.000000000000057
 30
0.0
 11
289.99999999999977
 21
83.000000000000057
 31
0.0
  0
ARC
  5
469F
  8
240
  6
CONTINUOUS
 10
273.99999999999977
 20
84.000000000000057
 30
0.0
 40
16.0
 50
348.91251078903019
 51
11.08748921096986
  0
ARC
  5
46A0
  8
240
  6
CONTINUOUS
 10
286.75735082217278
 20
86.500000000000057
 30
0.0
 40
3.0
 50
11.08748921096986
 51
90.0
1001
ASK_MEN_XD
1005
469F
1070
     1
1005
46A2
1070
     1
  0
ARC
  5
46A1
  8
240
  6
CONTINUOUS
 10
286.75735082217278
 20
81.500000000000057
 30
0.0
 40
3.0
 50
270.0
 51
348.91251078903019
1001
ASK_MEN_XD
1005
46A4
1070
     1
1005
469F
1070
     1
  0
LINE
  5
46A2
  8
240
  6
CONTINUOUS
 10
286.75735082217278
 20
89.500000000000057
 30
0.0
 11
106.3090717084835
 21
89.500000000000057
 31
0.0
  0
ARC
  5
46A3
  8
240
  6
CONTINUOUS
 10
106.3090717084835
 20
189.5
 30
0.0
 40
100.0
 50
268.5000000000004
 51
270.0
1001
ASK_MEN_XD
1005
46A7
1070
     1
1005
46A2
1070
     1
  0
LINE
  5
46A4
  8
240
  6
CONTINUOUS
 10
286.75735082217278
 20
78.500000000000057
 30
0.0
 11
106.3090717084815
 21
78.500000000000057
 31
0.0
  0
ARC
  5
46A5
  8
240
  6
CONTINUOUS
 10
106.3090717084815
 20
-21.49999999999995
 30
0.0
 40
100.0
 50
90.0
 51
91.499999999999517
1001
ASK_MEN_XD
1005
46A9
1070
     1
1005
46A4
1070
     1
  0
LINE
  5
46A7
  8
240
  6
CONTINUOUS
 10
103.6913768776961
 20
89.534267502444322
 30
0.0
 11
36.532184691647792
 21
91.292892841678153
 31
0.0
  0
ARC
  5
46A8
  8
240
  6
CONTINUOUS
 10
36.558361639955713
 20
75.707449833346459
 30
0.0
 40
1.0
 50
91.499999999999517
 51
162.95751835195131
1001
ASK_MEN_XD
1005
46A7
1070
     1
1005
4699
1070
     1
  0
LINE
  5
46A9
  8
240
  6
CONTINUOUS
 10
103.6913768776942
 20
78.465732497555763
 30
0.0
 11
36.532184691647842
 21
76.707107158322003
 31
0.0
  0
ARC
  5
46E9
  8
240
  6
CONTINUOUS
 10
-0.0000000000014779
 20
0.0
 30
0.0
 40
36.799999999999997
 50
53.223470791148401
 51
306.77652920885163
  0
ARC
  5
46EA
  8
240
  6
CONTINUOUS
 10
51.966772403019718
 20
-69.524776634035902
 30
0.0
 40
50.0
 50
98.000000000000895
 51
126.7765292088516
1001
ASK_MEN_XD
1005
46F8
1070
     1
1005
46E9
1070
     1
  0
ARC
  5
46EB
  8
240
  6
CONTINUOUS
 10
51.966772403019718
 20
69.524776634036016
 30
0.0
 40
50.0
 50
233.22347079114829
 51
261.9999999999992
1001
ASK_MEN_XD
1005
46F6
1070
     1
1005
46E9
1070
     1
  0
ARC
  5
46EC
  8
241
  6
CONTINUOUS
 10
-0.0000000000014779
 20
0.0
 30
0.0
 40
36.799999999999997
 50
332.96388650644178
 51
25.420249211211061
  0
CIRCLE
  5
46ED
  8
241
  6
CONTINUOUS
 10
-0.0000000000014779
 20
0.0
 30
0.0
 40
35.0
  0
LINE
  5
46EE
  8
245
  6
CENTER2
 10
292.68239012309851
 20
0.0
 30
0.0
 11
-44.160000000001453
 21
0.0
 31
0.0
  0
LINE
  5
46EF
  8
241
  6
CONTINUOUS
 10
104.99999999999849
 20
11.92525442232539
 30
0.0
 11
104.99999999999849
 21
-11.925254422325329
 31
0.0
  0
ARC
  5
46F0
  8
240
  6
CONTINUOUS
 10
273.99999999999852
 20
0.0
 30
0.0
 40
16.0
 50
268.50000000000051
 51
91.499999999999503
  0
LINE
  5
46F1
  8
245
  6
CENTER2
 10
273.99999999999852
 20
19.200000000000038
 30
0.0
 11
273.99999999999852
 21
-19.199999999999928
 31
0.0
  0
LINE
  5
46F2
  8
240
  6
CONTINUOUS
 10
273.58116882707282
 20
15.994517199609049
 30
0.0
 11
113.3065118148462
 21
11.797577601559849
 31
0.0
  0
ARC
  5
46F3
  8
240
  6
CONTINUOUS
 10
110.6888169840597
 20
111.7633100991156
 30
0.0
 40
100.0
 50
261.9999999999992
 51
271.49999999999949
1001
ASK_MEN_XD
1005
46F6
1070
     1
1005
46F2
1070
     1
  0
LINE
  5
46F4
  8
240
  6
CONTINUOUS
 10
273.5811688270727
 20
-15.99451719960893
 30
0.0
 11
113.3065118148461
 21
-11.797577601559791
 31
0.0
  0
CIRCLE
  5
46F5
  8
241
  6
CONTINUOUS
 10
273.99999999999852
 20
0.0
 30
0.0
 40
10.0
  0
LINE
  5
46F6
  8
240
  6
CONTINUOUS
 10
96.771506888051647
 20
12.736503224958771
 30
0.0
 11
45.008117355015543
 21
20.01137319695755
 31
0.0
  0
ARC
  5
46F7
  8
240
  6
CONTINUOUS
 10
110.6888169840597
 20
-111.7633100991155
 30
0.0
 40
100.0
 50
88.500000000000526
 51
98.000000000000895
1001
ASK_MEN_XD
1005
46F6
1070
     1
1005
46F2
1070
     1
  0
LINE
  5
46F8
  8
240
  6
CONTINUOUS
 10
96.771506888051647
 20
-12.73650322495871
 30
0.0
 11
45.008117355015649
 21
-20.011373196957489
 31
0.0
  0
ARC
  5
46F9
  8
241
  6
CONTINUOUS
 10
-0.0000000000014779
 20
0.0
 30
0.0
 40
41.0
 50
344.1621011351632
 51
15.8378988648368
  0
ARC
  5
46FA
  8
241
  6
CONTINUOUS
 10
41.848639104270433
 20
11.87187454113308
 30
0.0
 40
2.5
 50
81.999999999999119
 51
195.8378988648368
1001
ASK_MEN_XD
1005
46F9
1070
     1
1005
46FC
1070
     1
  0
ARC
  5
46FB
  8
241
  6
CONTINUOUS
 10
41.848639104270433
 20
-11.87187454113308
 30
0.0
 40
2.5
 50
164.1621011351632
 51
278.00000000000091
1001
ASK_MEN_XD
1005
46FD
1070
     1
1005
46F9
1070
     1
  0
LINE
  5
46FC
  8
241
  6
CONTINUOUS
 10
42.196571856670623
 20
14.34754471298703
 30
0.0
 11
89.69696879818423
 21
7.6717992781309468
 31
0.0
  0
LINE
  5
46FD
  8
241
  6
CONTINUOUS
 10
42.196571856670623
 20
-14.34754471298697
 30
0.0
 11
89.69696879818423
 21
-7.6717992781309468
 31
0.0
  0
ARC
  5
4888
  8
241
  6
CONTINUOUS
 10
-0.0000000000004547
 20
0.0
 30
0.0
 40
92.0
 50
356.67168970506111
 51
3.3283102949388712
  0
ARC
  5
4889
  8
241
  6
CONTINUOUS
 10
89.349036045784032
 20
5.1961291062771693
 30
0.0
 40
2.5
 50
3.3283102949388712
 51
81.999999999999119
1001
ASK_MEN_XD
1005
4888
1070
     1
1005
46FC
1070
     1
  0
ARC
  5
488A
  8
241
  6
CONTINUOUS
 10
89.349036045784032
 20
-5.1961291062771124
 30
0.0
 40
2.5
 50
278.00000000000091
 51
356.67168970506111
1001
ASK_MEN_XD
1005
46FD
1070
     1
1005
4888
1070
     1
  0
LINE
  5
488E
  8
241
  6
CONTINUOUS
 10
247.44500812123209
 20
9.3080609903012146
 30
0.0
 11
122.8902191156637
 21
6.046479054335804
 31
0.0
  0
LINE
  5
488F
  8
241
  6
CONTINUOUS
 10
247.44500812123209
 20
-9.3080609903010991
 30
0.0
 11
122.8902191156637
 21
-6.0464790543357481
 31
0.0
  0
ARC
  5
4890
  8
241
  6
CONTINUOUS
 10
247.68874827628539
 20
0.0000000000001137
 30
0.0
 40
9.3112517237131556
 50
268.50000000000051
 51
91.499999999999503
  0
ARC
  5
4891
  8
241
  6
CONTINUOUS
 10
123.04855174195031
 20
0.0
 30
0.0
 40
6.0485517419517398
 50
91.499999999999503
 51
268.50000000000051
  0
LINE
  5
4BC6
  8
246
  6
PHANTOM2
 10
-25.000000000000231
 20
93.750000000000057
 30
0.0
 11
-25.000000000000231
 21
74.250000000000057
 31
0.0
  0
LINE
  5
4BC7
  8
246
  6
PHANTOM2
 10
24.999999999999769
 20
93.750000000000057
 30
0.0
 11
24.999999999999769
 21
74.250000000000057
 31
0.0
  0
CIRCLE
  5
4BCF
  8
246
  6
PHANTOM2
 10
-0.0000000000002274
 20
0.0
 30
0.0
 40
25.0
  0
LINE
  5
4C90
  8
250
  6
CONTINUOUS
 10
-36.800000000001482
 20
0.5
 30
0.0
 11
-36.800000000001482
 21
56.999999999999908
 31
0.0
  0
LINE
  5
4C91
  8
250
  6
CONTINUOUS
 10
289.99999999999852
 20
0.5
 30
0.0
 11
289.99999999999852
 21
57.416033572779163
 31
0.0
  0
LINE
  5
4C92
  8
250
  6
CONTINUOUS
 10
-34.570000000001478
 20
55.999999999999901
 30
0.0
 11
287.7699999999985
 21
55.999999999999901
 31
0.0
  0
LINE
  5
4C96
  8
250
  6
CONTINUOUS
 10
-0.0000000000002274
 20
42.0
 30
0.0
 11
-0.0000000000002273
 21
50.0
 31
0.0
  0
LINE
  5
4C97
  8
250
  6
CONTINUOUS
 10
289.99999999999852
 20
0.5
 30
0.0
 11
289.99999999999852
 21
43.0
 31
0.0
  0
LINE
  5
4C98
  8
250
  6
CONTINUOUS
 10
2.2299999999997722
 20
49.0
 30
0.0
 11
287.7699999999985
 21
49.0
 31
0.0
  0
LINE
  5
4C9C
  8
250
  6
CONTINUOUS
 10
-36.800000000001482
 20
0.5
 30
0.0
 11
-36.800000000001482
 21
50.0
 31
0.0
  0
LINE
  5
4C9D
  8
250
  6
CONTINUOUS
 10
-0.0000000000002273
 20
49.154477470033271
 30
0.0
 11
-0.0000000000002273
 21
50.0
 31
0.0
  0
LINE
  5
4C9E
  8
250
  6
CONTINUOUS
 10
-34.570000000001478
 20
49.0
 30
0.0
 11
-2.2300000000002269
 21
49.0
 31
0.0
  0
LINE
  5
4CA2
  8
250
  6
CONTINUOUS
 10
-25.000000000000231
 20
94.250000000000057
 30
0.0
 11
-25.000000000000231
 21
106.0074749083911
 31
0.0
  0
LINE
  5
4CA3
  8
250
  6
CONTINUOUS
 10
24.999999999999769
 20
94.250000000000057
 30
0.0
 11
24.999999999999769
 21
106.0074749083911
 31
0.0
  0
LINE
  5
4CA4
  8
250
  6
CONTINUOUS
 10
-22.770000000000231
 20
105.0074749083911
 30
0.0
 11
22.769999999999769
 21
105.0074749083911
 31
0.0
  0
TEXT
  5
4CA8
  8
250
  6
CONTINUOUS
 10
120.5999999999985
 20
56.999999999999901
 30
0.0
 40
2.7999999999999989
  1
326.8
  0
LINE
  5
4CA9
  8
250
  6
CONTINUOUS
 10
287.7699999999985
 20
56.371666666666577
 30
0.0
 11
289.99999999999852
 21
55.999999999999901
 31
0.0
  0
LINE
  5
4CAA
  8
250
  6
CONTINUOUS
 10
287.7699999999985
 20
55.628333333333231
 30
0.0
 11
289.99999999999852
 21
55.999999999999901
 31
0.0
  0
LINE
  5
4CAB
  8
250
  6
CONTINUOUS
 10
289.99999999999852
 20
55.999999999999901
 30
0.0
 11
287.7699999999985
 21
55.999999999999901
 31
0.0
  0
LINE
  5
4CAC
  8
250
  6
CONTINUOUS
 10
-34.570000000001478
 20
55.628333333333231
 30
0.0
 11
-36.800000000001482
 21
55.999999999999901
 31
0.0
  0
LINE
  5
4CAD
  8
250
  6
CONTINUOUS
 10
-34.570000000001478
 20
56.371666666666577
 30
0.0
 11
-36.800000000001482
 21
55.999999999999901
 31
0.0
  0
LINE
  5
4CAE
  8
250
  6
CONTINUOUS
 10
-36.800000000001482
 20
55.999999999999901
 30
0.0
 11
-34.570000000001478
 21
55.999999999999901
 31
0.0
  0
TEXT
  5
4CAF
  8
250
  6
CONTINUOUS
 10
140.99999999999909
 20
50.0
 30
0.0
 40
2.7999999999999989
  1
290
  0
LINE
  5
4CB0
  8
250
  6
CONTINUOUS
 10
287.7699999999985
 20
49.37166666666667
 30
0.0
 11
289.99999999999852
 21
49.0
 31
0.0
  0
LINE
  5
4CB1
  8
250
  6
CONTINUOUS
 10
287.7699999999985
 20
48.62833333333333
 30
0.0
 11
289.99999999999852
 21
49.0
 31
0.0
  0
LINE
  5
4CB2
  8
250
  6
CONTINUOUS
 10
289.99999999999852
 20
49.0
 30
0.0
 11
287.7699999999985
 21
49.0
 31
0.0
  0
LINE
  5
4CB3
  8
250
  6
CONTINUOUS
 10
2.2299999999997722
 20
48.62833333333333
 30
0.0
 11
-0.0000000000002274
 21
49.0
 31
0.0
  0
LINE
  5
4CB4
  8
250
  6
CONTINUOUS
 10
2.2299999999997722
 20
49.37166666666667
 30
0.0
 11
-0.0000000000002274
 21
49.0
 31
0.0
  0
LINE
  5
4CB5
  8
250
  6
CONTINUOUS
 10
-0.0000000000002274
 20
49.0
 30
0.0
 11
2.2299999999997722
 21
49.0
 31
0.0
  0
TEXT
  5
4CB6
  8
250
  6
CONTINUOUS
 10
-23.066666666667508
 20
50.0
 30
0.0
 40
2.7999999999999989
  1
36.8
  0
LINE
  5
4CB7
  8
250
  6
CONTINUOUS
 10
-2.2300000000002269
 20
49.37166666666667
 30
0.0
 11
-0.0000000000002274
 21
49.0
 31
0.0
  0
LINE
  5
4CB8
  8
250
  6
CONTINUOUS
 10
-2.2300000000002269
 20
48.62833333333333
 30
0.0
 11
-0.0000000000002274
 21
49.0
 31
0.0
  0
LINE
  5
4CB9
  8
250
  6
CONTINUOUS
 10
-0.0000000000002274
 20
49.0
 30
0.0
 11
-2.2300000000002269
 21
49.0
 31
0.0
  0
LINE
  5
4CBA
  8
250
  6
CONTINUOUS
 10
-34.570000000001478
 20
48.62833333333333
 30
0.0
 11
-36.800000000001482
 21
49.0
 31
0.0
  0
LINE
  5
4CBB
  8
250
  6
CONTINUOUS
 10
-34.570000000001478
 20
49.37166666666667
 30
0.0
 11
-36.800000000001482
 21
49.0
 31
0.0
  0
LINE
  5
4CBC
  8
250
  6
CONTINUOUS
 10
-36.800000000001482
 20
49.0
 30
0.0
 11
-34.570000000001478
 21
49.0
 31
0.0
  0
TEXT
  5
4CBD
  8
250
  6
CONTINUOUS
 10
-3.9333333333335601
 20
106.0074749083911
 30
0.0
 40
2.7999999999999989
  1
\U+220550
  0
LINE
  5
4CBE
  8
250
  6
CONTINUOUS
 10
22.769999999999769
 20
105.3791415750577
 30
0.0
 11
24.999999999999769
 21
105.0074749083911
 31
0.0
  0
LINE
  5
4CBF
  8
250
  6
CONTINUOUS
 10
22.769999999999769
 20
104.6358082417244
 30
0.0
 11
24.999999999999769
 21
105.0074749083911
 31
0.0
  0
LINE
  5
4CC0
  8
250
  6
CONTINUOUS
 10
24.999999999999769
 20
105.0074749083911
 30
0.0
 11
22.769999999999769
 21
105.0074749083911
 31
0.0
  0
LINE
  5
4CC1
  8
250
  6
CONTINUOUS
 10
-22.770000000000231
 20
104.6358082417244
 30
0.0
 11
-25.000000000000231
 21
105.0074749083911
 31
0.0
  0
LINE
  5
4CC2
  8
250
  6
CONTINUOUS
 10
-22.770000000000231
 20
105.3791415750577
 30
0.0
 11
-25.000000000000231
 21
105.0074749083911
 31
0.0
  0
LINE
  5
4CC3
  8
250
  6
CONTINUOUS
 10
-25.000000000000231
 20
105.0074749083911
 30
0.0
 11
-22.770000000000231
 21
105.0074749083911
 31
0.0
  0
TEXT
  5
4D14
  8
241
  6
CONTINUOUS
 10
-35.0
 20
119.0
 30
0.0
 40
4.0
  1
MGR50L
  7
YOKO
  0
VIEWPORT
  5
22
 67
     1
  8
0
 10
261.51769911504419
 20
148.5
 30
0.0
 40
523.0353982300885
 41
297.0
 68
     1
 69
     1
1001
ACAD
1000
MVIEW
1002
{
1070
    16
1010
0.0
1020
0.0
1030
0.0
1010
0.0
1020
0.0
1030
1.0
1040
0.0
1040
297.0
1040
261.51769911504419
1040
148.5
1040
50.0
1040
0.0
1040
0.0
1070
     0
1070
   100
1070
     1
1070
     1
1070
     0
1070
     0
1070
     0
1070
     0
1040
0.0
1040
0.0
1040
0.0
1040
1.0
1040
1.0
1040
10.0
1040
10.0
1070
     0
1002
{
1002
}
1002
}
1001
GENIUS_GENODEF_13
1002
{
1000
HIER
1070
     0
1002
}
1002
{
1000
MANEDIT
1070
     0
1002
}
1002
{
1000
NOSEL
1070
     0
1002
}
1002
{
1000
BEHIND
1070
     0
1002
}
1002
{
1000
OTHER
1070
     0
1002
}
1002
{
1000
REACTOR
1002
}
1001
GENIUS_GENOBJ-N-SDF_13
1002
{
1000
OWNER
1000
GEN
1002
}
1001
GENIUS_GENSCREG_15
1000
PF
1040
1.0
1000
DF
1040
1.0
1000
MIN
1011
0.0
1021
0.0
1031
0.0
1021
0.0
1031
0.0
1000
MAX
1011
523.0353982300885
1021
0.0
1031
0.0
1021
297.0
1031
0.0
1000
FLAGS
1070
     4
  0
ENDSEC
  0
EOF
