  0
SECTION
  2
HEADER
  9
$ACADVER
  1
AC1009
  9
$INSBASE
 10
0.0
 20
0.0
 30
0.0
  9
$EXTMIN
 10
-36.890114065038063
 20
-33.406678938918397
 30
0.0
  9
$EXTMAX
 10
279.75929976977881
 20
123.0
 30
0.0
  9
$LIMMIN
 10
0.0
 20
0.0
  9
$LIMMAX
 10
297.0
 20
210.0
  9
$ORTHOMODE
 70
     0
  9
$REGENMODE
 70
     1
  9
$FILLMODE
 70
     1
  9
$QTEXTMODE
 70
     0
  9
$MIRRTEXT
 70
     1
  9
$DRAGMODE
 70
     2
  9
$LTSCALE
 40
10.0
  9
$OSMODE
 70
    37
  9
$ATTMODE
 70
     1
  9
$TEXTSIZE
 40
4.0
  9
$TRACEWID
 40
1.0
  9
$TEXTSTYLE
  7
YOKO
  9
$CLAYER
  8
240
  9
$CELTYPE
  6
BYLAYER
  9
$CECOLOR
 62
   256
  9
$DIMSCALE
 40
1.0
  9
$DIMASZ
 40
2.2299999999999991
  9
$DIMEXO
 40
0.5
  9
$DIMDLI
 40
7.0
  9
$DIMRND
 40
0.0
  9
$DIMDLE
 40
0.0
  9
$DIMEXE
 40
1.0
  9
$DIMTP
 40
0.0
  9
$DIMTM
 40
0.01
  9
$DIMTXT
 40
2.7999999999999989
  9
$DIMCEN
 40
0.0
  9
$DIMTSZ
 40
0.0
  9
$DIMTOL
 70
     0
  9
$DIMLIM
 70
     0
  9
$DIMTIH
 70
     0
  9
$DIMTOH
 70
     0
  9
$DIMSE1
 70
     0
  9
$DIMSE2
 70
     0
  9
$DIMTAD
 70
     3
  9
$DIMZIN
 70
     9
  9
$DIMBLK
  1
OPEN
  9
$DIMASO
 70
     1
  9
$DIMSHO
 70
     1
  9
$DIMPOST
  1

  9
$DIMAPOST
  1

  9
$DIMALT
 70
     0
  9
$DIMALTD
 70
     2
  9
$DIMALTF
 40
25.399999999999999
  9
$DIMLFAC
 40
1.0
  9
$DIMTOFL
 70
     1
  9
$DIMTVP
 40
0.0
  9
$DIMTIX
 70
     1
  9
$DIMSOXD
 70
     0
  9
$DIMSAH
 70
     0
  9
$DIMBLK1
  1

  9
$DIMBLK2
  1

  9
$DIMSTYLE
  2
BIGT
  9
$DIMCLRD
 70
   256
  9
$DIMCLRE
 70
   256
  9
$DIMCLRT
 70
    40
  9
$DIMTFAC
 40
1.0
  9
$DIMGAP
 40
1.0
  9
$LUNITS
 70
     2
  9
$LUPREC
 70
     6
  9
$SKETCHINC
 40
1.0
  9
$FILLETRAD
 40
0.0
  9
$AUNITS
 70
     0
  9
$AUPREC
 70
     6
  9
$MENU
  1
.
  9
$ELEVATION
 40
0.0
  9
$PELEVATION
 40
0.0
  9
$THICKNESS
 40
0.0
  9
$LIMCHECK
 70
     0
  9
$BLIPMODE
 70
     0
  9
$CHAMFERA
 40
0.2
  9
$CHAMFERB
 40
0.2
  9
$SKPOLY
 70
     0
  9
$TDCREATE
 40
2459495.4200501619
  9
$TDUPDATE
 40
2459495.4280450232
  9
$TDINDWG
 40
0.0078574769
  9
$TDUSRTIMER
 40
0.0078574421
  9
$USRTIMER
 70
     1
  9
$ANGBASE
 50
0.0
  9
$ANGDIR
 70
     0
  9
$PDMODE
 70
     1
  9
$PDSIZE
 40
0.0
  9
$PLINEWID
 40
0.0
  9
$COORDS
 70
     1
  9
$SPLFRAME
 70
     0
  9
$SPLINETYPE
 70
     6
  9
$SPLINESEGS
 70
     4
  9
$ATTDIA
 70
     1
  9
$ATTREQ
 70
     1
  9
$HANDLING
 70
     1
  9
$HANDSEED
  5
4BB3
  9
$SURFTAB1
 70
     6
  9
$SURFTAB2
 70
     6
  9
$SURFTYPE
 70
     6
  9
$SURFU
 70
     6
  9
$SURFV
 70
     6
  9
$UCSNAME
  2

  9
$UCSORG
 10
0.0
 20
0.0
 30
0.0
  9
$UCSXDIR
 10
1.0
 20
0.0
 30
0.0
  9
$UCSYDIR
 10
0.0
 20
1.0
 30
0.0
  9
$PUCSNAME
  2

  9
$PUCSORG
 10
0.0
 20
0.0
 30
0.0
  9
$PUCSXDIR
 10
1.0
 20
0.0
 30
0.0
  9
$PUCSYDIR
 10
0.0
 20
1.0
 30
0.0
  9
$USERI1
 70
     1
  9
$USERI2
 70
     0
  9
$USERI3
 70
     0
  9
$USERI4
 70
     0
  9
$USERI5
 70
     0
  9
$USERR1
 40
0.0
  9
$USERR2
 40
0.0
  9
$USERR3
 40
0.0
  9
$USERR4
 40
0.0
  9
$USERR5
 40
0.0
  9
$WORLDVIEW
 70
     1
  9
$SHADEDGE
 70
     3
  9
$SHADEDIF
 70
    70
  9
$TILEMODE
 70
     1
  9
$MAXACTVP
 70
    16
  9
$PLIMCHECK
 70
     0
  9
$PEXTMIN
 10
1.0000000000000000E+020
 20
1.0000000000000000E+020
 30
1.0000000000000000E+020
  9
$PEXTMAX
 10
-1.0000000000000000E+020
 20
-1.0000000000000000E+020
 30
-1.0000000000000000E+020
  9
$PLIMMIN
 10
0.0
 20
0.0
  9
$PLIMMAX
 10
420.0
 20
297.0
  9
$UNITMODE
 70
     0
  9
$VISRETAIN
 70
     1
  9
$PLINEGEN
 70
     0
  9
$PSLTSCALE
 70
     1
  0
ENDSEC
  0
SECTION
  2
TABLES
  0
TABLE
  2
VPORT
 70
     1
  0
VPORT
  2
*ACTIVE
 70
     0
 10
0.0
 20
0.0
 11
1.0
 21
1.0
 12
133.00015046278011
 22
46.742955957391608
 13
0.0
 23
0.0
 14
7.0
 24
7.0
 15
7.0
 25
7.0
 16
0.0
 26
0.0
 36
1.0
 17
0.0
 27
0.0
 37
0.0
 40
258.50544175929741
 41
1.7200474495848159
 42
50.0
 43
0.0
 44
0.0
 50
0.0
 51
0.0
 71
     0
 72
  2000
 73
     1
 74
     0
 75
     1
 76
     1
 77
     0
 78
     0
  0
ENDTAB
  0
TABLE
  2
LTYPE
 70
    13
  0
LTYPE
  2
CONTINUOUS
 70
     0
  3
Solid line
 72
    65
 73
     0
 40
0.0
  0
LTYPE
  2
CENTER2
 70
     0
  3
___ _ ___ _ ___ _ ___ _ ___ _ ___ _ ___ _ ___ _
 72
    65
 73
     4
 40
1.125
 49
0.75
 49
-0.125
 49
0.125
 49
-0.125
  0
LTYPE
  2
HIDDEN2
 70
     0
  3
_ _ _ _ _ _ _ _ _ _ _ _ _ _ _ _ _ _ _ _ _ _ _ _
 72
    65
 73
     2
 40
0.1875
 49
0.125
 49
-0.0625
  0
LTYPE
  2
PHANTOM2
 70
     0
  3
___ _ _ ___ _ _ ___ _ _ ___ _ _ ___ _ _ ___ _ _
 72
    65
 73
     6
 40
1.25
 49
0.625
 49
-0.125
 49
0.125
 49
-0.125
 49
0.125
 49
-0.125
  0
LTYPE
  2
AM_ISO02W050
 70
     0
  3
__ __ __ __ __ __ __ __ __ __ __ __ __ __ __
 72
    65
 73
     2
 40
7.5
 49
6.0
 49
-1.5
  0
LTYPE
  2
AMCONSTR
 70
     0
  3
_______________________
 72
    65
 73
     2
 40
9999.0
 49
9999.0
 49
0.0
  0
LTYPE
  2
ACISOWELD
 70
     0
  3
_ _ _ _ _
 72
    65
 73
     2
 40
2.0
 49
2.0
 49
-1.0
  0
LTYPE
  2
ACISOTGB
 70
     0
  3
__ . . __ . .
 72
    65
 73
     6
 40
9.0
 49
4.0
 49
-1.0
 49
1.0
 49
-1.0
 49
1.0
 49
-1.0
  0
LTYPE
  2
ACISOTGL
 70
     0
  3
_ _ _ _ _
 72
    65
 73
     2
 40
3.0
 49
2.0
 49
-1.0
  0
LTYPE
  2
ACJISTGB
 70
     0
  3
__ . . __ . .
 72
    65
 73
     6
 40
9.0
 49
4.0
 49
-1.0
 49
1.0
 49
-1.0
 49
1.0
 49
-1.0
  0
LTYPE
  2
ACJISTGL
 70
     0
  3
_ _ _ _ _
 72
    65
 73
     2
 40
3.0
 49
2.0
 49
-1.0
  0
ENDTAB
  0
TABLE
  2
LAYER
 70
     7
  0
LAYER
  2
0
 70
     0
 62
     7
  6
CONTINUOUS
  0
LAYER
  2
DEFPOINTS
 70
     0
 62
     7
  6
CONTINUOUS
  0
LAYER
  2
245
 70
     0
 62
     2
  6
CENTER2
  0
LAYER
  2
240
 70
     0
 62
     4
  6
CONTINUOUS
  0
LAYER
  2
241
 70
     0
 62
   211
  6
CONTINUOUS
  0
LAYER
  2
246
 70
     0
 62
     3
  6
PHANTOM2
  0
LAYER
  2
250
 70
     0
 62
     3
  6
CONTINUOUS
  0
ENDTAB
  0
TABLE
  2
STYLE
 70
     6
  0
STYLE
  2
STANDARD
 70
     0
 40
0.0
 41
1.0
 50
0.0
 71
     0
 42
3.0
  3
romans.shx
  4
extfont.shx
  0
STYLE
  2
ACISOTS
 70
     0
 40
1.0
 41
1.0
 50
0.0
 71
     0
 42
3.0
  3
amgdt.shx
  4
extfont.shx
  0
STYLE
  2
ACISOGDT
 70
     0
 40
0.0
 41
1.0
 50
0.0
 71
     0
 42
3.0
  3
amgdt.shx
  4
extfont.shx
  0
STYLE
  2
ACJISTS
 70
     0
 40
1.0
 41
1.0
 50
0.0
 71
     0
 42
3.0
  3
amgdt.shx
  4
extfont.shx
  0
STYLE
  2
ACJISGDT
 70
     0
 40
0.0
 41
1.0
 50
0.0
 71
     0
 42
3.0
  3
amgdt.shx
  4
extfont.shx
  0
STYLE
  2
YOKO
 70
     0
 40
0.0
 41
1.0
 50
0.0
 71
     0
 42
4.0
  3
romans.shx
  4
extfont.shx
  0
ENDTAB
  0
TABLE
  2
VIEW
 70
     0
  0
ENDTAB
  0
TABLE
  2
UCS
 70
     0
  0
ENDTAB
  0
TABLE
  2
APPID
 70
    38
  0
APPID
  2
ACAD
 70
     0
  0
APPID
  2
GLOBAL
 70
     0
  0
APPID
  2
DETAIL
 70
     0
  0
APPID
  2
GRPNAME
 70
     0
  0
APPID
  2
GPARA
 70
     0
  0
APPID
  2
MCAD_NO_VIS
 70
     0
  0
APPID
  2
ACAD_TEMP_GRAPHIC
 70
     0
  0
APPID
  2
ACATTRIBSERVICES
 70
     0
  0
APPID
  2
GENIUS_GENSCREG_15
 70
     0
  0
APPID
  2
GENIUS_GENODEF_13
 70
     0
  0
APPID
  2
GENIUS_GENOBJ-N-SDF_13
 70
     0
  0
APPID
  2
GENIUS_GENREC_14
 70
     0
  0
APPID
  2
GENIUS_GENOBJ-N-REC_13
 70
     0
  0
APPID
  2
GENIUS_GENDIMSH_14
 70
     0
  0
APPID
  2
GENIUS_GENOBJ-N-DIM_13
 70
     0
  0
APPID
  2
GENIUS_GENDIM_13
 70
     0
  0
APPID
  2
GENIUS_GENDTOL_13
 70
     0
  0
APPID
  2
GENIUS_GENOLIS_13
 70
     0
  0
APPID
  2
GENIUS_GENOENT_13
 70
     0
  0
APPID
  2
GENIUS_GENOBJ-F-FEM_13
 70
     0
  0
APPID
  2
GENIUS_GENOREF_13
 70
     0
  0
APPID
  2
GENIUS_GEFFEM_13
 70
     0
  0
APPID
  2
GENIUS_GEFFEMP_13
 70
     0
  0
APPID
  2
AD_DRAW
 70
     0
  0
APPID
  2
DESIGNERASSEMBLIES
 70
     0
  0
APPID
  2
ACADM_DIM_EDIT
 70
     0
  0
APPID
  2
AMDT_DM_ADJ
 70
     0
  0
APPID
  2
ITEMNAME
 70
     0
  0
APPID
  2
GENIUS_GENOBJ-N-FIL_13
 70
     0
  0
APPID
  2
GENIUS_GENFIL_13
 70
     0
  0
APPID
  2
GENIUS_GENOBJ-N-CHA_13
 70
     0
  0
APPID
  2
ACAD_NAV_VCDISPLAY
 70
     0
  0
APPID
  2
ACAECLAYERSTANDARD
 70
     0
  0
APPID
  2
LAYER_SCALE
 70
     0
  0
APPID
  2
ASK_MEN_XD
 70
     0
  0
APPID
  2
ACAD_EXEMPT_FROM_CAD_STANDARDS
 70
     0
  0
APPID
  2
ACAD_DSTYLE_DIMINSPECT
 70
     0
  0
APPID
  2
ACAD_MLEADERVER
 70
     0
  0
ENDTAB
  0
TABLE
  2
DIMSTYLE
 70
    24
  0
DIMSTYLE
  2
BIGT
 70
     0
  3

  4

  5
OPEN
  6

  7

 40
1.0
 41
2.2299999999999991
 42
0.5
 43
7.0
 44
1.0
 45
0.0
 46
0.0
 47
0.0
 48
0.01
140
2.7999999999999989
141
0.0
142
0.0
143
25.399999999999999
144
1.0
145
0.0
146
1.0
147
1.0
 71
     0
 72
     0
 73
     0
 74
     0
 75
     0
 76
     0
 77
     3
 78
     9
170
     0
171
     2
172
     1
173
     0
174
     1
175
     0
176
   256
177
   256
178
    40
  0
DIMSTYLE
  2
AM_ISO
 70
     0
  3

  4
"
  5

  6

  7

 40
1.0
 41
2.5
 42
1.0
 43
10.0
 44
1.0
 45
0.0
 46
0.0
 47
0.1
 48
0.1
140
3.5
141
0.0
142
0.0
143
0.0393701
144
1.0
145
0.0
146
0.71
147
1.5
 71
     0
 72
     0
 73
     0
 74
     0
 75
     0
 76
     0
 77
     1
 78
     8
170
     0
171
     2
172
     1
173
     0
174
     0
175
     0
176
   256
177
   256
178
     2
  0
DIMSTYLE
  2
AM_ISO$3
 70
     0
  3

  4
"
  5

  6

  7

 40
1.0
 41
2.5
 42
1.0
 43
10.0
 44
1.0
 45
0.0
 46
0.0
 47
0.1
 48
0.1
140
3.5
141
0.0
142
0.0
143
0.0393701
144
1.0
145
0.0
146
0.71
147
1.5
 71
     0
 72
     0
 73
     0
 74
     1
 75
     0
 76
     0
 77
     1
 78
     8
170
     0
171
     2
172
     0
173
     0
174
     0
175
     0
176
   256
177
   256
178
     2
  0
DIMSTYLE
  2
AM_ISO$4
 70
     0
  3

  4
"
  5

  6

  7

 40
1.0
 41
2.5
 42
1.0
 43
10.0
 44
1.0
 45
0.0
 46
0.0
 47
0.1
 48
0.1
140
3.5
141
0.0
142
0.0
143
0.0393701
144
1.0
145
0.0
146
0.71
147
1.5
 71
     0
 72
     0
 73
     0
 74
     1
 75
     0
 76
     0
 77
     1
 78
     8
170
     0
171
     2
172
     0
173
     0
174
     0
175
     0
176
   256
177
   256
178
     2
  0
DIMSTYLE
  2
AM_ISO$6
 70
     0
  3

  4
"
  5

  6

  7

 40
1.0
 41
2.5
 42
1.0
 43
10.0
 44
1.0
 45
0.0
 46
0.0
 47
0.1
 48
0.1
140
3.5
141
0.0
142
0.0
143
0.0393701
144
1.0
145
0.0
146
0.71
147
1.5
 71
     0
 72
     0
 73
     0
 74
     0
 75
     0
 76
     0
 77
     0
 78
     8
170
     0
171
     2
172
     1
173
     0
174
     0
175
     0
176
   256
177
   256
178
     2
  0
DIMSTYLE
  2
AM_ISO$7
 70
     0
  3

  4
"
  5

  6

  7

 40
1.0
 41
2.5
 42
1.0
 43
10.0
 44
1.0
 45
0.0
 46
0.0
 47
0.1
 48
0.1
140
5.0
141
0.0
142
0.0
143
0.0393701
144
1.0
145
0.0
146
0.71
147
1.5
 71
     0
 72
     0
 73
     0
 74
     0
 75
     0
 76
     0
 77
     1
 78
     8
170
     0
171
     2
172
     1
173
     0
174
     0
175
     0
176
   256
177
   256
178
     2
  0
DIMSTYLE
  2
AM_ISO$SF
 70
     0
  3

  4
"
  5

  6

  7

 40
1.0
 41
2.5
 42
1.0
 43
10.0
 44
1.0
 45
0.0
 46
0.0
 47
0.1
 48
0.1
140
3.5
141
0.0
142
0.0
143
0.0393701
144
1.0
145
0.0
146
0.71
147
1.5
 71
     0
 72
     0
 73
     0
 74
     0
 75
     1
 76
     1
 77
     1
 78
     8
170
     0
171
     2
172
     1
173
     0
174
     0
175
     0
176
   256
177
   256
178
     2
  0
DIMSTYLE
  2
AM_ISO$SH
 70
     0
  3

  4
"
  5

  6
GENAXEH
  7

 40
1.0
 41
2.5
 42
1.0
 43
10.0
 44
1.0
 45
0.0
 46
0.0
 47
0.1
 48
0.1
140
3.5
141
0.0
142
0.0
143
0.0393701
144
2.0
145
0.0
146
0.71
147
1.5
 71
     0
 72
     0
 73
     0
 74
     0
 75
     1
 76
     1
 77
     1
 78
     8
170
     0
171
     2
172
     1
173
     1
174
     0
175
     0
176
   256
177
   256
178
     2
  0
DIMSTYLE
  2
BIGT$2
 70
     0
  3

  4

  5
OPEN
  6

  7

 40
1.0
 41
2.2299999999999991
 42
0.5
 43
7.0
 44
1.0
 45
0.0
 46
0.0
 47
0.0
 48
0.01
140
2.7999999999999989
141
0.0
142
0.0
143
25.399999999999999
144
1.0
145
0.0
146
1.0
147
1.0
 71
     0
 72
     0
 73
     0
 74
     0
 75
     0
 76
     0
 77
     3
 78
     9
170
     0
171
     2
172
     1
173
     0
174
     0
175
     0
176
   256
177
   256
178
    40
  0
DIMSTYLE
  2
BIGT$3
 70
     0
  3

  4

  5
OPEN
  6

  7

 40
1.0
 41
2.2299999999999991
 42
0.5
 43
2.5
 44
1.0
 45
0.0
 46
0.0
 47
0.0
 48
0.01
140
2.7999999999999989
141
0.0
142
0.0
143
25.399999999999999
144
1.0
145
0.0
146
1.0
147
1.0
 71
     0
 72
     0
 73
     0
 74
     0
 75
     0
 76
     0
 77
     3
 78
     9
170
     0
171
     2
172
     1
173
     0
174
     0
175
     0
176
   256
177
   256
178
    40
  0
DIMSTYLE
  2
BIGT$7
 70
     0
  3

  4

  5
OPEN
  6

  7

 40
0.0
 41
2.2299999999999991
 42
0.5
 43
7.0
 44
1.0
 45
0.0
 46
0.0
 47
0.0
 48
0.01
140
2.7999999999999989
141
0.0
142
0.0
143
25.399999999999999
144
1.0
145
0.0
146
1.0
147
1.0
 71
     0
 72
     0
 73
     0
 74
     0
 75
     0
 76
     0
 77
     3
 78
     9
170
     0
171
     2
172
     0
173
     0
174
     0
175
     0
176
   256
177
   256
178
    40
  0
DIMSTYLE
  2
BIGT$6
 70
     0
  3

  4

  5
OPEN
  6

  7

 40
1.0
 41
2.2299999999999991
 42
0.5
 43
2.5
 44
1.0
 45
0.0
 46
0.0
 47
0.0
 48
0.01
140
2.7999999999999989
141
0.0
142
0.0
143
25.399999999999999
144
1.0
145
0.0
146
1.0
147
1.0
 71
     0
 72
     0
 73
     0
 74
     0
 75
     0
 76
     0
 77
     3
 78
     9
170
     0
171
     2
172
     1
173
     0
174
     0
175
     0
176
   256
177
   256
178
    40
  0
DIMSTYLE
  2
BIGT$0
 70
     0
  3

  4

  5
OPEN
  6

  7

 40
1.0
 41
2.2299999999999991
 42
0.5
 43
7.0
 44
1.0
 45
0.0
 46
0.0
 47
0.0
 48
0.01
140
2.7999999999999989
141
0.0
142
0.0
143
25.399999999999999
144
1.0
145
0.0
146
1.0
147
1.0
 71
     0
 72
     0
 73
     0
 74
     0
 75
     0
 76
     0
 77
     3
 78
     9
170
     0
171
     2
172
     1
173
     0
174
     1
175
     0
176
   256
177
   256
178
    40
  0
DIMSTYLE
  2
BIGT$4
 70
     0
  3

  4

  5
OPEN
  6

  7

 40
1.0
 41
2.2299999999999991
 42
0.5
 43
2.5
 44
1.0
 45
0.0
 46
0.0
 47
0.0
 48
0.01
140
2.7999999999999989
141
0.0
142
0.0
143
25.399999999999999
144
1.0
145
0.0
146
1.0
147
1.0
 71
     0
 72
     0
 73
     0
 74
     0
 75
     0
 76
     0
 77
     3
 78
     9
170
     0
171
     2
172
     1
173
     0
174
     0
175
     0
176
   256
177
   256
178
    40
  0
DIMSTYLE
  2
BIGT$SH
 70
     0
  3

  4

  5
OPEN
  6

  7

 40
1.0
 41
2.2299999999999991
 42
0.5
 43
7.0
 44
1.0
 45
0.0
 46
0.0
 47
0.0
 48
0.0
140
2.7999999999999989
141
0.0
142
0.0
143
25.399999999999999
144
1.0
145
0.0
146
1.0
147
1.0
 71
     0
 72
     0
 73
     0
 74
     0
 75
     0
 76
     0
 77
     3
 78
     9
170
     0
171
     2
172
     1
173
     0
174
     0
175
     0
176
   256
177
   256
178
    40
  0
DIMSTYLE
  2
BIGT$SF
 70
     0
  3

  4

  5
OPEN
  6

  7

 40
1.0
 41
2.2299999999999991
 42
0.5
 43
7.0
 44
1.0
 45
0.0
 46
0.0
 47
0.0
 48
0.0
140
2.7999999999999989
141
0.0
142
0.0
143
25.399999999999999
144
1.0
145
0.0
146
1.0
147
1.0
 71
     0
 72
     0
 73
     0
 74
     0
 75
     0
 76
     0
 77
     3
 78
     9
170
     0
171
     2
172
     1
173
     0
174
     0
175
     0
176
   256
177
   256
178
    40
  0
DIMSTYLE
  2
TECHNICAL_OSAKA
 70
     0
  3

  4
"
  5
OPEN30
  6

  7

 40
1.0
 41
2.5
 42
1.0
 43
10.0
 44
1.0
 45
0.0
 46
0.0
 47
0.1
 48
0.1
140
2.7999999999999989
141
0.0
142
0.0
143
0.0393701
144
1.0
145
0.0
146
0.71
147
1.5
 71
     0
 72
     0
 73
     0
 74
     0
 75
     0
 76
     0
 77
     3
 78
     8
170
     0
171
     2
172
     1
173
     0
174
     0
175
     0
176
   256
177
   256
178
    40
  0
DIMSTYLE
  2
TECHNICAL_OSAKA$3
 70
     0
  3

  4
"
  5
OPEN30
  6

  7

 40
1.0
 41
2.5
 42
1.0
 43
10.0
 44
1.0
 45
0.0
 46
0.0
 47
0.1
 48
0.1
140
2.7999999999999989
141
0.0
142
0.0
143
0.0393701
144
1.0
145
0.0
146
0.71
147
1.5
 71
     0
 72
     0
 73
     0
 74
     1
 75
     0
 76
     0
 77
     3
 78
     8
170
     0
171
     2
172
     0
173
     0
174
     0
175
     0
176
   256
177
   256
178
    40
  0
DIMSTYLE
  2
TECHNICAL_OSAKA$4
 70
     0
  3

  4
"
  5
OPEN30
  6

  7

 40
1.0
 41
2.5
 42
1.0
 43
10.0
 44
1.0
 45
0.0
 46
0.0
 47
0.1
 48
0.1
140
2.7999999999999989
141
0.0
142
0.0
143
0.0393701
144
1.0
145
0.0
146
0.71
147
1.5
 71
     0
 72
     0
 73
     0
 74
     1
 75
     0
 76
     0
 77
     3
 78
     8
170
     0
171
     2
172
     0
173
     0
174
     0
175
     0
176
   256
177
   256
178
    40
  0
DIMSTYLE
  2
TECHNICAL_OSAKA$6
 70
     0
  3

  4
"
  5
OPEN30
  6

  7

 40
1.0
 41
2.5
 42
1.0
 43
10.0
 44
1.0
 45
0.0
 46
0.0
 47
0.1
 48
0.1
140
2.7999999999999989
141
0.0
142
0.0
143
0.0393701
144
1.0
145
0.0
146
0.71
147
1.5
 71
     0
 72
     0
 73
     0
 74
     0
 75
     0
 76
     0
 77
     0
 78
     8
170
     0
171
     2
172
     1
173
     0
174
     0
175
     0
176
   256
177
   256
178
    40
  0
DIMSTYLE
  2
TECHNICAL_OSAKA$7
 70
     0
  3

  4
"
  5
OPEN30
  6

  7

 40
1.0
 41
2.5
 42
1.0
 43
10.0
 44
1.0
 45
0.0
 46
0.0
 47
0.1
 48
0.1
140
2.7999999999999989
141
0.0
142
0.0
143
0.0393701
144
1.0
145
0.0
146
0.71
147
1.5
 71
     0
 72
     0
 73
     0
 74
     0
 75
     0
 76
     0
 77
     3
 78
     8
170
     0
171
     2
172
     1
173
     0
174
     0
175
     0
176
   256
177
   256
178
    40
  0
DIMSTYLE
  2
TECHNICAL_OSAKA$SF
 70
     0
  3

  4
"
  5
OPEN30
  6
OPEN30
  7
OPEN30
 40
1.0
 41
2.5
 42
1.0
 43
10.0
 44
1.0
 45
0.0
 46
0.0
 47
0.1
 48
0.1
140
3.5
141
0.0
142
0.0
143
0.0393701
144
1.0
145
0.0
146
0.71
147
1.5
 71
     0
 72
     0
 73
     0
 74
     0
 75
     1
 76
     1
 77
     3
 78
     8
170
     0
171
     2
172
     1
173
     0
174
     0
175
     0
176
   256
177
   256
178
    40
  0
DIMSTYLE
  2
TECHNICAL_OSAKA$SH
 70
     0
  3

  4
"
  5
OPEN30
  6
GENAXEH
  7
OPEN30
 40
1.0
 41
2.5
 42
1.0
 43
10.0
 44
1.0
 45
0.0
 46
0.0
 47
0.1
 48
0.1
140
3.5
141
0.0
142
0.0
143
0.0393701
144
2.0
145
0.0
146
0.71
147
1.5
 71
     0
 72
     0
 73
     0
 74
     0
 75
     1
 76
     1
 77
     3
 78
     8
170
     0
171
     2
172
     1
173
     1
174
     0
175
     0
176
   256
177
   256
178
    40
  0
DIMSTYLE
  2
STANDARD
 70
     0
  3

  4

  5

  6

  7

 40
1.0
 41
0.18
 42
0.0625
 43
0.38
 44
0.18
 45
0.0
 46
0.0
 47
0.0
 48
0.0
140
0.18
141
0.09
142
0.0
143
25.399999999999999
144
1.0
145
0.0
146
1.0
147
0.09
 71
     0
 72
     0
 73
     1
 74
     1
 75
     0
 76
     0
 77
     0
 78
     0
170
     0
171
     2
172
     0
173
     0
174
     0
175
     0
176
     0
177
     0
178
     0
  0
ENDTAB
  0
ENDSEC
  0
SECTION
  2
BLOCKS
  0
BLOCK
  8
0
  2
$MODEL_SPACE
 70
     0
 10
0.0
 20
0.0
 30
0.0
  3
$MODEL_SPACE
  1

  0
ENDBLK
  5
1C
  8
0
  0
BLOCK
 67
     1
  8
0
  2
$PAPER_SPACE
 70
     0
 10
0.0
 20
0.0
 30
0.0
  3
$PAPER_SPACE
  1

  0
ENDBLK
  5
19
 67
     1
  8
0
  0
BLOCK
  8
0
  2
_OPEN
 70
     0
 10
0.0
 20
0.0
 30
0.0
  3
_OPEN
  1

  0
LINE
  5
4AC6
  8
0
  6
BYBLOCK
 62
     0
 10
-1.0
 20
0.1666666666666666
 30
0.0
 11
0.0
 21
0.0
 31
0.0
  0
LINE
  5
4AC7
  8
0
  6
BYBLOCK
 62
     0
 10
-1.0
 20
-0.1666666666666666
 30
0.0
 11
0.0
 21
0.0
 31
0.0
  0
LINE
  5
4AC8
  8
0
  6
BYBLOCK
 62
     0
 10
0.0
 20
0.0
 30
0.0
 11
-1.0
 21
0.0
 31
0.0
  0
ENDBLK
  5
4AC9
  8
0
  0
BLOCK
  8
0
  2
GENAXEH
 70
     0
 10
0.0
 20
0.0
 30
0.0
  3
GENAXEH
  1

  0
LINE
  5
4B01
  8
0
 10
-1.0
 20
0.0
 30
0.0
 11
1.0
 21
0.0
 31
0.0
  0
ENDBLK
  5
4B02
  8
0
  0
BLOCK
  8
0
  2
_OPEN30
 70
     0
 10
0.0
 20
0.0
 30
0.0
  3
_OPEN30
  1

  0
LINE
  5
4B3D
  8
0
  6
BYBLOCK
 62
     0
 10
-1.0
 20
0.26794919
 30
0.0
 11
0.0
 21
0.0
 31
0.0
  0
LINE
  5
4B3E
  8
0
  6
BYBLOCK
 62
     0
 10
0.0
 20
0.0
 30
0.0
 11
-1.0
 21
-0.26794919
 31
0.0
  0
LINE
  5
4B3F
  8
0
  6
BYBLOCK
 62
     0
 10
0.0
 20
0.0
 30
0.0
 11
-1.0
 21
0.0
 31
0.0
  0
ENDBLK
  5
4B40
  8
0
  0
ENDSEC
  0
SECTION
  2
ENTITIES
  0
LINE
  5
4503
  8
245
  6
CENTER2
 10
-0.0000000000003979
 20
89.092469285125134
 30
0.0
 11
-0.0000000000003979
 21
64.529422140724677
 31
0.0
  0
CIRCLE
  5
4518
  8
241
  6
CONTINUOUS
 10
0.0
 20
-0.0000000000000426
 30
0.0
 40
23.5
  0
LINE
  5
453B
  8
245
  6
CENTER2
 10
-36.890114065038063
 20
0.0
 30
0.0
 11
272.80063709790898
 21
-0.0000000000000142
 31
0.0
  0
LINE
  5
453C
  8
245
  6
CENTER2
 10
0.0
 20
33.755773668648551
 30
0.0
 11
0.0
 21
-33.406678938918397
 31
0.0
  0
ARC
  5
453D
  8
240
  6
CONTINUOUS
 10
0.0
 20
-0.0000000000000142
 30
0.0
 40
32.799999999999997
 50
54.177075891023179
 51
103.3678742597783
  0
ARC
  5
453E
  8
240
  6
CONTINUOUS
 10
0.0
 20
-0.0000000000000142
 30
0.0
 40
32.799999999999997
 50
54.177075891023179
 51
305.82292410897679
  0
ARC
  5
453F
  8
240
  6
CONTINUOUS
 10
48.461360840024611
 20
67.136700138843025
 30
0.0
 40
50.0
 50
234.17707589102309
 51
263.00000000000051
1001
ASK_MEN_XD
1005
4548
1070
     1
1005
453D
1070
     1
  0
ARC
  5
4540
  8
241
  6
CONTINUOUS
 10
0.0
 20
-0.0000000000000142
 30
0.0
 40
35.0
 50
343.01191284358401
 51
16.988087156415968
  0
ARC
  5
4541
  8
241
  6
CONTINUOUS
 10
35.385524415108762
 20
10.81039600883059
 30
0.0
 40
2.0
 50
83.000000000000568
 51
196.9880871564159
1001
ASK_MEN_XD
1005
454D
1070
     1
1005
4540
1070
     1
  0
ARC
  5
4542
  8
241
  6
CONTINUOUS
 10
35.385524415108819
 20
-10.81039600883061
 30
0.0
 40
2.0
 50
163.01191284358401
 51
276.99999999999949
1001
ASK_MEN_XD
1005
454C
1070
     1
1005
4540
1070
     1
  0
LINE
  5
4543
  8
241
  6
CONTINUOUS
 10
100.0
 20
10.70911820019591
 30
0.0
 11
100.0
 21
-10.709118200195871
 31
0.0
  0
ARC
  5
4544
  8
240
  6
CONTINUOUS
 10
255.50000000000011
 20
-0.0000000000000142
 30
0.0
 40
14.5
 50
268.50000000000063
 51
91.499999999999474
  0
LINE
  5
4545
  8
240
  6
CONTINUOUS
 10
255.120434249536
 20
14.495031212145591
 30
0.0
 11
107.4287371588012
 21
10.62758801570885
 31
0.0
  0
ARC
  5
4546
  8
240
  6
CONTINUOUS
 10
104.81104232801491
 20
110.5933205132646
 30
0.0
 40
100.0
 50
263.00000000000051
 51
271.49999999999937
1001
ASK_MEN_XD
1005
4548
1070
     1
1005
4545
1070
     1
  0
LINE
  5
4547
  8
240
  6
CONTINUOUS
 10
255.120434249536
 20
-14.4950312121456
 30
0.0
 11
107.4287371588012
 21
-10.627588015708859
 31
0.0
  0
LINE
  5
4548
  8
240
  6
CONTINUOUS
 10
92.624107987501233
 20
11.33870534913228
 30
0.0
 11
42.367893669767909
 21
17.509392556776731
 31
0.0
  0
ARC
  5
4549
  8
240
  6
CONTINUOUS
 10
104.81104232801491
 20
-110.5933205132646
 30
0.0
 40
100.0
 50
88.50000000000054
 51
96.999999999999446
1001
ASK_MEN_XD
1005
4548
1070
     1
1005
4545
1070
     1
  0
LINE
  5
454A
  8
240
  6
CONTINUOUS
 10
92.624107987501233
 20
-11.338705349132301
 30
0.0
 11
42.367893669767852
 21
-17.509392556776799
 31
0.0
  0
LINE
  5
454B
  8
245
  6
CENTER2
 10
255.49999999999989
 20
-19.506684453571911
 30
0.0
 11
255.50000000000011
 21
19.506684453571829
 31
0.0
  0
LINE
  5
454C
  8
241
  6
CONTINUOUS
 10
84.103111660587729
 20
-6.8436481015638293
 30
0.0
 11
35.629263101919094
 21
-12.795488312113219
 31
0.0
  0
LINE
  5
454D
  8
241
  6
CONTINUOUS
 10
35.629263101919094
 20
12.79548831211326
 30
0.0
 11
84.103111660587658
 21
6.8436481015639137
 31
0.0
  0
LINE
  5
454E
  8
241
  6
CONTINUOUS
 10
231.4057426987718
 20
8.3721548004602511
 30
0.0
 11
117.24360791782161
 21
5.3827140929163733
 31
0.0
  0
LINE
  5
454F
  8
241
  6
CONTINUOUS
 10
231.4057426987718
 20
-8.3721548004603061
 30
0.0
 11
117.24360791782161
 21
-5.3827140929164861
 31
0.0
  0
CIRCLE
  5
4550
  8
241
  6
CONTINUOUS
 10
255.4999999999994
 20
-0.0000000000005826
 30
0.0
 40
8.5
  0
ARC
  5
4551
  8
241
  6
CONTINUOUS
 10
231.6249752877419
 20
0.0000000000000142
 30
0.0
 40
8.3750247122582095
 50
268.50000000000063
 51
91.499999999999474
  0
ARC
  5
4552
  8
241
  6
CONTINUOUS
 10
117.384559246888
 20
-0.0000000000000711
 30
0.0
 40
5.3845592468880454
 50
91.499999999999474
 51
268.50000000000063
  0
ARC
  5
4553
  8
241
  6
CONTINUOUS
 10
0.000000000000739
 20
0.0000000000002416
 30
0.0
 40
86.0
 50
356.68416439097058
 51
3.3158356090310011
  0
ARC
  5
4554
  8
241
  6
CONTINUOUS
 10
83.859372973777454
 20
-4.8585557982809027
 30
0.0
 40
2.0
 50
276.99999999999949
 51
356.68416439096899
1001
ASK_MEN_XD
1005
0
1070
     1
1005
4553
1070
     1
  0
ARC
  5
4555
  8
241
  6
CONTINUOUS
 10
83.859372973777454
 20
4.8585557982815279
 30
0.0
 40
2.0
 50
3.3158356090310011
 51
83.000000000000568
1001
ASK_MEN_XD
1005
4553
1070
     1
1005
0
1070
     1
  0
LINE
  5
455A
  8
241
  6
CONTINUOUS
 10
44.220861319671933
 20
-6.905223941874211
 30
0.0
 11
46.51445947560989
 21
-5.1768737621588761
 31
0.0
  0
LINE
  5
455B
  8
241
  6
CONTINUOUS
 10
40.625570586720812
 20
-10.51761134448865
 30
0.0
 11
40.625570586720812
 21
-7.2509446778218907
 31
0.0
  0
LINE
  5
455C
  8
241
  6
CONTINUOUS
 10
43.784684733082543
 20
4.6460756102800502
 30
0.0
 11
44.860647093890002
 21
4.8747784701796633
 31
0.0
  0
LINE
  5
455D
  8
241
  6
CONTINUOUS
 10
36.625570586721039
 20
-10.51761134448865
 30
0.0
 11
40.625570586720983
 21
-10.51761134448865
 31
0.0
  0
LINE
  5
455E
  8
241
  6
CONTINUOUS
 10
45.165774977076808
 20
-4.8655054115883303
 30
0.0
 11
46.514459475608362
 21
-5.1768737621634244
 31
0.0
  0
LINE
  5
455F
  8
241
  6
CONTINUOUS
 10
42.917047802846128
 20
-4.3463458365388163
 30
0.0
 11
44.090377242208888
 21
-4.6172302817988529
 31
0.0
  0
LINE
  5
4560
  8
241
  6
CONTINUOUS
 10
42.917047802849709
 20
-4.3463458365344394
 30
0.0
 11
44.220861319674441
 21
-6.905223941874211
 31
0.0
  0
LINE
  5
4561
  8
241
  6
CONTINUOUS
 10
36.625570586721039
 20
-9.9176113444886909
 30
0.0
 11
40.025570586720839
 21
-9.9176113444886909
 31
0.0
  0
LINE
  5
4562
  8
241
  6
CONTINUOUS
 10
40.025570586720839
 20
-9.9176113444886909
 30
0.0
 11
40.025570586720839
 21
-7.2509446778218907
 31
0.0
  0
LINE
  5
4563
  8
241
  6
CONTINUOUS
 10
40.025570586720839
 20
-7.2509446778218907
 30
0.0
 11
40.625570586720812
 21
-7.2509446778218907
 31
0.0
  0
LINE
  5
4564
  8
241
  6
CONTINUOUS
 10
36.625570586721039
 20
-10.51761134448865
 30
0.0
 11
36.625570586721039
 21
-9.9176113444886909
 31
0.0
  0
LINE
  5
4565
  8
241
  6
CONTINUOUS
 10
36.625570586721039
 20
7.9823886555115129
 30
0.0
 11
38.380203330146287
 21
7.9823886555115129
 31
0.0
  0
LINE
  5
4566
  8
241
  6
CONTINUOUS
 10
36.625570586721039
 20
7.382388655511491
 30
0.0
 11
40.625570586720983
 21
7.382388655511491
 31
0.0
  0
LINE
  5
4567
  8
241
  6
CONTINUOUS
 10
38.370785742594762
 20
8.8825552420144742
 30
0.0
 11
37.068661883077937
 21
10.308690897675721
 31
0.0
  0
LINE
  5
4568
  8
241
  6
CONTINUOUS
 10
38.380203330146287
 20
7.9823886555115129
 30
0.0
 11
36.625570586721039
 21
9.9041292792629179
 31
0.0
  0
LINE
  5
4569
  8
241
  6
CONTINUOUS
 10
38.775885593881981
 20
8.4388744525094381
 30
0.0
 11
40.625570586720919
 21
9.9605803796009127
 31
0.0
  0
LINE
  5
456A
  8
241
  6
CONTINUOUS
 10
38.370785742594762
 20
8.8825552420144192
 30
0.0
 11
40.244379749214367
 21
10.42393072804259
 31
0.0
  0
LINE
  5
456B
  8
241
  6
CONTINUOUS
 10
40.625570586720983
 20
7.382388655511491
 30
0.0
 11
40.625570586720983
 21
7.9823886555115129
 31
0.0
  0
LINE
  5
456C
  8
241
  6
CONTINUOUS
 10
36.625570586721039
 20
7.382388655511491
 30
0.0
 11
36.625570586721039
 21
7.9823886555115129
 31
0.0
  0
LINE
  5
456D
  8
241
  6
CONTINUOUS
 10
40.244379749214367
 20
10.42393072804259
 30
0.0
 11
40.625570586720919
 21
9.9605803796009127
 31
0.0
  0
LINE
  5
456E
  8
241
  6
CONTINUOUS
 10
36.625570586721039
 20
9.9041292792629179
 30
0.0
 11
37.068661883077937
 21
10.308690897675721
 31
0.0
  0
LINE
  5
456F
  8
241
  6
CONTINUOUS
 10
39.192676973749663
 20
7.9823886555115129
 30
0.0
 11
38.775885593881981
 21
8.4388744525094381
 31
0.0
  0
LINE
  5
4570
  8
241
  6
CONTINUOUS
 10
39.192676973749663
 20
7.9823886555115129
 30
0.0
 11
40.625570586720983
 21
7.9823886555115129
 31
0.0
  0
LINE
  5
4571
  8
241
  6
CONTINUOUS
 10
38.258903920053967
 20
-4.7514525787745887
 30
0.0
 11
38.992237253387493
 21
-4.7514525787745887
 31
0.0
  0
LINE
  5
4572
  8
241
  6
CONTINUOUS
 10
38.258903920053967
 20
-1.4847859121079381
 30
0.0
 11
38.992237253387493
 21
-1.4847859121079381
 31
0.0
  0
LINE
  5
4573
  8
241
  6
CONTINUOUS
 10
38.258903920053967
 20
-4.1514525787746228
 30
0.0
 11
38.992237253387493
 21
-4.1514525787746228
 31
0.0
  0
LINE
  5
4574
  8
241
  6
CONTINUOUS
 10
38.258903920053967
 20
-2.0847859121079599
 30
0.0
 11
38.992237253387493
 21
-2.0847859121079599
 31
0.0
  0
LINE
  5
4575
  8
241
  6
CONTINUOUS
 10
38.258903920053967
 20
1.915468038368501
 30
0.0
 11
38.992237253387493
 21
1.915468038368501
 31
0.0
  0
LINE
  5
4576
  8
241
  6
CONTINUOUS
 10
38.258903920053967
 20
1.3154680383685351
 30
0.0
 11
38.992237253387493
 21
1.3154680383685351
 31
0.0
  0
LINE
  5
4577
  8
241
  6
CONTINUOUS
 10
37.991457573448088
 20
3.9469247255338611
 30
0.0
 11
37.836166146386581
 21
4.5264802213072954
 31
0.0
  0
LINE
  5
4578
  8
241
  6
CONTINUOUS
 10
39.259683599993423
 20
3.9469247255338611
 30
0.0
 11
39.414975027054943
 21
4.5264802213072954
 31
0.0
  0
ARC
  5
4579
  8
241
  6
CONTINUOUS
 10
17.961588073709489
 20
-0.8427930273085593
 30
0.0
 40
26.400000000000009
 50
351.78019184719898
 51
11.99999999999979
  0
ARC
  5
457A
  8
241
  6
CONTINUOUS
 10
17.961588073709489
 20
-0.8427930273085593
 30
0.0
 40
27.5
 50
351.58856573578748
 51
11.99999999999979
  0
ARC
  5
457B
  8
241
  6
CONTINUOUS
 10
38.992237253387493
 20
-3.118119245441263
 30
0.0
 40
1.633333333333314
 50
270.0
 51
90.0
  0
ARC
  5
457C
  8
241
  6
CONTINUOUS
 10
38.258903920053967
 20
-3.118119245441263
 30
0.0
 40
1.633333333333314
 50
90.0
 51
270.0
  0
ARC
  5
457D
  8
241
  6
CONTINUOUS
 10
38.992237253387493
 20
-3.118119245441263
 30
0.0
 40
1.0333333333333139
 50
270.0
 51
90.0
  0
ARC
  5
457E
  8
241
  6
CONTINUOUS
 10
38.258903920053967
 20
-3.118119245441263
 30
0.0
 40
1.0333333333333139
 50
90.0
 51
270.0
  0
ARC
  5
457F
  8
241
  6
CONTINUOUS
 10
38.258903920053967
 20
2.9488013717018609
 30
0.0
 40
1.0333333333333139
 50
105.00000000000109
 51
270.0
  0
ARC
  5
4580
  8
241
  6
CONTINUOUS
 10
38.258903920053967
 20
2.9488013717018609
 30
0.0
 40
1.633333333333314
 50
105.00000000000109
 51
270.0
  0
ARC
  5
4581
  8
241
  6
CONTINUOUS
 10
38.992237253387493
 20
2.9488013717018609
 30
0.0
 40
1.633333333333314
 50
270.0
 51
74.999999999998835
  0
ARC
  5
4582
  8
241
  6
CONTINUOUS
 10
38.992237253387493
 20
2.9488013717018609
 30
0.0
 40
1.0333333333333139
 50
270.0
 51
74.999999999998835
  0
ARC
  5
46B5
  8
240
  6
CONTINUOUS
 10
48.461360840024611
 20
-67.136700138843025
 30
0.0
 40
50.0
 50
96.999999999999446
 51
125.82292410897681
1001
ASK_MEN_XD
1005
0
1070
     1
1005
0
1070
     1
  0
CIRCLE
  5
46B6
  8
241
  6
CONTINUOUS
 10
0.0
 20
-0.0000000000000142
 30
0.0
 40
31.0
  0
LINE
  5
46B7
  8
245
  6
CENTER2
 10
-33.125705811890782
 20
76.999999999999943
 30
0.0
 11
279.75929976977881
 21
76.999999999999886
 31
0.0
  0
LINE
  5
46BE
  8
240
  6
CONTINUOUS
 10
-29.584075632139669
 20
86.749999999999744
 30
0.0
 11
29.58407563213877
 21
86.750000000000057
 31
0.0
  0
LINE
  5
46BF
  8
240
  6
CONTINUOUS
 10
-29.584075632139619
 20
67.250000000000057
 30
0.0
 11
29.58407563213882
 21
67.250000000000057
 31
0.0
  0
ARC
  5
46C1
  8
240
  6
CONTINUOUS
 10
-5.4937500000006017
 20
76.999999999999943
 30
0.0
 40
27.306249999999839
 50
162.16671019540641
 51
197.83328980459351
  0
ARC
  5
46C2
  8
240
  6
CONTINUOUS
 10
5.4937499999998058
 20
76.999999999999943
 30
0.0
 40
27.306249999999839
 50
342.16671019540649
 51
342.82959033870452
  0
ARC
  5
46C3
  8
240
  6
CONTINUOUS
 10
5.4937499999998058
 20
76.999999999999943
 30
0.0
 40
27.306249999999839
 50
17.170409661295469
 51
17.833289804593552
  0
ARC
  5
46C4
  8
240
  6
CONTINUOUS
 10
32.538417407652616
 20
85.356419919554583
 30
0.0
 40
1.0
 50
197.17040966129551
 51
267.99999999999642
1001
ASK_MEN_XD
1005
46FE
1070
     1
1005
46C3
1070
     1
  0
ARC
  5
46C8
  8
240
  6
CONTINUOUS
 10
-29.584075632139619
 20
69.25
 30
0.0
 40
2.0
 50
197.83328980459351
 51
270.0
  0
ARC
  5
46C9
  8
240
  6
CONTINUOUS
 10
-29.584075632139669
 20
84.749999999999716
 30
0.0
 40
2.0
 50
90.0
 51
162.16671019540641
  0
ARC
  5
46CA
  8
240
  6
CONTINUOUS
 10
29.58407563213877
 20
84.750000000000057
 30
0.0
 40
2.0
 50
17.833289804593552
 51
90.0
  0
ARC
  5
46CB
  8
240
  6
CONTINUOUS
 10
29.58407563213882
 20
69.250000000000057
 30
0.0
 40
2.0
 50
270.0
 51
342.16671019540649
  0
LINE
  5
46CE
  8
240
  6
CONTINUOUS
 10
266.84523257866471
 20
81.999999999999886
 30
0.0
 11
101.74550649282121
 21
81.999999999999929
 31
0.0
  0
ARC
  5
46CF
  8
240
  6
CONTINUOUS
 10
101.74550649282121
 20
181.99999999999989
 30
0.0
 40
100.0
 50
267.9999999999996
 51
270.0
1001
ASK_MEN_XD
1005
46FE
1070
     1
1005
46CE
1070
     1
  0
LINE
  5
46D0
  8
240
  6
CONTINUOUS
 10
266.84523257866471
 20
71.999999999999943
 30
0.0
 11
101.74550649282121
 21
71.999999999999943
 31
0.0
  0
ARC
  5
46D1
  8
240
  6
CONTINUOUS
 10
253.9999999999996
 20
76.999999999999886
 30
0.0
 40
16.0
 50
351.15011690157218
 51
8.8498830984275632
  0
ARC
  5
46D2
  8
240
  6
CONTINUOUS
 10
266.84523257866471
 20
74.999999999999943
 30
0.0
 40
3.0
 50
270.0
 51
351.15011690157218
1001
ASK_MEN_XD
1005
46D1
1070
     1
1005
46D0
1070
     1
  0
ARC
  5
46D3
  8
240
  6
CONTINUOUS
 10
266.84523257866471
 20
78.999999999999886
 30
0.0
 40
3.0
 50
8.8498830984275632
 51
90.0
1001
ASK_MEN_XD
1005
46D1
1070
     1
1005
46CE
1070
     1
  0
LINE
  5
46D4
  8
241
  6
CONTINUOUS
 10
269.9687194226708
 20
77.999999999999943
 30
0.0
 11
-32.781683030233779
 21
77.999999999999972
 31
0.0
  0
LINE
  5
46D5
  8
241
  6
CONTINUOUS
 10
269.9687194226708
 20
75.999999999999943
 30
0.0
 11
-32.781683030233779
 21
75.999999999999943
 31
0.0
  0
LINE
  5
46FE
  8
240
  6
CONTINUOUS
 10
98.255556822571123
 20
82.060917298090374
 30
0.0
 11
32.503517910950173
 21
84.357029092535484
 31
0.0
  0
ARC
  5
46FF
  8
240
  6
CONTINUOUS
 10
32.538417407652616
 20
68.643580080445247
 30
0.0
 40
1.0
 50
92.000000000000398
 51
162.82959033870449
1001
ASK_MEN_XD
1005
46FE
1070
     1
1005
46C3
1070
     1
  0
ARC
  5
4700
  8
240
  6
CONTINUOUS
 10
101.74550649282121
 20
-28.000000000000171
 30
0.0
 40
100.0
 50
90.0
 51
92.000000000000398
1001
ASK_MEN_XD
1005
46FE
1070
     1
1005
46CE
1070
     1
  0
LINE
  5
4701
  8
240
  6
CONTINUOUS
 10
98.255556822571123
 20
71.939082701909456
 30
0.0
 11
32.503517910950109
 21
69.642970907464303
 31
0.0
  0
CIRCLE
  5
48E4
  8
246
 10
0.0
 20
0.0
 30
0.0
 40
23.0
  0
LINE
  5
48E5
  8
246
  6
PHANTOM2
 10
-23.000000000000401
 20
86.749999999999787
 30
0.0
 11
-23.000000000000401
 21
67.250000000000057
 31
0.0
  0
LINE
  5
48E6
  8
246
  6
PHANTOM2
 10
22.999999999999599
 20
86.750000000000014
 30
0.0
 11
22.999999999999599
 21
67.250000000000043
 31
0.0
  0
TEXT
  5
49D5
  8
241
  6
CONTINUOUS
 10
-28.0
 20
119.0
 30
0.0
 40
4.0
  1
MGR46L
  7
YOKO
  0
LINE
  5
49D6
  8
250
  6
CONTINUOUS
 10
-23.000000000000401
 20
87.249999999999787
 30
0.0
 11
-23.000000000000401
 21
106.0
 31
0.0
  0
LINE
  5
49D7
  8
250
  6
CONTINUOUS
 10
22.999999999999599
 20
87.250000000000028
 30
0.0
 11
22.999999999999599
 21
106.0
 31
0.0
  0
LINE
  5
49D8
  8
250
  6
CONTINUOUS
 10
-20.770000000000401
 20
105.0
 30
0.0
 11
20.769999999999602
 21
105.0
 31
0.0
  0
LINE
  5
49DC
  8
250
  6
CONTINUOUS
 10
270.00000000000011
 20
0.4999999999999859
 30
0.0
 11
270.00000000000011
 21
50.017949192431033
 31
0.0
  0
LINE
  5
49DD
  8
250
  6
CONTINUOUS
 10
-32.799999999999997
 20
0.4999999999999999
 30
0.0
 11
-32.799999999999997
 21
50.017949192431033
 31
0.0
  0
LINE
  5
49DE
  8
250
  6
CONTINUOUS
 10
267.7700000000001
 20
49.017949192431033
 30
0.0
 11
-30.57
 21
49.017949192431033
 31
0.0
  0
LINE
  5
49E2
  8
250
  6
CONTINUOUS
 10
0.0
 20
34.255773668648551
 30
0.0
 11
0.0000000000000006
 21
43.0
 31
0.0
  0
LINE
  5
49E3
  8
250
  6
CONTINUOUS
 10
270.00000000000011
 20
0.4999999999999859
 30
0.0
 11
270.00000000000011
 21
43.0
 31
0.0
  0
LINE
  5
49E4
  8
250
  6
CONTINUOUS
 10
2.23
 20
42.0
 30
0.0
 11
267.7700000000001
 21
42.0
 31
0.0
  0
LINE
  5
49E8
  8
250
  6
CONTINUOUS
 10
-32.799999999999997
 20
0.4999999999999999
 30
0.0
 11
-32.799999999999997
 21
43.0
 31
0.0
  0
LINE
  5
49E9
  8
250
  6
CONTINUOUS
 10
0.0
 20
34.255773668648551
 30
0.0
 11
0.0000000000000006
 21
43.0
 31
0.0
  0
LINE
  5
49EA
  8
250
  6
CONTINUOUS
 10
-30.57
 20
42.0
 30
0.0
 11
-2.2299999999999991
 21
42.0
 31
0.0
  0
TEXT
  5
49EE
  8
250
  6
CONTINUOUS
 10
-3.9333333333337301
 20
106.0
 30
0.0
 40
2.7999999999999989
  1
\U+220546
  0
LINE
  5
49EF
  8
250
  6
CONTINUOUS
 10
20.769999999999602
 20
105.3716666666666
 30
0.0
 11
22.999999999999599
 21
105.0
 31
0.0
  0
LINE
  5
49F0
  8
250
  6
CONTINUOUS
 10
20.769999999999602
 20
104.6283333333333
 30
0.0
 11
22.999999999999599
 21
105.0
 31
0.0
  0
LINE
  5
49F1
  8
250
  6
CONTINUOUS
 10
22.999999999999599
 20
105.0
 30
0.0
 11
20.769999999999602
 21
105.0
 31
0.0
  0
LINE
  5
49F2
  8
250
  6
CONTINUOUS
 10
-20.770000000000401
 20
104.6283333333333
 30
0.0
 11
-23.000000000000401
 21
105.0
 31
0.0
  0
LINE
  5
49F3
  8
250
  6
CONTINUOUS
 10
-20.770000000000401
 20
105.3716666666666
 30
0.0
 11
-23.000000000000401
 21
105.0
 31
0.0
  0
LINE
  5
49F4
  8
250
  6
CONTINUOUS
 10
-23.000000000000401
 20
105.0
 30
0.0
 11
-20.770000000000401
 21
105.0
 31
0.0
  0
TEXT
  5
49F5
  8
250
  6
CONTINUOUS
 10
112.59999999999999
 20
50.017949192431033
 30
0.0
 40
2.7999999999999989
  1
302.8
  0
LINE
  5
49F6
  8
250
  6
CONTINUOUS
 10
-30.57
 20
48.646282525764363
 30
0.0
 11
-32.799999999999997
 21
49.017949192431033
 31
0.0
  0
LINE
  5
49F7
  8
250
  6
CONTINUOUS
 10
-30.57
 20
49.389615859097702
 30
0.0
 11
-32.799999999999997
 21
49.017949192431033
 31
0.0
  0
LINE
  5
49F8
  8
250
  6
CONTINUOUS
 10
-32.799999999999997
 20
49.017949192431033
 30
0.0
 11
-30.57
 21
49.017949192431033
 31
0.0
  0
LINE
  5
49F9
  8
250
  6
CONTINUOUS
 10
267.7700000000001
 20
49.389615859097702
 30
0.0
 11
270.00000000000011
 21
49.017949192431033
 31
0.0
  0
LINE
  5
49FA
  8
250
  6
CONTINUOUS
 10
267.7700000000001
 20
48.646282525764363
 30
0.0
 11
270.00000000000011
 21
49.017949192431033
 31
0.0
  0
LINE
  5
49FB
  8
250
  6
CONTINUOUS
 10
270.00000000000011
 20
49.017949192431033
 30
0.0
 11
267.7700000000001
 21
49.017949192431033
 31
0.0
  0
TEXT
  5
49FC
  8
250
  6
CONTINUOUS
 10
131.0
 20
43.0
 30
0.0
 40
2.7999999999999989
  1
270
  0
LINE
  5
49FD
  8
250
  6
CONTINUOUS
 10
267.7700000000001
 20
42.371666666666663
 30
0.0
 11
270.00000000000011
 21
42.0
 31
0.0
  0
LINE
  5
49FE
  8
250
  6
CONTINUOUS
 10
267.7700000000001
 20
41.62833333333333
 30
0.0
 11
270.00000000000011
 21
42.0
 31
0.0
  0
LINE
  5
49FF
  8
250
  6
CONTINUOUS
 10
270.00000000000011
 20
42.0
 30
0.0
 11
267.7700000000001
 21
42.0
 31
0.0
  0
LINE
  5
4A00
  8
250
  6
CONTINUOUS
 10
2.23
 20
41.62833333333333
 30
0.0
 11
0.0000000000000005
 21
42.0
 31
0.0
  0
LINE
  5
4A01
  8
250
  6
CONTINUOUS
 10
2.23
 20
42.371666666666663
 30
0.0
 11
0.0000000000000005
 21
42.0
 31
0.0
  0
LINE
  5
4A02
  8
250
  6
CONTINUOUS
 10
0.0000000000000005
 20
42.0
 30
0.0
 11
2.23
 21
42.0
 31
0.0
  0
TEXT
  5
4A03
  8
250
  6
CONTINUOUS
 10
-21.066666666666659
 20
43.0
 30
0.0
 40
2.7999999999999989
  1
32.8
  0
LINE
  5
4A04
  8
250
  6
CONTINUOUS
 10
-2.2299999999999991
 20
42.371666666666663
 30
0.0
 11
0.0000000000000005
 21
42.0
 31
0.0
  0
LINE
  5
4A05
  8
250
  6
CONTINUOUS
 10
-2.2299999999999991
 20
41.62833333333333
 30
0.0
 11
0.0000000000000005
 21
42.0
 31
0.0
  0
LINE
  5
4A06
  8
250
  6
CONTINUOUS
 10
0.0000000000000005
 20
42.0
 30
0.0
 11
-2.2299999999999991
 21
42.0
 31
0.0
  0
LINE
  5
4A07
  8
250
  6
CONTINUOUS
 10
-30.57
 20
41.62833333333333
 30
0.0
 11
-32.799999999999997
 21
42.0
 31
0.0
  0
LINE
  5
4A08
  8
250
  6
CONTINUOUS
 10
-30.57
 20
42.371666666666663
 30
0.0
 11
-32.799999999999997
 21
42.0
 31
0.0
  0
LINE
  5
4A09
  8
250
  6
CONTINUOUS
 10
-32.799999999999997
 20
42.0
 30
0.0
 11
-30.57
 21
42.0
 31
0.0
  0
VIEWPORT
  5
22
 67
     1
  8
0
 10
261.51769911504419
 20
148.5
 30
0.0
 40
523.0353982300885
 41
297.0
 68
     1
 69
     1
1001
ACAD
1000
MVIEW
1002
{
1070
    16
1010
0.0
1020
0.0
1030
0.0
1010
0.0
1020
0.0
1030
1.0
1040
0.0
1040
297.0
1040
261.51769911504419
1040
148.5
1040
50.0
1040
0.0
1040
0.0
1070
     0
1070
   100
1070
     1
1070
     1
1070
     0
1070
     0
1070
     0
1070
     0
1040
0.0
1040
0.0
1040
0.0
1040
1.0
1040
1.0
1040
10.0
1040
10.0
1070
     0
1002
{
1002
}
1002
}
1001
GENIUS_GENODEF_13
1002
{
1000
HIER
1070
     0
1002
}
1002
{
1000
MANEDIT
1070
     0
1002
}
1002
{
1000
NOSEL
1070
     0
1002
}
1002
{
1000
BEHIND
1070
     0
1002
}
1002
{
1000
OTHER
1070
     0
1002
}
1002
{
1000
REACTOR
1002
}
1001
GENIUS_GENOBJ-N-SDF_13
1002
{
1000
OWNER
1000
GEN
1002
}
1001
GENIUS_GENSCREG_15
1000
PF
1040
1.0
1000
DF
1040
1.0
1000
MIN
1011
0.0
1021
0.0
1031
0.0
1021
0.0
1031
0.0
1000
MAX
1011
523.0353982300885
1021
0.0
1031
0.0
1021
297.0
1031
0.0
1000
FLAGS
1070
     4
  0
ENDSEC
  0
EOF
