  0
SECTION
  2
HEADER
  9
$ACADVER
  1
AC1009
  9
$INSBASE
 10
0.0
 20
0.0
 30
0.0
  9
$EXTMIN
 10
-33.606074464236031
 20
-33.406678938918454
 30
0.0
  9
$EXTMAX
 10
270.54818017728348
 20
116.0
 30
0.0
  9
$LIMMIN
 10
0.0
 20
0.0
  9
$LIMMAX
 10
297.0
 20
210.0
  9
$ORTHOMODE
 70
     0
  9
$REGENMODE
 70
     1
  9
$FILLMODE
 70
     1
  9
$QTEXTMODE
 70
     0
  9
$MIRRTEXT
 70
     1
  9
$DRAGMODE
 70
     2
  9
$LTSCALE
 40
10.0
  9
$OSMODE
 70
    37
  9
$ATTMODE
 70
     1
  9
$TEXTSIZE
 40
3.0
  9
$TRACEWID
 40
1.0
  9
$TEXTSTYLE
  7
YOKO
  9
$CLAYER
  8
246
  9
$CELTYPE
  6
BYLAYER
  9
$CECOLOR
 62
   256
  9
$DIMSCALE
 40
1.0
  9
$DIMASZ
 40
2.2299999999999991
  9
$DIMEXO
 40
0.5
  9
$DIMDLI
 40
7.0
  9
$DIMRND
 40
0.0
  9
$DIMDLE
 40
0.0
  9
$DIMEXE
 40
1.0
  9
$DIMTP
 40
0.0
  9
$DIMTM
 40
0.01
  9
$DIMTXT
 40
2.7999999999999989
  9
$DIMCEN
 40
0.0
  9
$DIMTSZ
 40
0.0
  9
$DIMTOL
 70
     0
  9
$DIMLIM
 70
     0
  9
$DIMTIH
 70
     0
  9
$DIMTOH
 70
     0
  9
$DIMSE1
 70
     0
  9
$DIMSE2
 70
     0
  9
$DIMTAD
 70
     3
  9
$DIMZIN
 70
     9
  9
$DIMBLK
  1
OPEN
  9
$DIMASO
 70
     1
  9
$DIMSHO
 70
     1
  9
$DIMPOST
  1

  9
$DIMAPOST
  1

  9
$DIMALT
 70
     0
  9
$DIMALTD
 70
     2
  9
$DIMALTF
 40
25.399999999999999
  9
$DIMLFAC
 40
1.0
  9
$DIMTOFL
 70
     1
  9
$DIMTVP
 40
0.0
  9
$DIMTIX
 70
     1
  9
$DIMSOXD
 70
     0
  9
$DIMSAH
 70
     0
  9
$DIMBLK1
  1

  9
$DIMBLK2
  1

  9
$DIMSTYLE
  2
BIGT
  9
$DIMCLRD
 70
   256
  9
$DIMCLRE
 70
   256
  9
$DIMCLRT
 70
    40
  9
$DIMTFAC
 40
1.0
  9
$DIMGAP
 40
1.0
  9
$LUNITS
 70
     2
  9
$LUPREC
 70
     6
  9
$SKETCHINC
 40
1.0
  9
$FILLETRAD
 40
0.0
  9
$AUNITS
 70
     0
  9
$AUPREC
 70
     6
  9
$MENU
  1
.
  9
$ELEVATION
 40
0.0
  9
$PELEVATION
 40
0.0
  9
$THICKNESS
 40
0.0
  9
$LIMCHECK
 70
     0
  9
$BLIPMODE
 70
     0
  9
$CHAMFERA
 40
0.2
  9
$CHAMFERB
 40
0.2
  9
$SKPOLY
 70
     0
  9
$TDCREATE
 40
2459494.6716358331
  9
$TDUPDATE
 40
2459494.6835967009
  9
$TDINDWG
 40
0.0118954514
  9
$TDUSRTIMER
 40
0.0118954167
  9
$USRTIMER
 70
     1
  9
$ANGBASE
 50
0.0
  9
$ANGDIR
 70
     0
  9
$PDMODE
 70
     1
  9
$PDSIZE
 40
0.0
  9
$PLINEWID
 40
0.0
  9
$COORDS
 70
     1
  9
$SPLFRAME
 70
     0
  9
$SPLINETYPE
 70
     6
  9
$SPLINESEGS
 70
     4
  9
$ATTDIA
 70
     1
  9
$ATTREQ
 70
     1
  9
$HANDLING
 70
     1
  9
$HANDSEED
  5
4BB3
  9
$SURFTAB1
 70
     6
  9
$SURFTAB2
 70
     6
  9
$SURFTYPE
 70
     6
  9
$SURFU
 70
     6
  9
$SURFV
 70
     6
  9
$UCSNAME
  2

  9
$UCSORG
 10
0.0
 20
0.0
 30
0.0
  9
$UCSXDIR
 10
1.0
 20
0.0
 30
0.0
  9
$UCSYDIR
 10
0.0
 20
1.0
 30
0.0
  9
$PUCSNAME
  2

  9
$PUCSORG
 10
0.0
 20
0.0
 30
0.0
  9
$PUCSXDIR
 10
1.0
 20
0.0
 30
0.0
  9
$PUCSYDIR
 10
0.0
 20
1.0
 30
0.0
  9
$USERI1
 70
     1
  9
$USERI2
 70
     0
  9
$USERI3
 70
     0
  9
$USERI4
 70
     0
  9
$USERI5
 70
     0
  9
$USERR1
 40
0.0
  9
$USERR2
 40
0.0
  9
$USERR3
 40
0.0
  9
$USERR4
 40
0.0
  9
$USERR5
 40
0.0
  9
$WORLDVIEW
 70
     1
  9
$SHADEDGE
 70
     3
  9
$SHADEDIF
 70
    70
  9
$TILEMODE
 70
     1
  9
$MAXACTVP
 70
    16
  9
$PLIMCHECK
 70
     0
  9
$PEXTMIN
 10
1.0000000000000000E+020
 20
1.0000000000000000E+020
 30
1.0000000000000000E+020
  9
$PEXTMAX
 10
-1.0000000000000000E+020
 20
-1.0000000000000000E+020
 30
-1.0000000000000000E+020
  9
$PLIMMIN
 10
0.0
 20
0.0
  9
$PLIMMAX
 10
420.0
 20
297.0
  9
$UNITMODE
 70
     0
  9
$VISRETAIN
 70
     1
  9
$PLINEGEN
 70
     0
  9
$PSLTSCALE
 70
     1
  0
ENDSEC
  0
SECTION
  2
TABLES
  0
TABLE
  2
VPORT
 70
     1
  0
VPORT
  2
*ACTIVE
 70
     0
 10
0.0
 20
0.0
 11
1.0
 21
1.0
 12
118.58544372900489
 22
33.75580236063405
 13
0.0
 23
0.0
 14
7.0
 24
7.0
 15
7.0
 25
7.0
 16
0.0
 26
0.0
 36
1.0
 17
0.0
 27
0.0
 37
0.0
 40
244.31128563251011
 41
1.806872037914691
 42
50.0
 43
0.0
 44
0.0
 50
0.0
 51
0.0
 71
     0
 72
  2000
 73
     1
 74
     0
 75
     0
 76
     1
 77
     0
 78
     0
  0
ENDTAB
  0
TABLE
  2
LTYPE
 70
    16
  0
LTYPE
  2
CONTINUOUS
 70
     0
  3
Solid line
 72
    65
 73
     0
 40
0.0
  0
LTYPE
  2
CENTER2
 70
     0
  3
___ _ ___ _ ___ _ ___ _ ___ _ ___ _ ___ _ ___ _
 72
    65
 73
     4
 40
1.125
 49
0.75
 49
-0.125
 49
0.125
 49
-0.125
  0
LTYPE
  2
HIDDEN2
 70
     0
  3
_ _ _ _ _ _ _ _ _ _ _ _ _ _ _ _ _ _ _ _ _ _ _ _
 72
    65
 73
     2
 40
0.1875
 49
0.125
 49
-0.0625
  0
LTYPE
  2
PHANTOM2
 70
     0
  3
___ _ _ ___ _ _ ___ _ _ ___ _ _ ___ _ _ ___ _ _
 72
    65
 73
     6
 40
1.25
 49
0.625
 49
-0.125
 49
0.125
 49
-0.125
 49
0.125
 49
-0.125
  0
LTYPE
  2
AM_ISO02W050
 70
     0
  3
__ __ __ __ __ __ __ __ __ __ __ __ __ __ __
 72
    65
 73
     2
 40
7.5
 49
6.0
 49
-1.5
  0
LTYPE
  2
AMCONSTR
 70
     0
  3
_______________________
 72
    65
 73
     2
 40
9999.0
 49
9999.0
 49
0.0
  0
LTYPE
  2
ACISOWELD
 70
     0
  3
_ _ _ _ _
 72
    65
 73
     2
 40
2.0
 49
2.0
 49
-1.0
  0
LTYPE
  2
ACISOTGB
 70
     0
  3
__ . . __ . .
 72
    65
 73
     6
 40
9.0
 49
4.0
 49
-1.0
 49
1.0
 49
-1.0
 49
1.0
 49
-1.0
  0
LTYPE
  2
ACISOTGL
 70
     0
  3
_ _ _ _ _
 72
    65
 73
     2
 40
3.0
 49
2.0
 49
-1.0
  0
LTYPE
  2
ACJISTGB
 70
     0
  3
__ . . __ . .
 72
    65
 73
     6
 40
9.0
 49
4.0
 49
-1.0
 49
1.0
 49
-1.0
 49
1.0
 49
-1.0
  0
LTYPE
  2
ACJISTGL
 70
     0
  3
_ _ _ _ _
 72
    65
 73
     2
 40
3.0
 49
2.0
 49
-1.0
  0
ENDTAB
  0
TABLE
  2
LAYER
 70
     7
  0
LAYER
  2
0
 70
     0
 62
     7
  6
CONTINUOUS
  0
LAYER
  2
DEFPOINTS
 70
     0
 62
     7
  6
CONTINUOUS
  0
LAYER
  2
245
 70
     0
 62
     2
  6
CENTER2
  0
LAYER
  2
240
 70
     0
 62
     4
  6
CONTINUOUS
  0
LAYER
  2
241
 70
     0
 62
   211
  6
CONTINUOUS
  0
LAYER
  2
246
 70
     0
 62
     3
  6
PHANTOM2
  0
LAYER
  2
250
 70
     0
 62
     3
  6
CONTINUOUS
  0
ENDTAB
  0
TABLE
  2
STYLE
 70
     8
  0
STYLE
  2
STANDARD
 70
     0
 40
0.0
 41
1.0
 50
0.0
 71
     0
 42
3.0
  3
romans.shx
  4
extfont.shx
  0
STYLE
  2
ACISOTS
 70
     0
 40
1.0
 41
1.0
 50
0.0
 71
     0
 42
3.0
  3
amgdt.shx
  4
extfont.shx
  0
STYLE
  2
ACISOGDT
 70
     0
 40
0.0
 41
1.0
 50
0.0
 71
     0
 42
3.0
  3
amgdt.shx
  4
extfont.shx
  0
STYLE
  2
ACJISTS
 70
     0
 40
1.0
 41
1.0
 50
0.0
 71
     0
 42
3.0
  3
amgdt.shx
  4
extfont.shx
  0
STYLE
  2
ACJISGDT
 70
     0
 40
0.0
 41
1.0
 50
0.0
 71
     0
 42
3.0
  3
amgdt.shx
  4
extfont.shx
  0
STYLE
  2
YOKO
 70
     0
 40
0.0
 41
1.0
 50
0.0
 71
     0
 42
3.0
  3
romans.shx
  4
extfont.shx
  0
ENDTAB
  0
TABLE
  2
VIEW
 70
     0
  0
ENDTAB
  0
TABLE
  2
UCS
 70
     0
  0
ENDTAB
  0
TABLE
  2
APPID
 70
    44
  0
APPID
  2
ACAD
 70
     0
  0
APPID
  2
GLOBAL
 70
     0
  0
APPID
  2
DETAIL
 70
     0
  0
APPID
  2
GRPNAME
 70
     0
  0
APPID
  2
GPARA
 70
     0
  0
APPID
  2
MCAD_NO_VIS
 70
     0
  0
APPID
  2
ACAD_TEMP_GRAPHIC
 70
     0
  0
APPID
  2
ACATTRIBSERVICES
 70
     0
  0
APPID
  2
GENIUS_GENSCREG_15
 70
     0
  0
APPID
  2
GENIUS_GENODEF_13
 70
     0
  0
APPID
  2
GENIUS_GENOBJ-N-SDF_13
 70
     0
  0
APPID
  2
GENIUS_GENREC_14
 70
     0
  0
APPID
  2
GENIUS_GENOBJ-N-REC_13
 70
     0
  0
APPID
  2
GENIUS_GENDIMSH_14
 70
     0
  0
APPID
  2
GENIUS_GENOBJ-N-DIM_13
 70
     0
  0
APPID
  2
GENIUS_GENDIM_13
 70
     0
  0
APPID
  2
GENIUS_GENDTOL_13
 70
     0
  0
APPID
  2
GENIUS_GENOLIS_13
 70
     0
  0
APPID
  2
GENIUS_GENOENT_13
 70
     0
  0
APPID
  2
GENIUS_GENOBJ-F-FEM_13
 70
     0
  0
APPID
  2
GENIUS_GENOREF_13
 70
     0
  0
APPID
  2
GENIUS_GEFFEM_13
 70
     0
  0
APPID
  2
GENIUS_GEFFEMP_13
 70
     0
  0
APPID
  2
AD_DRAW
 70
     0
  0
APPID
  2
DESIGNERASSEMBLIES
 70
     0
  0
APPID
  2
ACADM_DIM_EDIT
 70
     0
  0
APPID
  2
AMDT_DM_ADJ
 70
     0
  0
APPID
  2
ITEMNAME
 70
     0
  0
APPID
  2
GENIUS_GENOBJ-N-FIL_13
 70
     0
  0
APPID
  2
GENIUS_GENFIL_13
 70
     0
  0
APPID
  2
GENIUS_GENOBJ-N-CHA_13
 70
     0
  0
APPID
  2
ACAD_NAV_VCDISPLAY
 70
     0
  0
APPID
  2
ACAECLAYERSTANDARD
 70
     0
  0
APPID
  2
LAYER_SCALE
 70
     0
  0
APPID
  2
ASK_MEN_XD
 70
     0
  0
APPID
  2
ACAD_EXEMPT_FROM_CAD_STANDARDS
 70
     0
  0
APPID
  2
ACAD_DSTYLE_DIMINSPECT
 70
     0
  0
APPID
  2
ACAD_DSTYLE_DIMJAG
 70
     0
  0
APPID
  2
ACAD_DSTYLE_DIMBREAK
 70
     0
  0
APPID
  2
ACAD_MLEADERVER
 70
     0
  0
APPID
  2
ACAD_DSTYLE_DIMARC_LENGTH_
 70
     0
  0
APPID
  2
ACAD_DSTYLE_DIM_LINETYPE
 70
     0
  0
APPID
  2
ACAD_DSTYLE_DIM_EXT1_LINETYPE
 70
     0
  0
APPID
  2
ACAD_DSTYLE_DIM_EXT2_LINETYPE
 70
     0
  0
ENDTAB
  0
TABLE
  2
DIMSTYLE
 70
    30
  0
DIMSTYLE
  2
BIGT
 70
     0
  3

  4

  5
OPEN
  6

  7

 40
1.0
 41
2.2299999999999991
 42
0.5
 43
7.0
 44
1.0
 45
0.0
 46
0.0
 47
0.0
 48
0.01
140
2.7999999999999989
141
0.0
142
0.0
143
25.399999999999999
144
1.0
145
0.0
146
1.0
147
1.0
 71
     0
 72
     0
 73
     0
 74
     0
 75
     0
 76
     0
 77
     3
 78
     9
170
     0
171
     2
172
     1
173
     0
174
     1
175
     0
176
   256
177
   256
178
    40
  0
DIMSTYLE
  2
AM_ISO
 70
     0
  3

  4
"
  5

  6

  7

 40
1.0
 41
2.5
 42
1.0
 43
10.0
 44
1.0
 45
0.0
 46
0.0
 47
0.1
 48
0.1
140
3.5
141
0.0
142
0.0
143
0.0393701
144
1.0
145
0.0
146
0.71
147
1.5
 71
     0
 72
     0
 73
     0
 74
     0
 75
     0
 76
     0
 77
     1
 78
     8
170
     0
171
     2
172
     1
173
     0
174
     0
175
     0
176
   256
177
   256
178
     2
  0
DIMSTYLE
  2
AM_ISO$3
 70
     0
  3

  4
"
  5

  6

  7

 40
1.0
 41
2.5
 42
1.0
 43
10.0
 44
1.0
 45
0.0
 46
0.0
 47
0.1
 48
0.1
140
3.5
141
0.0
142
0.0
143
0.0393701
144
1.0
145
0.0
146
0.71
147
1.5
 71
     0
 72
     0
 73
     0
 74
     1
 75
     0
 76
     0
 77
     1
 78
     8
170
     0
171
     2
172
     0
173
     0
174
     0
175
     0
176
   256
177
   256
178
     2
  0
DIMSTYLE
  2
AM_ISO$4
 70
     0
  3

  4
"
  5

  6

  7

 40
1.0
 41
2.5
 42
1.0
 43
10.0
 44
1.0
 45
0.0
 46
0.0
 47
0.1
 48
0.1
140
3.5
141
0.0
142
0.0
143
0.0393701
144
1.0
145
0.0
146
0.71
147
1.5
 71
     0
 72
     0
 73
     0
 74
     1
 75
     0
 76
     0
 77
     1
 78
     8
170
     0
171
     2
172
     0
173
     0
174
     0
175
     0
176
   256
177
   256
178
     2
  0
DIMSTYLE
  2
AM_ISO$6
 70
     0
  3

  4
"
  5

  6

  7

 40
1.0
 41
2.5
 42
1.0
 43
10.0
 44
1.0
 45
0.0
 46
0.0
 47
0.1
 48
0.1
140
3.5
141
0.0
142
0.0
143
0.0393701
144
1.0
145
0.0
146
0.71
147
1.5
 71
     0
 72
     0
 73
     0
 74
     0
 75
     0
 76
     0
 77
     0
 78
     8
170
     0
171
     2
172
     1
173
     0
174
     0
175
     0
176
   256
177
   256
178
     2
  0
DIMSTYLE
  2
AM_ISO$7
 70
     0
  3

  4
"
  5

  6

  7

 40
1.0
 41
2.5
 42
1.0
 43
10.0
 44
1.0
 45
0.0
 46
0.0
 47
0.1
 48
0.1
140
5.0
141
0.0
142
0.0
143
0.0393701
144
1.0
145
0.0
146
0.71
147
1.5
 71
     0
 72
     0
 73
     0
 74
     0
 75
     0
 76
     0
 77
     1
 78
     8
170
     0
171
     2
172
     1
173
     0
174
     0
175
     0
176
   256
177
   256
178
     2
  0
DIMSTYLE
  2
AM_ISO$SF
 70
     0
  3

  4
"
  5

  6

  7

 40
1.0
 41
2.5
 42
1.0
 43
10.0
 44
1.0
 45
0.0
 46
0.0
 47
0.1
 48
0.1
140
3.5
141
0.0
142
0.0
143
0.0393701
144
1.0
145
0.0
146
0.71
147
1.5
 71
     0
 72
     0
 73
     0
 74
     0
 75
     1
 76
     1
 77
     1
 78
     8
170
     0
171
     2
172
     1
173
     0
174
     0
175
     0
176
   256
177
   256
178
     2
  0
DIMSTYLE
  2
AM_ISO$SH
 70
     0
  3

  4
"
  5

  6
GENAXEH
  7

 40
1.0
 41
2.5
 42
1.0
 43
10.0
 44
1.0
 45
0.0
 46
0.0
 47
0.1
 48
0.1
140
3.5
141
0.0
142
0.0
143
0.0393701
144
2.0
145
0.0
146
0.71
147
1.5
 71
     0
 72
     0
 73
     0
 74
     0
 75
     1
 76
     1
 77
     1
 78
     8
170
     0
171
     2
172
     1
173
     1
174
     0
175
     0
176
   256
177
   256
178
     2
  0
DIMSTYLE
  2
BIGT$2
 70
     0
  3

  4

  5
OPEN
  6

  7

 40
1.0
 41
2.2299999999999991
 42
0.5
 43
7.0
 44
1.0
 45
0.0
 46
0.0
 47
0.0
 48
0.01
140
2.7999999999999989
141
0.0
142
0.0
143
25.399999999999999
144
1.0
145
0.0
146
1.0
147
1.0
 71
     0
 72
     0
 73
     0
 74
     0
 75
     0
 76
     0
 77
     3
 78
     9
170
     0
171
     2
172
     1
173
     0
174
     0
175
     0
176
   256
177
   256
178
    40
  0
DIMSTYLE
  2
BIGT$3
 70
     0
  3

  4

  5
OPEN
  6

  7

 40
1.0
 41
2.2299999999999991
 42
0.5
 43
2.5
 44
1.0
 45
0.0
 46
0.0
 47
0.0
 48
0.01
140
2.7999999999999989
141
0.0
142
0.0
143
25.399999999999999
144
1.0
145
0.0
146
1.0
147
1.0
 71
     0
 72
     0
 73
     0
 74
     0
 75
     0
 76
     0
 77
     3
 78
     9
170
     0
171
     2
172
     1
173
     0
174
     0
175
     0
176
   256
177
   256
178
    40
  0
DIMSTYLE
  2
BIGT$7
 70
     0
  3

  4

  5
OPEN
  6

  7

 40
0.0
 41
2.2299999999999991
 42
0.5
 43
7.0
 44
1.0
 45
0.0
 46
0.0
 47
0.0
 48
0.01
140
2.7999999999999989
141
0.0
142
0.0
143
25.399999999999999
144
1.0
145
0.0
146
1.0
147
1.0
 71
     0
 72
     0
 73
     0
 74
     0
 75
     0
 76
     0
 77
     3
 78
     9
170
     0
171
     2
172
     0
173
     0
174
     0
175
     0
176
   256
177
   256
178
    40
  0
DIMSTYLE
  2
BIGT$6
 70
     0
  3

  4

  5
OPEN
  6

  7

 40
1.0
 41
2.2299999999999991
 42
0.5
 43
2.5
 44
1.0
 45
0.0
 46
0.0
 47
0.0
 48
0.01
140
2.7999999999999989
141
0.0
142
0.0
143
25.399999999999999
144
1.0
145
0.0
146
1.0
147
1.0
 71
     0
 72
     0
 73
     0
 74
     0
 75
     0
 76
     0
 77
     3
 78
     9
170
     0
171
     2
172
     1
173
     0
174
     0
175
     0
176
   256
177
   256
178
    40
  0
DIMSTYLE
  2
BIGT$0
 70
     0
  3

  4

  5
OPEN
  6

  7

 40
1.0
 41
2.2299999999999991
 42
0.5
 43
7.0
 44
1.0
 45
0.0
 46
0.0
 47
0.0
 48
0.01
140
2.7999999999999989
141
0.0
142
0.0
143
25.399999999999999
144
1.0
145
0.0
146
1.0
147
1.0
 71
     0
 72
     0
 73
     0
 74
     0
 75
     0
 76
     0
 77
     3
 78
     9
170
     0
171
     2
172
     1
173
     0
174
     1
175
     0
176
   256
177
   256
178
    40
  0
DIMSTYLE
  2
BIGT$4
 70
     0
  3

  4

  5
OPEN
  6

  7

 40
1.0
 41
2.2299999999999991
 42
0.5
 43
2.5
 44
1.0
 45
0.0
 46
0.0
 47
0.0
 48
0.01
140
2.7999999999999989
141
0.0
142
0.0
143
25.399999999999999
144
1.0
145
0.0
146
1.0
147
1.0
 71
     0
 72
     0
 73
     0
 74
     0
 75
     0
 76
     0
 77
     3
 78
     9
170
     0
171
     2
172
     1
173
     0
174
     0
175
     0
176
   256
177
   256
178
    40
  0
DIMSTYLE
  2
BIGT$SH
 70
     0
  3

  4

  5
OPEN
  6

  7

 40
1.0
 41
2.2299999999999991
 42
0.5
 43
7.0
 44
1.0
 45
0.0
 46
0.0
 47
0.0
 48
0.0
140
2.7999999999999989
141
0.0
142
0.0
143
25.399999999999999
144
1.0
145
0.0
146
1.0
147
1.0
 71
     0
 72
     0
 73
     0
 74
     0
 75
     0
 76
     0
 77
     3
 78
     9
170
     0
171
     2
172
     1
173
     0
174
     0
175
     0
176
   256
177
   256
178
    40
  0
DIMSTYLE
  2
BIGT$SF
 70
     0
  3

  4

  5
OPEN
  6

  7

 40
1.0
 41
2.2299999999999991
 42
0.5
 43
7.0
 44
1.0
 45
0.0
 46
0.0
 47
0.0
 48
0.0
140
2.7999999999999989
141
0.0
142
0.0
143
25.399999999999999
144
1.0
145
0.0
146
1.0
147
1.0
 71
     0
 72
     0
 73
     0
 74
     0
 75
     0
 76
     0
 77
     3
 78
     9
170
     0
171
     2
172
     1
173
     0
174
     0
175
     0
176
   256
177
   256
178
    40
  0
DIMSTYLE
  2
TECHNICAL_OSAKA
 70
     0
  3

  4
"
  5
OPEN30
  6

  7

 40
1.0
 41
2.5
 42
1.0
 43
10.0
 44
1.0
 45
0.0
 46
0.0
 47
0.1
 48
0.1
140
2.7999999999999989
141
0.0
142
0.0
143
0.0393701
144
1.0
145
0.0
146
0.71
147
1.5
 71
     0
 72
     0
 73
     0
 74
     0
 75
     0
 76
     0
 77
     3
 78
     8
170
     0
171
     2
172
     1
173
     0
174
     0
175
     0
176
   256
177
   256
178
    40
  0
DIMSTYLE
  2
TECHNICAL_OSAKA$3
 70
     0
  3

  4
"
  5
OPEN30
  6

  7

 40
1.0
 41
2.5
 42
1.0
 43
10.0
 44
1.0
 45
0.0
 46
0.0
 47
0.1
 48
0.1
140
2.7999999999999989
141
0.0
142
0.0
143
0.0393701
144
1.0
145
0.0
146
0.71
147
1.5
 71
     0
 72
     0
 73
     0
 74
     1
 75
     0
 76
     0
 77
     3
 78
     8
170
     0
171
     2
172
     0
173
     0
174
     0
175
     0
176
   256
177
   256
178
    40
  0
DIMSTYLE
  2
TECHNICAL_OSAKA$4
 70
     0
  3

  4
"
  5
OPEN30
  6

  7

 40
1.0
 41
2.5
 42
1.0
 43
10.0
 44
1.0
 45
0.0
 46
0.0
 47
0.1
 48
0.1
140
2.7999999999999989
141
0.0
142
0.0
143
0.0393701
144
1.0
145
0.0
146
0.71
147
1.5
 71
     0
 72
     0
 73
     0
 74
     1
 75
     0
 76
     0
 77
     3
 78
     8
170
     0
171
     2
172
     0
173
     0
174
     0
175
     0
176
   256
177
   256
178
    40
  0
DIMSTYLE
  2
TECHNICAL_OSAKA$6
 70
     0
  3

  4
"
  5
OPEN30
  6

  7

 40
1.0
 41
2.5
 42
1.0
 43
10.0
 44
1.0
 45
0.0
 46
0.0
 47
0.1
 48
0.1
140
2.7999999999999989
141
0.0
142
0.0
143
0.0393701
144
1.0
145
0.0
146
0.71
147
1.5
 71
     0
 72
     0
 73
     0
 74
     0
 75
     0
 76
     0
 77
     0
 78
     8
170
     0
171
     2
172
     1
173
     0
174
     0
175
     0
176
   256
177
   256
178
    40
  0
DIMSTYLE
  2
TECHNICAL_OSAKA$7
 70
     0
  3

  4
"
  5
OPEN30
  6

  7

 40
1.0
 41
2.5
 42
1.0
 43
10.0
 44
1.0
 45
0.0
 46
0.0
 47
0.1
 48
0.1
140
2.7999999999999989
141
0.0
142
0.0
143
0.0393701
144
1.0
145
0.0
146
0.71
147
1.5
 71
     0
 72
     0
 73
     0
 74
     0
 75
     0
 76
     0
 77
     3
 78
     8
170
     0
171
     2
172
     1
173
     0
174
     0
175
     0
176
   256
177
   256
178
    40
  0
DIMSTYLE
  2
TECHNICAL_OSAKA$SF
 70
     0
  3

  4
"
  5
OPEN30
  6
OPEN30
  7
OPEN30
 40
1.0
 41
2.5
 42
1.0
 43
10.0
 44
1.0
 45
0.0
 46
0.0
 47
0.1
 48
0.1
140
3.5
141
0.0
142
0.0
143
0.0393701
144
1.0
145
0.0
146
0.71
147
1.5
 71
     0
 72
     0
 73
     0
 74
     0
 75
     1
 76
     1
 77
     3
 78
     8
170
     0
171
     2
172
     1
173
     0
174
     0
175
     0
176
   256
177
   256
178
    40
  0
DIMSTYLE
  2
TECHNICAL_OSAKA$SH
 70
     0
  3

  4
"
  5
OPEN30
  6
GENAXEH
  7
OPEN30
 40
1.0
 41
2.5
 42
1.0
 43
10.0
 44
1.0
 45
0.0
 46
0.0
 47
0.1
 48
0.1
140
3.5
141
0.0
142
0.0
143
0.0393701
144
2.0
145
0.0
146
0.71
147
1.5
 71
     0
 72
     0
 73
     0
 74
     0
 75
     1
 76
     1
 77
     3
 78
     8
170
     0
171
     2
172
     1
173
     1
174
     0
175
     0
176
   256
177
   256
178
    40
  0
DIMSTYLE
  2
STANDARD
 70
     0
  3

  4

  5

  6

  7

 40
1.0
 41
0.18
 42
0.0625
 43
0.38
 44
0.18
 45
0.0
 46
0.0
 47
0.0
 48
0.0
140
0.18
141
0.09
142
0.0
143
25.399999999999999
144
1.0
145
0.0
146
1.0
147
0.09
 71
     0
 72
     0
 73
     1
 74
     1
 75
     0
 76
     0
 77
     0
 78
     0
170
     0
171
     2
172
     0
173
     0
174
     0
175
     0
176
     0
177
     0
178
     0
  0
ENDTAB
  0
ENDSEC
  0
SECTION
  2
BLOCKS
  0
BLOCK
  8
0
  2
$MODEL_SPACE
 70
     0
 10
0.0
 20
0.0
 30
0.0
  3
$MODEL_SPACE
  1

  0
ENDBLK
  5
1C
  8
0
  0
BLOCK
 67
     1
  8
0
  2
$PAPER_SPACE
 70
     0
 10
0.0
 20
0.0
 30
0.0
  3
$PAPER_SPACE
  1

  0
ENDBLK
  5
19
 67
     1
  8
0
  0
BLOCK
  8
0
  2
_OPEN
 70
     0
 10
0.0
 20
0.0
 30
0.0
  3
_OPEN
  1

  0
LINE
  5
4ABA
  8
0
  6
BYBLOCK
 62
     0
 10
-1.0
 20
0.1666666666666666
 30
0.0
 11
0.0
 21
0.0
 31
0.0
  0
LINE
  5
4ABB
  8
0
  6
BYBLOCK
 62
     0
 10
-1.0
 20
-0.1666666666666666
 30
0.0
 11
0.0
 21
0.0
 31
0.0
  0
LINE
  5
4ABC
  8
0
  6
BYBLOCK
 62
     0
 10
0.0
 20
0.0
 30
0.0
 11
-1.0
 21
0.0
 31
0.0
  0
ENDBLK
  5
4ABD
  8
0
  0
BLOCK
  8
0
  2
GENAXEH
 70
     0
 10
0.0
 20
0.0
 30
0.0
  3
GENAXEH
  1

  0
LINE
  5
4AF5
  8
0
 10
-1.0
 20
0.0
 30
0.0
 11
1.0
 21
0.0
 31
0.0
  0
ENDBLK
  5
4AF6
  8
0
  0
BLOCK
  8
0
  2
_OPEN30
 70
     0
 10
0.0
 20
0.0
 30
0.0
  3
_OPEN30
  1

  0
LINE
  5
4B31
  8
0
  6
BYBLOCK
 62
     0
 10
-1.0
 20
0.26794919
 30
0.0
 11
0.0
 21
0.0
 31
0.0
  0
LINE
  5
4B32
  8
0
  6
BYBLOCK
 62
     0
 10
0.0
 20
0.0
 30
0.0
 11
-1.0
 21
-0.26794919
 31
0.0
  0
LINE
  5
4B33
  8
0
  6
BYBLOCK
 62
     0
 10
0.0
 20
0.0
 30
0.0
 11
-1.0
 21
0.0
 31
0.0
  0
ENDBLK
  5
4B34
  8
0
  0
ENDSEC
  0
SECTION
  2
ENTITIES
  0
LINE
  5
44C6
  8
245
  6
CENTER2
 10
0.0000000000003411
 20
89.092469285125006
 30
0.0
 11
0.0000000000003411
 21
64.529422140724535
 31
0.0
  0
CIRCLE
  5
44EB
  8
241
  6
CONTINUOUS
 10
0.0
 20
0.0
 30
0.0
 40
21.5
  0
LINE
  5
44EE
  8
245
  6
CENTER2
 10
-33.606074464236031
 20
0.0
 30
0.0
 11
263.43173549347262
 21
0.0
 31
0.0
  0
LINE
  5
44EF
  8
245
  6
CENTER2
 10
0.0
 20
33.755773668648487
 30
0.0
 11
0.0
 21
-33.406678938918454
 31
0.0
  0
ARC
  5
44F0
  8
240
  6
CONTINUOUS
 10
0.0
 20
0.0
 30
0.0
 40
30.800000000000001
 50
55.320739949732349
 51
112.903807547911
  0
ARC
  5
44F1
  8
240
  6
CONTINUOUS
 10
0.0
 20
0.0
 30
0.0
 40
30.800000000000001
 50
55.32073994973188
 51
306.55842499506008
  0
ARC
  5
44F2
  8
240
  6
CONTINUOUS
 10
45.973736397235591
 20
66.445884460043771
 30
0.0
 40
50.0
 50
235.3207399497324
 51
263.00000000000051
1001
ASK_MEN_XD
1005
44FD
1070
     1
1005
44F0
1070
     1
  0
ARC
  5
44F3
  8
241
  6
CONTINUOUS
 10
0.0
 20
0.0
 30
0.0
 40
33.0
 50
342.42958082994369
 51
17.570419170055551
  0
ARC
  5
44F4
  8
241
  6
CONTINUOUS
 10
33.367132720176748
 20
10.56572070585395
 30
0.0
 40
2.0
 50
82.999999999997314
 51
197.57041917005549
1001
ASK_MEN_XD
1005
4506
1070
     1
1005
44F3
1070
     1
  0
ARC
  5
44F5
  8
241
  6
CONTINUOUS
 10
33.367132720176748
 20
-10.565720705854
 30
0.0
 40
2.0
 50
162.4295808299444
 51
276.99999999999949
1001
ASK_MEN_XD
1005
4507
1070
     1
1005
44F3
1070
     1
  0
ARC
  5
44F6
  8
241
  6
CONTINUOUS
 10
0.0
 20
0.0
 30
0.0
 40
29.998018119643689
 50
328.66856871086338
 51
31.651988866704261
  0
ARC
  5
44F7
  8
240
  6
CONTINUOUS
 10
246.0
 20
0.0
 30
0.0
 40
14.0
 50
268.50000000000063
 51
91.499999999999474
  0
LINE
  5
44F8
  8
245
  6
CENTER2
 10
246.0
 20
16.800000000000011
 30
0.0
 11
246.0
 21
-16.800000000000011
 31
0.0
  0
LINE
  5
44F9
  8
240
  6
CONTINUOUS
 10
245.63352272368991
 20
13.995202549657851
 30
0.0
 11
102.42873715880189
 21
10.24525326652474
 31
0.0
  0
ARC
  5
44FA
  8
240
  6
CONTINUOUS
 10
99.811042328015503
 20
110.2109857640805
 30
0.0
 40
100.0
 50
263.00000000000051
 51
271.49999999999937
1001
ASK_MEN_XD
1005
44FD
1070
     1
1005
44F9
1070
     1
  0
LINE
  5
44FB
  8
240
  6
CONTINUOUS
 10
245.63352272368991
 20
-13.9952025496579
 30
0.0
 11
102.42873715880189
 21
-10.24525326652474
 31
0.0
  0
LINE
  5
44FC
  8
241
  6
CONTINUOUS
 10
95.0
 20
10.32678345101175
 30
0.0
 11
95.0
 21
-10.326783451011799
 31
0.0
  0
LINE
  5
44FD
  8
240
  6
CONTINUOUS
 10
87.624107987501702
 20
10.956370599948171
 30
0.0
 11
39.880269226978669
 21
16.818576877977652
 31
0.0
  0
ARC
  5
44FE
  8
240
  6
CONTINUOUS
 10
45.973736397235591
 20
-66.445884460043828
 30
0.0
 40
50.0
 50
96.999999999999446
 51
124.6792600502676
1001
ASK_MEN_XD
1005
44FD
1070
     1
1005
44F0
1070
     1
  0
ARC
  5
44FF
  8
240
  6
CONTINUOUS
 10
99.811042328015503
 20
-110.2109857640805
 30
0.0
 40
100.0
 50
88.50000000000054
 51
96.999999999999446
1001
ASK_MEN_XD
1005
44FD
1070
     1
1005
44F9
1070
     1
  0
LINE
  5
4500
  8
240
  6
CONTINUOUS
 10
87.624107987501702
 20
-10.956370599948229
 30
0.0
 11
39.880269226978733
 21
-16.818576877977659
 31
0.0
  0
ARC
  5
4501
  8
241
  6
CONTINUOUS
 10
0.0000000000000568
 20
0.0
 30
0.0
 40
84.0
 50
356.77696324431059
 51
3.223036755689396
  0
ARC
  5
4502
  8
241
  6
CONTINUOUS
 10
81.870295637473305
 20
-4.6102811446522187
 30
0.0
 40
2.0
 50
277.00000000000267
 51
356.77696324431059
1001
ASK_MEN_XD
1005
4501
1070
     1
1005
4507
1070
     1
  0
ARC
  5
4503
  8
241
  6
CONTINUOUS
 10
81.870295637473248
 20
4.610281144652105
 30
0.0
 40
2.0
 50
3.223036755689396
 51
83.000000000000568
1001
ASK_MEN_XD
1005
4501
1070
     1
1005
4506
1070
     1
  0
CIRCLE
  5
4504
  8
241
  6
CONTINUOUS
 10
246.0
 20
0.0
 30
0.0
 40
8.5
  0
LINE
  5
4505
  8
245
  6
CENTER2
 10
107.0
 20
-10.364955996756461
 30
0.0
 11
107.0
 21
-10.389557517779391
 31
0.0
  0
LINE
  5
4506
  8
241
  6
CONTINUOUS
 10
33.61087140698703
 20
12.55081300913662
 30
0.0
 11
82.114034324283537
 21
6.595373447934775
 31
0.0
  0
LINE
  5
4507
  8
241
  6
CONTINUOUS
 10
82.11403432428358
 20
-6.595373447934775
 30
0.0
 11
33.61087140698703
 21
-12.55081300913667
 31
0.0
  0
LINE
  5
4548
  8
241
  6
CONTINUOUS
 10
221.90574269877189
 20
8.3721548004602937
 30
0.0
 11
112.8744926593608
 21
5.517071038338826
 31
0.0
  0
LINE
  5
4549
  8
241
  6
CONTINUOUS
 10
221.90574269877189
 20
-8.3721548004604074
 30
0.0
 11
112.8744926593607
 21
-5.5170710383388828
 31
0.0
  0
ARC
  5
454A
  8
241
  6
CONTINUOUS
 10
222.12497528774179
 20
0.0
 30
0.0
 40
8.3750247122582664
 50
268.50000000000063
 51
91.499999999999474
  0
ARC
  5
454B
  8
241
  6
CONTINUOUS
 10
113.01896224886229
 20
-0.0000000000000568
 30
0.0
 40
5.518962248862322
 50
91.499999999999474
 51
268.50000000000063
  0
LINE
  5
454C
  8
241
  6
CONTINUOUS
 10
42.22086131967194
 20
-6.9052239418741967
 30
0.0
 11
44.514459475609897
 21
-5.1768737621588619
 31
0.0
  0
LINE
  5
454D
  8
241
  6
CONTINUOUS
 10
38.625570586720812
 20
-10.517611344488641
 30
0.0
 11
38.625570586720812
 21
-7.2509446778218773
 31
0.0
  0
LINE
  5
454E
  8
241
  6
CONTINUOUS
 10
41.784684733082543
 20
4.6460756102800644
 30
0.0
 11
42.860647093890009
 21
4.8747784701796766
 31
0.0
  0
LINE
  5
454F
  8
241
  6
CONTINUOUS
 10
34.625570586721039
 20
-10.517611344488641
 30
0.0
 11
38.625570586720983
 21
-10.517611344488641
 31
0.0
  0
LINE
  5
4550
  8
241
  6
CONTINUOUS
 10
43.165774977076801
 20
-4.8655054115883161
 30
0.0
 11
44.514459475608362
 21
-5.1768737621634102
 31
0.0
  0
LINE
  5
4551
  8
241
  6
CONTINUOUS
 10
40.91704780284612
 20
-4.3463458365388021
 30
0.0
 11
42.090377242208881
 21
-4.6172302817988387
 31
0.0
  0
LINE
  5
4552
  8
241
  6
CONTINUOUS
 10
40.917047802849702
 20
-4.3463458365344252
 30
0.0
 11
42.220861319674441
 21
-6.9052239418741967
 31
0.0
  0
LINE
  5
4553
  8
241
  6
CONTINUOUS
 10
34.625570586721039
 20
-9.9176113444886767
 30
0.0
 11
38.025570586720853
 21
-9.9176113444886767
 31
0.0
  0
LINE
  5
4554
  8
241
  6
CONTINUOUS
 10
38.025570586720853
 20
-9.9176113444886767
 30
0.0
 11
38.025570586720853
 21
-7.2509446778218773
 31
0.0
  0
LINE
  5
4555
  8
241
  6
CONTINUOUS
 10
38.025570586720853
 20
-7.2509446778218773
 30
0.0
 11
38.625570586720812
 21
-7.2509446778218773
 31
0.0
  0
LINE
  5
4556
  8
241
  6
CONTINUOUS
 10
34.625570586721039
 20
-10.517611344488641
 30
0.0
 11
34.625570586721039
 21
-9.9176113444886767
 31
0.0
  0
LINE
  5
4557
  8
241
  6
CONTINUOUS
 10
34.625570586721039
 20
7.9823886555115271
 30
0.0
 11
36.380203330146287
 21
7.9823886555115271
 31
0.0
  0
LINE
  5
4558
  8
241
  6
CONTINUOUS
 10
34.625570586721039
 20
7.3823886555115052
 30
0.0
 11
38.625570586720983
 21
7.3823886555115052
 31
0.0
  0
LINE
  5
4559
  8
241
  6
CONTINUOUS
 10
36.370785742594762
 20
8.8825552420144902
 30
0.0
 11
35.068661883077937
 21
10.30869089767574
 31
0.0
  0
LINE
  5
455A
  8
241
  6
CONTINUOUS
 10
36.380203330146287
 20
7.9823886555115271
 30
0.0
 11
34.625570586721039
 21
9.9041292792629463
 31
0.0
  0
LINE
  5
455B
  8
241
  6
CONTINUOUS
 10
36.775885593881981
 20
8.4388744525094523
 30
0.0
 11
38.625570586720933
 21
9.9605803796009411
 31
0.0
  0
LINE
  5
455C
  8
241
  6
CONTINUOUS
 10
36.370785742594762
 20
8.8825552420144334
 30
0.0
 11
38.244379749214367
 21
10.42393072804262
 31
0.0
  0
LINE
  5
455D
  8
241
  6
CONTINUOUS
 10
38.625570586720983
 20
7.3823886555115052
 30
0.0
 11
38.625570586720983
 21
7.9823886555115271
 31
0.0
  0
LINE
  5
455E
  8
241
  6
CONTINUOUS
 10
34.625570586721039
 20
7.3823886555115052
 30
0.0
 11
34.625570586721039
 21
7.9823886555115271
 31
0.0
  0
LINE
  5
455F
  8
241
  6
CONTINUOUS
 10
38.244379749214367
 20
10.42393072804262
 30
0.0
 11
38.625570586720933
 21
9.9605803796009411
 31
0.0
  0
LINE
  5
4560
  8
241
  6
CONTINUOUS
 10
34.625570586721039
 20
9.9041292792629463
 30
0.0
 11
35.068661883077937
 21
10.30869089767574
 31
0.0
  0
LINE
  5
4561
  8
241
  6
CONTINUOUS
 10
37.192676973749663
 20
7.9823886555115271
 30
0.0
 11
36.775885593881981
 21
8.4388744525094523
 31
0.0
  0
LINE
  5
4562
  8
241
  6
CONTINUOUS
 10
37.192676973749663
 20
7.9823886555115271
 30
0.0
 11
38.625570586720983
 21
7.9823886555115271
 31
0.0
  0
LINE
  5
4563
  8
241
  6
CONTINUOUS
 10
36.258903920053967
 20
-4.7514525787745754
 30
0.0
 11
36.992237253387493
 21
-4.7514525787745754
 31
0.0
  0
LINE
  5
4564
  8
241
  6
CONTINUOUS
 10
36.258903920053967
 20
-1.484785912107923
 30
0.0
 11
36.992237253387493
 21
-1.484785912107923
 31
0.0
  0
LINE
  5
4565
  8
241
  6
CONTINUOUS
 10
36.258903920053967
 20
-4.1514525787746086
 30
0.0
 11
36.992237253387493
 21
-4.1514525787746086
 31
0.0
  0
LINE
  5
4566
  8
241
  6
CONTINUOUS
 10
36.258903920053967
 20
-2.0847859121079462
 30
0.0
 11
36.992237253387493
 21
-2.0847859121079462
 31
0.0
  0
LINE
  5
4567
  8
241
  6
CONTINUOUS
 10
36.258903920053967
 20
1.9154680383685161
 30
0.0
 11
36.992237253387493
 21
1.9154680383685161
 31
0.0
  0
LINE
  5
4568
  8
241
  6
CONTINUOUS
 10
36.258903920053967
 20
1.31546803836855
 30
0.0
 11
36.992237253387493
 21
1.31546803836855
 31
0.0
  0
LINE
  5
4569
  8
241
  6
CONTINUOUS
 10
35.991457573448088
 20
3.9469247255338749
 30
0.0
 11
35.836166146386567
 21
4.5264802213073088
 31
0.0
  0
LINE
  5
456A
  8
241
  6
CONTINUOUS
 10
37.259683599993423
 20
3.9469247255338749
 30
0.0
 11
37.414975027054943
 21
4.5264802213073088
 31
0.0
  0
ARC
  5
456B
  8
241
  6
CONTINUOUS
 10
15.961588073709491
 20
-0.8427930273085451
 30
0.0
 40
26.400000000000009
 50
351.78019184719898
 51
11.99999999999979
  0
ARC
  5
456C
  8
241
  6
CONTINUOUS
 10
15.961588073709491
 20
-0.8427930273085451
 30
0.0
 40
27.5
 50
351.58856573578748
 51
11.99999999999979
  0
ARC
  5
456D
  8
241
  6
CONTINUOUS
 10
36.992237253387493
 20
-3.1181192454412492
 30
0.0
 40
1.633333333333314
 50
270.0
 51
90.0
  0
ARC
  5
456E
  8
241
  6
CONTINUOUS
 10
36.258903920053967
 20
-3.1181192454412492
 30
0.0
 40
1.633333333333314
 50
90.0
 51
270.0
  0
ARC
  5
456F
  8
241
  6
CONTINUOUS
 10
36.992237253387493
 20
-3.1181192454412492
 30
0.0
 40
1.0333333333333139
 50
270.0
 51
90.0
  0
ARC
  5
4570
  8
241
  6
CONTINUOUS
 10
36.258903920053967
 20
-3.1181192454412492
 30
0.0
 40
1.0333333333333139
 50
90.0
 51
270.0
  0
ARC
  5
4571
  8
241
  6
CONTINUOUS
 10
36.258903920053967
 20
2.9488013717018751
 30
0.0
 40
1.0333333333333139
 50
105.00000000000109
 51
270.0
  0
ARC
  5
4572
  8
241
  6
CONTINUOUS
 10
36.258903920053967
 20
2.9488013717018751
 30
0.0
 40
1.633333333333314
 50
105.00000000000109
 51
270.0
  0
ARC
  5
4573
  8
241
  6
CONTINUOUS
 10
36.992237253387493
 20
2.9488013717018751
 30
0.0
 40
1.633333333333314
 50
270.0
 51
74.999999999998835
  0
ARC
  5
4574
  8
241
  6
CONTINUOUS
 10
36.992237253387493
 20
2.9488013717018751
 30
0.0
 40
1.0333333333333139
 50
270.0
 51
74.999999999998835
  0
CIRCLE
  5
4675
  8
241
  6
CONTINUOUS
 10
0.0
 20
0.0
 30
0.0
 40
29.0
  0
LINE
  5
4677
  8
245
  6
CENTER2
 10
0.0000000000003411
 20
89.092469285125006
 30
0.0
 11
0.0000000000003411
 21
64.529422140724535
 31
0.0
  0
LINE
  5
4678
  8
241
  6
CONTINUOUS
 10
-30.789698216951241
 20
76.249999999999844
 30
0.0
 11
259.98241220842488
 21
76.249999999999829
 31
0.0
  0
LINE
  5
4679
  8
241
  6
CONTINUOUS
 10
-30.789698216951241
 20
77.749999999999844
 30
0.0
 11
259.98241220842488
 21
77.749999999999744
 31
0.0
  0
LINE
  5
467B
  8
240
  6
CONTINUOUS
 10
-27.58407563213893
 20
86.749999999999488
 30
0.0
 11
27.584075632139498
 21
86.749999999999972
 31
0.0
  0
LINE
  5
467C
  8
240
  6
CONTINUOUS
 10
-27.58407563213882
 20
67.249999999999829
 30
0.0
 11
27.584075632139559
 21
67.249999999999829
 31
0.0
  0
ARC
  5
467E
  8
240
  6
CONTINUOUS
 10
-3.4937499999998631
 20
76.999999999999829
 30
0.0
 40
27.306249999999839
 50
162.16671019540661
 51
197.83328980459331
  0
ARC
  5
467F
  8
240
  6
CONTINUOUS
 10
3.4937500000005448
 20
76.999999999999829
 30
0.0
 40
27.306249999999839
 50
342.16671019540672
 51
343.05380465712318
  0
ARC
  5
4680
  8
240
  6
CONTINUOUS
 10
3.4937500000005448
 20
76.999999999999829
 30
0.0
 40
27.306249999999839
 50
16.94619534287677
 51
17.83328980459504
  0
ARC
  5
4681
  8
240
  6
CONTINUOUS
 10
30.570911241832849
 20
85.250522901386447
 30
0.0
 40
1.0
 50
196.94619534287631
 51
267.9999999999996
1001
ASK_MEN_XD
1005
46A0
1070
     1
1005
4680
1070
     1
  0
ARC
  5
4684
  8
240
  6
CONTINUOUS
 10
-27.58407563213893
 20
84.749999999999517
 30
0.0
 40
2.0
 50
90.0
 51
162.16671019540661
  0
ARC
  5
4685
  8
240
  6
CONTINUOUS
 10
-27.58407563213882
 20
69.249999999999815
 30
0.0
 40
2.0
 50
197.83328980459331
 51
270.0
  0
ARC
  5
4688
  8
240
  6
CONTINUOUS
 10
27.584075632139498
 20
84.749999999999943
 30
0.0
 40
2.0
 50
17.83328980459504
 51
90.0
  0
ARC
  5
4689
  8
240
  6
CONTINUOUS
 10
27.584075632139559
 20
69.249999999999815
 30
0.0
 40
2.0
 50
270.0
 51
342.16671019540672
  0
LINE
  5
468A
  8
240
  6
CONTINUOUS
 10
256.8452325786655
 20
81.999999999999829
 30
0.0
 11
96.745506492821946
 21
81.999999999999829
 31
0.0
  0
LINE
  5
468B
  8
240
  6
CONTINUOUS
 10
256.8452325786655
 20
71.999999999999829
 30
0.0
 11
96.745506492822884
 21
71.999999999999829
 31
0.0
  0
ARC
  5
468C
  8
240
  6
CONTINUOUS
 10
96.745506492822884
 20
-28.000000000000171
 30
0.0
 40
100.0
 50
90.0
 51
92.000000000000398
1001
ASK_MEN_XD
1005
46A3
1070
     1
1005
468B
1070
     1
  0
ARC
  5
468D
  8
240
  6
CONTINUOUS
 10
244.00000000000031
 20
76.999999999999829
 30
0.0
 40
16.0
 50
351.15011690157058
 51
8.8498830984294123
  0
ARC
  5
468E
  8
240
  6
CONTINUOUS
 10
256.8452325786655
 20
74.999999999999829
 30
0.0
 40
3.0
 50
270.0
 51
351.15011690157058
1001
ASK_MEN_XD
1005
468D
1070
     1
1005
468B
1070
     1
  0
ARC
  5
468F
  8
240
  6
CONTINUOUS
 10
256.8452325786655
 20
78.999999999999829
 30
0.0
 40
3.0
 50
8.8498830984294123
 51
89.999999999996746
1001
ASK_MEN_XD
1005
468D
1070
     1
1005
468A
1070
     1
  0
LINE
  5
46A0
  8
240
  6
CONTINUOUS
 10
93.255556822571165
 20
82.060917298090288
 30
0.0
 11
30.536011745130399
 21
84.25113207436732
 31
0.0
  0
ARC
  5
46A1
  8
240
  6
CONTINUOUS
 10
96.745506492821946
 20
181.9999999999998
 30
0.0
 40
100.0
 50
267.9999999999996
 51
270.0
1001
ASK_MEN_XD
1005
468A
1070
     1
1005
46A0
1070
     1
  0
ARC
  5
46A2
  8
240
  6
CONTINUOUS
 10
30.570911241832849
 20
68.749477098613227
 30
0.0
 40
1.0
 50
92.000000000000398
 51
163.05380465712321
1001
ASK_MEN_XD
1005
46A0
1070
     1
1005
4680
1070
     1
  0
LINE
  5
46A3
  8
240
  6
CONTINUOUS
 10
93.255556822572032
 20
71.939082701909399
 30
0.0
 11
30.536011745130399
 21
69.748867925632339
 31
0.0
  0
CIRCLE
  5
486F
  8
246
 10
0.0
 20
0.0
 30
0.0
 40
21.0
  0
LINE
  5
4870
  8
246
  6
PHANTOM2
 10
-20.999999999999659
 20
86.749999999999545
 30
0.0
 11
-20.999999999999659
 21
67.249999999999829
 31
0.0
  0
LINE
  5
4871
  8
246
  6
PHANTOM2
 10
21.000000000000341
 20
86.749999999999929
 30
0.0
 11
21.000000000000341
 21
67.249999999999829
 31
0.0
  0
LINE
  5
4983
  8
250
  6
CONTINUOUS
 10
260.0
 20
0.5
 30
0.0
 11
260.0
 21
50.0
 31
0.0
  0
LINE
  5
4984
  8
250
  6
CONTINUOUS
 10
-30.800000000000001
 20
0.5
 30
0.0
 11
-30.800000000000001
 21
50.0
 31
0.0
  0
LINE
  5
4985
  8
250
  6
CONTINUOUS
 10
257.76999999999998
 20
49.0
 30
0.0
 11
-28.57
 21
49.0
 31
0.0
  0
LINE
  5
4989
  8
250
  6
CONTINUOUS
 10
0.0
 20
34.255773668648487
 30
0.0
 11
0.0000000000000006
 21
43.0
 31
0.0
  0
LINE
  5
498A
  8
250
  6
CONTINUOUS
 10
260.0
 20
0.5
 30
0.0
 11
260.0
 21
43.0
 31
0.0
  0
LINE
  5
498B
  8
250
  6
CONTINUOUS
 10
2.23
 20
42.0
 30
0.0
 11
257.76999999999998
 21
42.0
 31
0.0
  0
LINE
  5
498F
  8
250
  6
CONTINUOUS
 10
-30.800000000000001
 20
0.5
 30
0.0
 11
-30.800000000000001
 21
43.0
 31
0.0
  0
LINE
  5
4990
  8
250
  6
CONTINUOUS
 10
0.0
 20
34.255773668648487
 30
0.0
 11
0.0000000000000006
 21
43.0
 31
0.0
  0
LINE
  5
4991
  8
250
  6
CONTINUOUS
 10
-28.57
 20
42.0
 30
0.0
 11
-2.2299999999999991
 21
42.0
 31
0.0
  0
LINE
  5
4995
  8
250
  6
CONTINUOUS
 10
-20.999999999999659
 20
87.249999999999545
 30
0.0
 11
-20.999999999999659
 21
99.0
 31
0.0
  0
LINE
  5
4996
  8
250
  6
CONTINUOUS
 10
21.000000000000341
 20
87.249999999999915
 30
0.0
 11
21.000000000000341
 21
99.0
 31
0.0
  0
LINE
  5
4997
  8
250
  6
CONTINUOUS
 10
-18.769999999999659
 20
98.0
 30
0.0
 11
18.770000000000341
 21
98.0
 31
0.0
  0
TEXT
  5
499B
  8
250
  6
CONTINUOUS
 10
-3.9333333333329912
 20
99.000000000000014
 30
0.0
 40
2.7999999999999989
  1
\U+220542
  0
LINE
  5
499C
  8
250
  6
CONTINUOUS
 10
18.770000000000341
 20
98.371666666666684
 30
0.0
 11
21.000000000000341
 21
98.0
 31
0.0
  0
LINE
  5
499D
  8
250
  6
CONTINUOUS
 10
18.770000000000341
 20
97.62833333333333
 30
0.0
 11
21.000000000000341
 21
98.0
 31
0.0
  0
LINE
  5
499E
  8
250
  6
CONTINUOUS
 10
21.000000000000341
 20
98.0
 30
0.0
 11
18.770000000000341
 21
98.0
 31
0.0
  0
LINE
  5
499F
  8
250
  6
CONTINUOUS
 10
-18.769999999999659
 20
97.62833333333333
 30
0.0
 11
-20.999999999999659
 21
98.0
 31
0.0
  0
LINE
  5
49A0
  8
250
  6
CONTINUOUS
 10
-18.769999999999659
 20
98.371666666666684
 30
0.0
 11
-20.999999999999659
 21
98.0
 31
0.0
  0
LINE
  5
49A1
  8
250
  6
CONTINUOUS
 10
-20.999999999999659
 20
98.0
 30
0.0
 11
-18.769999999999659
 21
98.0
 31
0.0
  0
TEXT
  5
49A2
  8
250
  6
CONTINUOUS
 10
108.59999999999999
 20
50.0
 30
0.0
 40
2.7999999999999989
  1
290.8
  0
LINE
  5
49A3
  8
250
  6
CONTINUOUS
 10
-28.57
 20
48.62833333333333
 30
0.0
 11
-30.800000000000001
 21
49.0
 31
0.0
  0
LINE
  5
49A4
  8
250
  6
CONTINUOUS
 10
-28.57
 20
49.37166666666667
 30
0.0
 11
-30.800000000000001
 21
49.0
 31
0.0
  0
LINE
  5
49A5
  8
250
  6
CONTINUOUS
 10
-30.800000000000001
 20
49.0
 30
0.0
 11
-28.57
 21
49.0
 31
0.0
  0
LINE
  5
49A6
  8
250
  6
CONTINUOUS
 10
257.76999999999998
 20
49.37166666666667
 30
0.0
 11
260.0
 21
49.0
 31
0.0
  0
LINE
  5
49A7
  8
250
  6
CONTINUOUS
 10
257.76999999999998
 20
48.62833333333333
 30
0.0
 11
260.0
 21
49.0
 31
0.0
  0
LINE
  5
49A8
  8
250
  6
CONTINUOUS
 10
260.0
 20
49.0
 30
0.0
 11
257.76999999999998
 21
49.0
 31
0.0
  0
TEXT
  5
49A9
  8
250
  6
CONTINUOUS
 10
126.0
 20
43.0
 30
0.0
 40
2.7999999999999989
  1
260
  0
LINE
  5
49AA
  8
250
  6
CONTINUOUS
 10
257.76999999999998
 20
42.371666666666663
 30
0.0
 11
260.0
 21
42.0
 31
0.0
  0
LINE
  5
49AB
  8
250
  6
CONTINUOUS
 10
257.76999999999998
 20
41.62833333333333
 30
0.0
 11
260.0
 21
42.0
 31
0.0
  0
LINE
  5
49AC
  8
250
  6
CONTINUOUS
 10
260.0
 20
42.0
 30
0.0
 11
257.76999999999998
 21
42.0
 31
0.0
  0
LINE
  5
49AD
  8
250
  6
CONTINUOUS
 10
2.23
 20
41.62833333333333
 30
0.0
 11
0.0000000000000005
 21
42.0
 31
0.0
  0
LINE
  5
49AE
  8
250
  6
CONTINUOUS
 10
2.23
 20
42.371666666666663
 30
0.0
 11
0.0000000000000005
 21
42.0
 31
0.0
  0
LINE
  5
49AF
  8
250
  6
CONTINUOUS
 10
0.0000000000000005
 20
42.0
 30
0.0
 11
2.23
 21
42.0
 31
0.0
  0
TEXT
  5
49B0
  8
250
  6
CONTINUOUS
 10
-20.066666666666659
 20
43.0
 30
0.0
 40
2.7999999999999989
  1
30.8
  0
LINE
  5
49B1
  8
250
  6
CONTINUOUS
 10
-2.2299999999999991
 20
42.371666666666663
 30
0.0
 11
0.0000000000000005
 21
42.0
 31
0.0
  0
LINE
  5
49B2
  8
250
  6
CONTINUOUS
 10
-2.2299999999999991
 20
41.62833333333333
 30
0.0
 11
0.0000000000000005
 21
42.0
 31
0.0
  0
LINE
  5
49B3
  8
250
  6
CONTINUOUS
 10
0.0000000000000005
 20
42.0
 30
0.0
 11
-2.2299999999999991
 21
42.0
 31
0.0
  0
LINE
  5
49B4
  8
250
  6
CONTINUOUS
 10
-28.57
 20
41.62833333333333
 30
0.0
 11
-30.800000000000001
 21
42.0
 31
0.0
  0
LINE
  5
49B5
  8
250
  6
CONTINUOUS
 10
-28.57
 20
42.371666666666663
 30
0.0
 11
-30.800000000000001
 21
42.0
 31
0.0
  0
LINE
  5
49B6
  8
250
  6
CONTINUOUS
 10
-30.800000000000001
 20
42.0
 30
0.0
 11
-28.57
 21
42.0
 31
0.0
  0
TEXT
  5
4A07
  8
241
  6
CONTINUOUS
 10
-28.0
 20
112.0
 30
0.0
 40
4.0
  1
MGR42L
  7
YOKO
  0
LINE
  5
4A11
  8
245
 10
-31.765078011572431
 20
76.999999999999815
 30
0.0
 11
270.54818017728348
 21
76.999999999999815
 31
0.0
  0
VIEWPORT
  5
22
 67
     1
  8
0
 10
261.51769911504419
 20
148.5
 30
0.0
 40
523.0353982300885
 41
297.0
 68
     1
 69
     1
1001
ACAD
1000
MVIEW
1002
{
1070
    16
1010
0.0
1020
0.0
1030
0.0
1010
0.0
1020
0.0
1030
1.0
1040
0.0
1040
297.0
1040
261.51769911504419
1040
148.5
1040
50.0
1040
0.0
1040
0.0
1070
     0
1070
   100
1070
     1
1070
     1
1070
     0
1070
     0
1070
     0
1070
     0
1040
0.0
1040
0.0
1040
0.0
1040
1.0
1040
1.0
1040
10.0
1040
10.0
1070
     0
1002
{
1002
}
1002
}
1001
GENIUS_GENODEF_13
1002
{
1000
HIER
1070
     0
1002
}
1002
{
1000
MANEDIT
1070
     0
1002
}
1002
{
1000
NOSEL
1070
     0
1002
}
1002
{
1000
BEHIND
1070
     0
1002
}
1002
{
1000
OTHER
1070
     0
1002
}
1002
{
1000
REACTOR
1002
}
1001
GENIUS_GENOBJ-N-SDF_13
1002
{
1000
OWNER
1000
GEN
1002
}
1001
GENIUS_GENSCREG_15
1000
PF
1040
1.0
1000
DF
1040
1.0
1000
MIN
1011
0.0
1021
0.0
1031
0.0
1021
0.0
1031
0.0
1000
MAX
1011
523.0353982300885
1021
0.0
1031
0.0
1021
297.0
1031
0.0
1000
FLAGS
1070
     4
  0
ENDSEC
  0
EOF
