  0
SECTION
  2
HEADER
  9
$ACADVER
  1
AC1009
  9
$INSBASE
 10
0.0
 20
0.0
 30
0.0
  9
$EXTMIN
 10
-34.238095238095241
 20
-31.805704393475992
 30
0.0
  9
$EXTMAX
 10
171.9946609243446
 20
123.0
 30
0.0
  9
$LIMMIN
 10
0.0
 20
0.0
  9
$LIMMAX
 10
297.0
 20
210.0
  9
$ORTHOMODE
 70
     0
  9
$REGENMODE
 70
     1
  9
$FILLMODE
 70
     1
  9
$QTEXTMODE
 70
     0
  9
$MIRRTEXT
 70
     1
  9
$DRAGMODE
 70
     2
  9
$LTSCALE
 40
10.0
  9
$OSMODE
 70
    37
  9
$ATTMODE
 70
     1
  9
$TEXTSIZE
 40
3.0
  9
$TRACEWID
 40
1.0
  9
$TEXTSTYLE
  7
YOKO
  9
$CLAYER
  8
240
  9
$CELTYPE
  6
BYLAYER
  9
$CECOLOR
 62
   256
  9
$DIMSCALE
 40
1.0
  9
$DIMASZ
 40
2.2299999999999991
  9
$DIMEXO
 40
0.5
  9
$DIMDLI
 40
7.0
  9
$DIMRND
 40
0.0
  9
$DIMDLE
 40
0.0
  9
$DIMEXE
 40
1.0
  9
$DIMTP
 40
0.0
  9
$DIMTM
 40
0.01
  9
$DIMTXT
 40
2.7999999999999989
  9
$DIMCEN
 40
0.0
  9
$DIMTSZ
 40
0.0
  9
$DIMTOL
 70
     0
  9
$DIMLIM
 70
     0
  9
$DIMTIH
 70
     0
  9
$DIMTOH
 70
     0
  9
$DIMSE1
 70
     0
  9
$DIMSE2
 70
     0
  9
$DIMTAD
 70
     3
  9
$DIMZIN
 70
     9
  9
$DIMBLK
  1
OPEN
  9
$DIMASO
 70
     1
  9
$DIMSHO
 70
     1
  9
$DIMPOST
  1

  9
$DIMAPOST
  1

  9
$DIMALT
 70
     0
  9
$DIMALTD
 70
     2
  9
$DIMALTF
 40
25.399999999999999
  9
$DIMLFAC
 40
1.0
  9
$DIMTOFL
 70
     1
  9
$DIMTVP
 40
0.0
  9
$DIMTIX
 70
     1
  9
$DIMSOXD
 70
     0
  9
$DIMSAH
 70
     0
  9
$DIMBLK1
  1

  9
$DIMBLK2
  1

  9
$DIMSTYLE
  2
BIGT
  9
$DIMCLRD
 70
   256
  9
$DIMCLRE
 70
   256
  9
$DIMCLRT
 70
    40
  9
$DIMTFAC
 40
1.0
  9
$DIMGAP
 40
1.0
  9
$LUNITS
 70
     2
  9
$LUPREC
 70
     6
  9
$SKETCHINC
 40
1.0
  9
$FILLETRAD
 40
0.0
  9
$AUNITS
 70
     0
  9
$AUPREC
 70
     6
  9
$MENU
  1
.
  9
$ELEVATION
 40
0.0
  9
$PELEVATION
 40
0.0
  9
$THICKNESS
 40
0.0
  9
$LIMCHECK
 70
     0
  9
$BLIPMODE
 70
     0
  9
$CHAMFERA
 40
0.2
  9
$CHAMFERB
 40
0.2
  9
$SKPOLY
 70
     0
  9
$TDCREATE
 40
2459494.6119863889
  9
$TDUPDATE
 40
2459494.6197849419
  9
$TDINDWG
 40
0.0075631481
  9
$TDUSRTIMER
 40
0.0075631134
  9
$USRTIMER
 70
     1
  9
$ANGBASE
 50
0.0
  9
$ANGDIR
 70
     0
  9
$PDMODE
 70
     1
  9
$PDSIZE
 40
0.0
  9
$PLINEWID
 40
0.0
  9
$COORDS
 70
     1
  9
$SPLFRAME
 70
     0
  9
$SPLINETYPE
 70
     6
  9
$SPLINESEGS
 70
     4
  9
$ATTDIA
 70
     1
  9
$ATTREQ
 70
     1
  9
$HANDLING
 70
     1
  9
$HANDSEED
  5
4950
  9
$SURFTAB1
 70
     6
  9
$SURFTAB2
 70
     6
  9
$SURFTYPE
 70
     6
  9
$SURFU
 70
     6
  9
$SURFV
 70
     6
  9
$UCSNAME
  2

  9
$UCSORG
 10
0.0
 20
0.0
 30
0.0
  9
$UCSXDIR
 10
1.0
 20
0.0
 30
0.0
  9
$UCSYDIR
 10
0.0
 20
1.0
 30
0.0
  9
$PUCSNAME
  2

  9
$PUCSORG
 10
0.0
 20
0.0
 30
0.0
  9
$PUCSXDIR
 10
1.0
 20
0.0
 30
0.0
  9
$PUCSYDIR
 10
0.0
 20
1.0
 30
0.0
  9
$USERI1
 70
     1
  9
$USERI2
 70
     0
  9
$USERI3
 70
     0
  9
$USERI4
 70
     0
  9
$USERI5
 70
     0
  9
$USERR1
 40
0.0
  9
$USERR2
 40
0.0
  9
$USERR3
 40
0.0
  9
$USERR4
 40
0.0
  9
$USERR5
 40
0.0
  9
$WORLDVIEW
 70
     1
  9
$SHADEDGE
 70
     3
  9
$SHADEDIF
 70
    70
  9
$TILEMODE
 70
     1
  9
$MAXACTVP
 70
    16
  9
$PLIMCHECK
 70
     0
  9
$PEXTMIN
 10
1.0000000000000000E+020
 20
1.0000000000000000E+020
 30
1.0000000000000000E+020
  9
$PEXTMAX
 10
-1.0000000000000000E+020
 20
-1.0000000000000000E+020
 30
-1.0000000000000000E+020
  9
$PLIMMIN
 10
0.0
 20
0.0
  9
$PLIMMAX
 10
420.0
 20
297.0
  9
$UNITMODE
 70
     0
  9
$VISRETAIN
 70
     1
  9
$PLINEGEN
 70
     0
  9
$PSLTSCALE
 70
     1
  0
ENDSEC
  0
SECTION
  2
TABLES
  0
TABLE
  2
VPORT
 70
     1
  0
VPORT
  2
*ACTIVE
 70
     0
 10
0.0
 20
0.0
 11
1.0
 21
1.0
 12
95.580797245704616
 22
65.918705267429715
 13
0.0
 23
0.0
 14
7.0
 24
7.0
 15
7.0
 25
7.0
 16
0.0
 26
0.0
 36
1.0
 17
0.0
 27
0.0
 37
0.0
 40
251.65745890366281
 41
1.758883248730964
 42
50.0
 43
0.0
 44
0.0
 50
0.0
 51
0.0
 71
     0
 72
  2000
 73
     1
 74
     0
 75
     1
 76
     1
 77
     0
 78
     0
  0
ENDTAB
  0
TABLE
  2
LTYPE
 70
    13
  0
LTYPE
  2
CONTINUOUS
 70
     0
  3
Solid line
 72
    65
 73
     0
 40
0.0
  0
LTYPE
  2
CENTER2
 70
     0
  3
___ _ ___ _ ___ _ ___ _ ___ _ ___ _ ___ _ ___ _
 72
    65
 73
     4
 40
1.125
 49
0.75
 49
-0.125
 49
0.125
 49
-0.125
  0
LTYPE
  2
HIDDEN2
 70
     0
  3
_ _ _ _ _ _ _ _ _ _ _ _ _ _ _ _ _ _ _ _ _ _ _ _
 72
    65
 73
     2
 40
0.1875
 49
0.125
 49
-0.0625
  0
LTYPE
  2
PHANTOM2
 70
     0
  3
___ _ _ ___ _ _ ___ _ _ ___ _ _ ___ _ _ ___ _ _
 72
    65
 73
     6
 40
1.25
 49
0.625
 49
-0.125
 49
0.125
 49
-0.125
 49
0.125
 49
-0.125
  0
LTYPE
  2
AM_ISO02W050
 70
     0
  3
__ __ __ __ __ __ __ __ __ __ __ __ __ __ __
 72
    65
 73
     2
 40
7.5
 49
6.0
 49
-1.5
  0
LTYPE
  2
AMCONSTR
 70
     0
  3
_______________________
 72
    65
 73
     2
 40
9999.0
 49
9999.0
 49
0.0
  0
LTYPE
  2
ACISOWELD
 70
     0
  3
_ _ _ _ _
 72
    65
 73
     2
 40
2.0
 49
2.0
 49
-1.0
  0
LTYPE
  2
ACISOTGB
 70
     0
  3
__ . . __ . .
 72
    65
 73
     6
 40
9.0
 49
4.0
 49
-1.0
 49
1.0
 49
-1.0
 49
1.0
 49
-1.0
  0
LTYPE
  2
ACISOTGL
 70
     0
  3
_ _ _ _ _
 72
    65
 73
     2
 40
3.0
 49
2.0
 49
-1.0
  0
LTYPE
  2
ACJISTGB
 70
     0
  3
__ . . __ . .
 72
    65
 73
     6
 40
9.0
 49
4.0
 49
-1.0
 49
1.0
 49
-1.0
 49
1.0
 49
-1.0
  0
LTYPE
  2
ACJISTGL
 70
     0
  3
_ _ _ _ _
 72
    65
 73
     2
 40
3.0
 49
2.0
 49
-1.0
  0
ENDTAB
  0
TABLE
  2
LAYER
 70
     7
  0
LAYER
  2
0
 70
     0
 62
     7
  6
CONTINUOUS
  0
LAYER
  2
DEFPOINTS
 70
     0
 62
     7
  6
CONTINUOUS
  0
LAYER
  2
245
 70
     0
 62
     2
  6
CENTER2
  0
LAYER
  2
240
 70
     0
 62
     4
  6
CONTINUOUS
  0
LAYER
  2
241
 70
     0
 62
   211
  6
CONTINUOUS
  0
LAYER
  2
246
 70
     0
 62
     3
  6
PHANTOM2
  0
LAYER
  2
250
 70
     0
 62
     3
  6
CONTINUOUS
  0
ENDTAB
  0
TABLE
  2
STYLE
 70
     6
  0
STYLE
  2
STANDARD
 70
     0
 40
0.0
 41
1.0
 50
0.0
 71
     0
 42
3.0
  3
romans.shx
  4
extfont.shx
  0
STYLE
  2
ACISOTS
 70
     0
 40
1.0
 41
1.0
 50
0.0
 71
     0
 42
3.0
  3
amgdt.shx
  4
extfont.shx
  0
STYLE
  2
ACISOGDT
 70
     0
 40
0.0
 41
1.0
 50
0.0
 71
     0
 42
3.0
  3
amgdt.shx
  4
extfont.shx
  0
STYLE
  2
ACJISTS
 70
     0
 40
1.0
 41
1.0
 50
0.0
 71
     0
 42
3.0
  3
amgdt.shx
  4
extfont.shx
  0
STYLE
  2
ACJISGDT
 70
     0
 40
0.0
 41
1.0
 50
0.0
 71
     0
 42
3.0
  3
amgdt.shx
  4
extfont.shx
  0
STYLE
  2
YOKO
 70
     0
 40
0.0
 41
1.0
 50
0.0
 71
     0
 42
3.0
  3
romans.shx
  4
extfont.shx
  0
ENDTAB
  0
TABLE
  2
VIEW
 70
     0
  0
ENDTAB
  0
TABLE
  2
UCS
 70
     0
  0
ENDTAB
  0
TABLE
  2
APPID
 70
    40
  0
APPID
  2
ACAD
 70
     0
  0
APPID
  2
GLOBAL
 70
     0
  0
APPID
  2
DETAIL
 70
     0
  0
APPID
  2
GRPNAME
 70
     0
  0
APPID
  2
GPARA
 70
     0
  0
APPID
  2
MCAD_NO_VIS
 70
     0
  0
APPID
  2
ACAD_TEMP_GRAPHIC
 70
     0
  0
APPID
  2
ACATTRIBSERVICES
 70
     0
  0
APPID
  2
GENIUS_GENSCREG_15
 70
     0
  0
APPID
  2
GENIUS_GENODEF_13
 70
     0
  0
APPID
  2
GENIUS_GENOBJ-N-SDF_13
 70
     0
  0
APPID
  2
GENIUS_GENREC_14
 70
     0
  0
APPID
  2
GENIUS_GENOBJ-N-REC_13
 70
     0
  0
APPID
  2
GENIUS_GENDIMSH_14
 70
     0
  0
APPID
  2
GENIUS_GENOBJ-N-DIM_13
 70
     0
  0
APPID
  2
GENIUS_GENDIM_13
 70
     0
  0
APPID
  2
GENIUS_GENDTOL_13
 70
     0
  0
APPID
  2
GENIUS_GENOLIS_13
 70
     0
  0
APPID
  2
GENIUS_GENOENT_13
 70
     0
  0
APPID
  2
GENIUS_GENOBJ-F-FEM_13
 70
     0
  0
APPID
  2
GENIUS_GENOREF_13
 70
     0
  0
APPID
  2
GENIUS_GEFFEM_13
 70
     0
  0
APPID
  2
GENIUS_GEFFEMP_13
 70
     0
  0
APPID
  2
AD_DRAW
 70
     0
  0
APPID
  2
DESIGNERASSEMBLIES
 70
     0
  0
APPID
  2
ACADM_DIM_EDIT
 70
     0
  0
APPID
  2
AMDT_DM_ADJ
 70
     0
  0
APPID
  2
ITEMNAME
 70
     0
  0
APPID
  2
GENIUS_GENOBJ-N-FIL_13
 70
     0
  0
APPID
  2
GENIUS_GENFIL_13
 70
     0
  0
APPID
  2
GENIUS_GENOBJ-N-CHA_13
 70
     0
  0
APPID
  2
ACAD_NAV_VCDISPLAY
 70
     0
  0
APPID
  2
ACAECLAYERSTANDARD
 70
     0
  0
APPID
  2
GRADE_0
 70
     0
  0
APPID
  2
ACAD_PSEXT
 70
     0
  0
APPID
  2
ACAD_DSTYLE_DIMJAG
 70
     0
  0
APPID
  2
ACAD_DSTYLE_DIMTALN
 70
     0
  0
APPID
  2
ACAD_EXEMPT_FROM_CAD_STANDARDS
 70
     0
  0
APPID
  2
ACAD_DSTYLE_DIMINSPECT
 70
     0
  0
APPID
  2
ACAD_MLEADERVER
 70
     0
  0
ENDTAB
  0
TABLE
  2
DIMSTYLE
 70
    23
  0
DIMSTYLE
  2
BIGT
 70
     0
  3

  4

  5
OPEN
  6

  7

 40
1.0
 41
2.2299999999999991
 42
0.5
 43
7.0
 44
1.0
 45
0.0
 46
0.0
 47
0.0
 48
0.01
140
2.7999999999999989
141
0.0
142
0.0
143
25.399999999999999
144
1.0
145
0.0
146
1.0
147
1.0
 71
     0
 72
     0
 73
     0
 74
     0
 75
     0
 76
     0
 77
     3
 78
     9
170
     0
171
     2
172
     1
173
     0
174
     1
175
     0
176
   256
177
   256
178
    40
  0
DIMSTYLE
  2
AM_ISO
 70
     0
  3

  4
"
  5

  6

  7

 40
1.0
 41
2.5
 42
1.0
 43
10.0
 44
1.0
 45
0.0
 46
0.0
 47
0.1
 48
0.1
140
3.5
141
0.0
142
0.0
143
0.0393701
144
1.0
145
0.0
146
0.71
147
1.5
 71
     0
 72
     0
 73
     0
 74
     0
 75
     0
 76
     0
 77
     1
 78
     8
170
     0
171
     2
172
     1
173
     0
174
     0
175
     0
176
   256
177
   256
178
     2
  0
DIMSTYLE
  2
AM_ISO$3
 70
     0
  3

  4
"
  5

  6

  7

 40
1.0
 41
2.5
 42
1.0
 43
10.0
 44
1.0
 45
0.0
 46
0.0
 47
0.1
 48
0.1
140
3.5
141
0.0
142
0.0
143
0.0393701
144
1.0
145
0.0
146
0.71
147
1.5
 71
     0
 72
     0
 73
     0
 74
     1
 75
     0
 76
     0
 77
     1
 78
     8
170
     0
171
     2
172
     0
173
     0
174
     0
175
     0
176
   256
177
   256
178
     2
  0
DIMSTYLE
  2
AM_ISO$4
 70
     0
  3

  4
"
  5

  6

  7

 40
1.0
 41
2.5
 42
1.0
 43
10.0
 44
1.0
 45
0.0
 46
0.0
 47
0.1
 48
0.1
140
3.5
141
0.0
142
0.0
143
0.0393701
144
1.0
145
0.0
146
0.71
147
1.5
 71
     0
 72
     0
 73
     0
 74
     1
 75
     0
 76
     0
 77
     1
 78
     8
170
     0
171
     2
172
     0
173
     0
174
     0
175
     0
176
   256
177
   256
178
     2
  0
DIMSTYLE
  2
AM_ISO$6
 70
     0
  3

  4
"
  5

  6

  7

 40
1.0
 41
2.5
 42
1.0
 43
10.0
 44
1.0
 45
0.0
 46
0.0
 47
0.1
 48
0.1
140
3.5
141
0.0
142
0.0
143
0.0393701
144
1.0
145
0.0
146
0.71
147
1.5
 71
     0
 72
     0
 73
     0
 74
     0
 75
     0
 76
     0
 77
     0
 78
     8
170
     0
171
     2
172
     1
173
     0
174
     0
175
     0
176
   256
177
   256
178
     2
  0
DIMSTYLE
  2
AM_ISO$7
 70
     0
  3

  4
"
  5

  6

  7

 40
1.0
 41
2.5
 42
1.0
 43
10.0
 44
1.0
 45
0.0
 46
0.0
 47
0.1
 48
0.1
140
5.0
141
0.0
142
0.0
143
0.0393701
144
1.0
145
0.0
146
0.71
147
1.5
 71
     0
 72
     0
 73
     0
 74
     0
 75
     0
 76
     0
 77
     1
 78
     8
170
     0
171
     2
172
     1
173
     0
174
     0
175
     0
176
   256
177
   256
178
     2
  0
DIMSTYLE
  2
AM_ISO$SF
 70
     0
  3

  4
"
  5

  6

  7

 40
1.0
 41
2.5
 42
1.0
 43
10.0
 44
1.0
 45
0.0
 46
0.0
 47
0.1
 48
0.1
140
3.5
141
0.0
142
0.0
143
0.0393701
144
1.0
145
0.0
146
0.71
147
1.5
 71
     0
 72
     0
 73
     0
 74
     0
 75
     1
 76
     1
 77
     1
 78
     8
170
     0
171
     2
172
     1
173
     0
174
     0
175
     0
176
   256
177
   256
178
     2
  0
DIMSTYLE
  2
AM_ISO$SH
 70
     0
  3

  4
"
  5

  6
GENAXEH
  7

 40
1.0
 41
2.5
 42
1.0
 43
10.0
 44
1.0
 45
0.0
 46
0.0
 47
0.1
 48
0.1
140
3.5
141
0.0
142
0.0
143
0.0393701
144
2.0
145
0.0
146
0.71
147
1.5
 71
     0
 72
     0
 73
     0
 74
     0
 75
     1
 76
     1
 77
     1
 78
     8
170
     0
171
     2
172
     1
173
     1
174
     0
175
     0
176
   256
177
   256
178
     2
  0
DIMSTYLE
  2
BIGT$2
 70
     0
  3

  4

  5
OPEN
  6

  7

 40
1.0
 41
2.2299999999999991
 42
0.5
 43
7.0
 44
1.0
 45
0.0
 46
0.0
 47
0.0
 48
0.01
140
2.7999999999999989
141
0.0
142
0.0
143
25.399999999999999
144
1.0
145
0.0
146
1.0
147
1.0
 71
     0
 72
     0
 73
     0
 74
     0
 75
     0
 76
     0
 77
     3
 78
     9
170
     0
171
     2
172
     1
173
     0
174
     0
175
     0
176
   256
177
   256
178
    40
  0
DIMSTYLE
  2
BIGT$3
 70
     0
  3

  4

  5
OPEN
  6

  7

 40
1.0
 41
2.2299999999999991
 42
0.5
 43
2.5
 44
1.0
 45
0.0
 46
0.0
 47
0.0
 48
0.01
140
2.7999999999999989
141
0.0
142
0.0
143
25.399999999999999
144
1.0
145
0.0
146
1.0
147
1.0
 71
     0
 72
     0
 73
     0
 74
     0
 75
     0
 76
     0
 77
     3
 78
     9
170
     0
171
     2
172
     1
173
     0
174
     0
175
     0
176
   256
177
   256
178
    40
  0
DIMSTYLE
  2
BIGT$7
 70
     0
  3

  4

  5
OPEN
  6

  7

 40
0.0
 41
2.2299999999999991
 42
0.5
 43
7.0
 44
1.0
 45
0.0
 46
0.0
 47
0.0
 48
0.01
140
2.7999999999999989
141
0.0
142
0.0
143
25.399999999999999
144
1.0
145
0.0
146
1.0
147
1.0
 71
     0
 72
     0
 73
     0
 74
     0
 75
     0
 76
     0
 77
     3
 78
     9
170
     0
171
     2
172
     0
173
     0
174
     0
175
     0
176
   256
177
   256
178
    40
  0
DIMSTYLE
  2
BIGT$6
 70
     0
  3

  4

  5
OPEN
  6

  7

 40
1.0
 41
2.2299999999999991
 42
0.5
 43
2.5
 44
1.0
 45
0.0
 46
0.0
 47
0.0
 48
0.01
140
2.7999999999999989
141
0.0
142
0.0
143
25.399999999999999
144
1.0
145
0.0
146
1.0
147
1.0
 71
     0
 72
     0
 73
     0
 74
     0
 75
     0
 76
     0
 77
     3
 78
     9
170
     0
171
     2
172
     1
173
     0
174
     0
175
     0
176
   256
177
   256
178
    40
  0
DIMSTYLE
  2
BIGT$0
 70
     0
  3

  4

  5
OPEN
  6

  7

 40
1.0
 41
2.2299999999999991
 42
0.5
 43
7.0
 44
1.0
 45
0.0
 46
0.0
 47
0.0
 48
0.01
140
2.7999999999999989
141
0.0
142
0.0
143
25.399999999999999
144
1.0
145
0.0
146
1.0
147
1.0
 71
     0
 72
     0
 73
     0
 74
     0
 75
     0
 76
     0
 77
     3
 78
     9
170
     0
171
     2
172
     1
173
     0
174
     1
175
     0
176
   256
177
   256
178
    40
  0
DIMSTYLE
  2
BIGT$4
 70
     0
  3

  4

  5
OPEN
  6

  7

 40
1.0
 41
2.2299999999999991
 42
0.5
 43
2.5
 44
1.0
 45
0.0
 46
0.0
 47
0.0
 48
0.01
140
2.7999999999999989
141
0.0
142
0.0
143
25.399999999999999
144
1.0
145
0.0
146
1.0
147
1.0
 71
     0
 72
     0
 73
     0
 74
     0
 75
     0
 76
     0
 77
     3
 78
     9
170
     0
171
     2
172
     1
173
     0
174
     0
175
     0
176
   256
177
   256
178
    40
  0
DIMSTYLE
  2
BIGT$SH
 70
     0
  3

  4

  5
OPEN
  6

  7

 40
1.0
 41
2.2299999999999991
 42
0.5
 43
7.0
 44
1.0
 45
0.0
 46
0.0
 47
0.0
 48
0.0
140
2.7999999999999989
141
0.0
142
0.0
143
25.399999999999999
144
1.0
145
0.0
146
1.0
147
1.0
 71
     0
 72
     0
 73
     0
 74
     0
 75
     0
 76
     0
 77
     3
 78
     9
170
     0
171
     2
172
     1
173
     0
174
     0
175
     0
176
   256
177
   256
178
    40
  0
DIMSTYLE
  2
BIGT$SF
 70
     0
  3

  4

  5
OPEN
  6

  7

 40
1.0
 41
2.2299999999999991
 42
0.5
 43
7.0
 44
1.0
 45
0.0
 46
0.0
 47
0.0
 48
0.0
140
2.7999999999999989
141
0.0
142
0.0
143
25.399999999999999
144
1.0
145
0.0
146
1.0
147
1.0
 71
     0
 72
     0
 73
     0
 74
     0
 75
     0
 76
     0
 77
     3
 78
     9
170
     0
171
     2
172
     1
173
     0
174
     0
175
     0
176
   256
177
   256
178
    40
  0
DIMSTYLE
  2
TECHNICAL_OSAKA
 70
     0
  3

  4
"
  5
OPEN30
  6

  7

 40
1.0
 41
2.5
 42
1.0
 43
10.0
 44
1.0
 45
0.0
 46
0.0
 47
0.1
 48
0.1
140
2.7999999999999989
141
0.0
142
0.0
143
0.0393701
144
1.0
145
0.0
146
0.71
147
1.5
 71
     0
 72
     0
 73
     0
 74
     0
 75
     0
 76
     0
 77
     3
 78
     8
170
     0
171
     2
172
     1
173
     0
174
     0
175
     0
176
   256
177
   256
178
    40
  0
DIMSTYLE
  2
TECHNICAL_OSAKA$3
 70
     0
  3

  4
"
  5
OPEN30
  6

  7

 40
1.0
 41
2.5
 42
1.0
 43
10.0
 44
1.0
 45
0.0
 46
0.0
 47
0.1
 48
0.1
140
2.7999999999999989
141
0.0
142
0.0
143
0.0393701
144
1.0
145
0.0
146
0.71
147
1.5
 71
     0
 72
     0
 73
     0
 74
     1
 75
     0
 76
     0
 77
     3
 78
     8
170
     0
171
     2
172
     0
173
     0
174
     0
175
     0
176
   256
177
   256
178
    40
  0
DIMSTYLE
  2
TECHNICAL_OSAKA$4
 70
     0
  3

  4
"
  5
OPEN30
  6

  7

 40
1.0
 41
2.5
 42
1.0
 43
10.0
 44
1.0
 45
0.0
 46
0.0
 47
0.1
 48
0.1
140
2.7999999999999989
141
0.0
142
0.0
143
0.0393701
144
1.0
145
0.0
146
0.71
147
1.5
 71
     0
 72
     0
 73
     0
 74
     1
 75
     0
 76
     0
 77
     3
 78
     8
170
     0
171
     2
172
     0
173
     0
174
     0
175
     0
176
   256
177
   256
178
    40
  0
DIMSTYLE
  2
TECHNICAL_OSAKA$6
 70
     0
  3

  4
"
  5
OPEN30
  6

  7

 40
1.0
 41
2.5
 42
1.0
 43
10.0
 44
1.0
 45
0.0
 46
0.0
 47
0.1
 48
0.1
140
2.7999999999999989
141
0.0
142
0.0
143
0.0393701
144
1.0
145
0.0
146
0.71
147
1.5
 71
     0
 72
     0
 73
     0
 74
     0
 75
     0
 76
     0
 77
     0
 78
     8
170
     0
171
     2
172
     1
173
     0
174
     0
175
     0
176
   256
177
   256
178
    40
  0
DIMSTYLE
  2
TECHNICAL_OSAKA$7
 70
     0
  3

  4
"
  5
OPEN30
  6

  7

 40
1.0
 41
2.5
 42
1.0
 43
10.0
 44
1.0
 45
0.0
 46
0.0
 47
0.1
 48
0.1
140
2.7999999999999989
141
0.0
142
0.0
143
0.0393701
144
1.0
145
0.0
146
0.71
147
1.5
 71
     0
 72
     0
 73
     0
 74
     0
 75
     0
 76
     0
 77
     3
 78
     8
170
     0
171
     2
172
     1
173
     0
174
     0
175
     0
176
   256
177
   256
178
    40
  0
DIMSTYLE
  2
TECHNICAL_OSAKA$SF
 70
     0
  3

  4
"
  5
OPEN30
  6
OPEN30
  7
OPEN30
 40
1.0
 41
2.5
 42
1.0
 43
10.0
 44
1.0
 45
0.0
 46
0.0
 47
0.1
 48
0.1
140
3.5
141
0.0
142
0.0
143
0.0393701
144
1.0
145
0.0
146
0.71
147
1.5
 71
     0
 72
     0
 73
     0
 74
     0
 75
     1
 76
     1
 77
     3
 78
     8
170
     0
171
     2
172
     1
173
     0
174
     0
175
     0
176
   256
177
   256
178
    40
  0
DIMSTYLE
  2
TECHNICAL_OSAKA$SH
 70
     0
  3

  4
"
  5
OPEN30
  6
GENAXEH
  7
OPEN30
 40
1.0
 41
2.5
 42
1.0
 43
10.0
 44
1.0
 45
0.0
 46
0.0
 47
0.1
 48
0.1
140
3.5
141
0.0
142
0.0
143
0.0393701
144
2.0
145
0.0
146
0.71
147
1.5
 71
     0
 72
     0
 73
     0
 74
     0
 75
     1
 76
     1
 77
     3
 78
     8
170
     0
171
     2
172
     1
173
     1
174
     0
175
     0
176
   256
177
   256
178
    40
  0
ENDTAB
  0
ENDSEC
  0
SECTION
  2
BLOCKS
  0
BLOCK
  8
0
  2
$MODEL_SPACE
 70
     0
 10
0.0
 20
0.0
 30
0.0
  3
$MODEL_SPACE
  1

  0
ENDBLK
  5
1C
  8
0
  0
BLOCK
 67
     1
  8
0
  2
$PAPER_SPACE
 70
     0
 10
0.0
 20
0.0
 30
0.0
  3
$PAPER_SPACE
  1

  0
ENDBLK
  5
19
 67
     1
  8
0
  0
BLOCK
  8
0
  2
_OPEN
 70
     0
 10
0.0
 20
0.0
 30
0.0
  3
_OPEN
  1

  0
LINE
  5
4857
  8
0
  6
BYBLOCK
 62
     0
 10
-1.0
 20
0.1666666666666666
 30
0.0
 11
0.0
 21
0.0
 31
0.0
  0
LINE
  5
4858
  8
0
  6
BYBLOCK
 62
     0
 10
-1.0
 20
-0.1666666666666666
 30
0.0
 11
0.0
 21
0.0
 31
0.0
  0
LINE
  5
4859
  8
0
  6
BYBLOCK
 62
     0
 10
0.0
 20
0.0
 30
0.0
 11
-1.0
 21
0.0
 31
0.0
  0
ENDBLK
  5
485A
  8
0
  0
BLOCK
  8
0
  2
GENAXEH
 70
     0
 10
0.0
 20
0.0
 30
0.0
  3
GENAXEH
  1

  0
LINE
  5
4892
  8
0
 10
-1.0
 20
0.0
 30
0.0
 11
1.0
 21
0.0
 31
0.0
  0
ENDBLK
  5
4893
  8
0
  0
BLOCK
  8
0
  2
_OPEN30
 70
     0
 10
0.0
 20
0.0
 30
0.0
  3
_OPEN30
  1

  0
LINE
  5
48CE
  8
0
  6
BYBLOCK
 62
     0
 10
-1.0
 20
0.26794919
 30
0.0
 11
0.0
 21
0.0
 31
0.0
  0
LINE
  5
48CF
  8
0
  6
BYBLOCK
 62
     0
 10
0.0
 20
0.0
 30
0.0
 11
-1.0
 21
-0.26794919
 31
0.0
  0
LINE
  5
48D0
  8
0
  6
BYBLOCK
 62
     0
 10
0.0
 20
0.0
 30
0.0
 11
-1.0
 21
0.0
 31
0.0
  0
ENDBLK
  5
48D1
  8
0
  0
ENDSEC
  0
SECTION
  2
ENTITIES
  0
LINE
  5
43EC
  8
240
  6
CONTINUOUS
 10
63.830360690759562
 20
80.625852172758286
 30
0.0
 11
30.989556113056668
 21
83.643498193439186
 31
0.0
  0
LINE
  5
43ED
  8
240
  6
CONTINUOUS
 10
63.83036069075996
 20
73.374147827240222
 30
0.0
 11
30.989556113056778
 21
70.3565018065608
 31
0.0
  0
LINE
  5
43EE
  8
240
  6
CONTINUOUS
 10
58.627163221884651
 20
10.32551030915039
 30
0.0
 11
35.186935651027277
 21
16.606300357163889
 31
0.0
  0
LINE
  5
43EF
  8
240
  6
CONTINUOUS
 10
58.627163221884409
 20
-10.32551030915044
 30
0.0
 11
35.18693565102717
 21
-16.606300357163938
 31
0.0
  0
LINE
  5
43F1
  8
241
  6
CONTINUOUS
 10
-30.789698216951241
 20
77.750000000000014
 30
0.0
 11
170.40000000000029
 21
77.75
 31
0.0
  0
LINE
  5
43F2
  8
241
  6
CONTINUOUS
 10
-30.789698216951241
 20
76.25
 30
0.0
 11
170.40000000000029
 21
76.25
 31
0.0
  0
LINE
  5
43F3
  8
245
  6
CENTER2
 10
-31.765078011572431
 20
77.0
 30
0.0
 11
171.46665737323681
 21
77.0
 31
0.0
  0
LINE
  5
43F4
  8
245
  6
CENTER2
 10
-33.812173859394541
 20
0.0
 30
0.0
 11
171.9946609243446
 21
0.0
 31
0.0
  0
ARC
  5
43F5
  8
240
  6
CONTINUOUS
 10
48.127887906154172
 20
-64.902591671617131
 30
0.0
 40
50.0
 50
105.00000000000109
 51
126.5584249950565
  0
CIRCLE
  5
43F6
  8
241
  6
CONTINUOUS
 10
0.0
 20
0.0
 30
0.0
 40
29.0
  0
ARC
  5
43F7
  8
240
  6
CONTINUOUS
 10
0.0
 20
0.0
 30
0.0
 40
30.800000000000001
 50
53.441575004943509
 51
306.5584249950565
  0
LINE
  5
43F8
  8
245
  6
CENTER2
 10
0.0
 20
32.759962357124273
 30
0.0
 11
0.0
 21
-31.805704393475992
 31
0.0
  0
LINE
  5
43FB
  8
240
  6
CONTINUOUS
 10
-27.58407563213882
 20
67.25
 30
0.0
 11
27.584075632139498
 21
67.25
 31
0.0
  0
LINE
  5
43FC
  8
240
  6
CONTINUOUS
 10
-27.58407563213893
 20
86.749999999999744
 30
0.0
 11
27.584075632139388
 21
86.750000000000341
 31
0.0
  0
ARC
  5
43FE
  8
240
  6
CONTINUOUS
 10
-3.4937499999998631
 20
77.0
 30
0.0
 40
27.306249999999839
 50
162.16671019540661
 51
197.83328980459331
  0
LINE
  5
4401
  8
245
  6
CENTER2
 10
0.0000000000003411
 20
89.092469285125162
 30
0.0
 11
0.0000000000003411
 21
64.529422140724705
 31
0.0
  0
ARC
  5
4402
  8
240
  6
CONTINUOUS
 10
31.126808541051901
 20
68.862794415198834
 30
0.0
 40
1.5
 50
95.250000000000668
 51
163.59169187435489
  0
ARC
  5
4403
  8
240
  6
CONTINUOUS
 10
3.4937500000005448
 20
77.0
 30
0.0
 40
27.306249999999839
 50
342.16671019540672
 51
343.59169187435481
  0
ARC
  5
4409
  8
240
  6
CONTINUOUS
 10
31.126808541051901
 20
85.137205584801208
 30
0.0
 40
1.5
 50
196.4083081256442
 51
264.74999999999272
  0
ARC
  5
440A
  8
240
  6
CONTINUOUS
 10
3.4937500000005448
 20
77.0
 30
0.0
 40
27.306249999999839
 50
16.40830812564511
 51
17.833289804593349
  0
ARC
  5
440B
  8
241
  6
CONTINUOUS
 10
0.0000000000005684
 20
0.0
 30
0.0
 40
29.998018119643689
 50
328.66856871086338
 51
31.651988866699089
  0
ARC
  5
440C
  8
240
  6
CONTINUOUS
 10
48.127887906154228
 20
64.902591671617017
 30
0.0
 40
50.0
 50
233.4415750049435
 51
254.99999999999881
  0
LINE
  5
4411
  8
240
  6
CONTINUOUS
 10
66.575409250662005
 20
73.499999999999886
 30
0.0
 11
167.39780190952021
 21
73.499999999999886
 31
0.0
  0
LINE
  5
4412
  8
240
  6
CONTINUOUS
 10
66.575409250661778
 20
80.5
 30
0.0
 11
167.39780190952021
 21
80.5
 31
0.0
  0
ARC
  5
4418
  8
240
  6
CONTINUOUS
 10
66.575409250662005
 20
43.5
 30
0.0
 40
30.0
 50
90.0
 51
95.250000000000668
  0
ARC
  5
4419
  8
240
  6
CONTINUOUS
 10
66.575409250661778
 20
110.5
 30
0.0
 40
30.0
 50
264.74999999999932
 51
270.0
  0
ARC
  5
442E
  8
240
  6
CONTINUOUS
 10
167.39780190952021
 20
76.5
 30
0.0
 40
3.0
 50
270.0
 51
350.00000000000142
  0
ARC
  5
4430
  8
240
  6
CONTINUOUS
 10
167.39780190952021
 20
77.5
 30
0.0
 40
3.0
 50
9.9999999999985398
 51
90.0
  0
LINE
  5
4434
  8
240
  6
CONTINUOUS
 10
170.40000000000029
 20
77.75
 30
0.0
 11
170.3522251685568
 21
78.020944533000716
 31
0.0
  0
LINE
  5
4435
  8
240
  6
CONTINUOUS
 10
170.40000000000029
 20
76.25
 30
0.0
 11
170.3522251685568
 21
75.979055466999284
 31
0.0
  0
LINE
  5
4436
  8
240
  6
CONTINUOUS
 10
72.00444225192939
 20
-8.6237054703950093
 30
0.0
 11
160.9179705663154
 21
-9.3996420768032181
 31
0.0
  0
LINE
  5
4437
  8
240
  6
CONTINUOUS
 10
72.004442251929618
 20
8.6237054703950093
 30
0.0
 11
160.9179705663154
 21
9.3996420768032181
 31
0.0
  0
LINE
  5
4438
  8
241
  6
CONTINUOUS
 10
65.200000000000045
 20
9.0289885830887897
 30
0.0
 11
65.200000000000045
 21
-9.0289885830889034
 31
0.0
  0
ARC
  5
4439
  8
240
  6
CONTINUOUS
 10
71.568115477011474
 20
-58.621801623603631
 30
0.0
 40
50.0
 50
89.500000000001918
 51
105.00000000000109
  0
ARC
  5
443A
  8
240
  6
CONTINUOUS
 10
71.568115477011702
 20
58.621801623603517
 30
0.0
 40
50.0
 50
254.99999999999881
 51
270.49999999999801
  0
LINE
  5
443B
  8
245
  6
CENTER2
 10
161.0
 20
11.047994482142879
 30
0.0
 11
161.0
 21
-10.90750528979811
 31
0.0
  0
ARC
  5
443C
  8
240
  6
CONTINUOUS
 10
161.0
 20
0.0
 30
0.0
 40
9.4000000000000341
 50
269.50000000000199
 51
90.499999999998053
  0
CIRCLE
  5
4462
  8
241
  6
CONTINUOUS
 10
0.0
 20
0.0000000000001705
 30
0.0
 40
21.5
  0
ARC
  5
4465
  8
240
  6
CONTINUOUS
 10
-27.58407563213893
 20
84.749999999999744
 30
0.0
 40
2.0
 50
90.0
 51
162.16671019540661
  0
ARC
  5
4466
  8
240
  6
CONTINUOUS
 10
-27.58407563213882
 20
69.25
 30
0.0
 40
2.0
 50
197.83328980459331
 51
270.0
  0
ARC
  5
4469
  8
240
  6
CONTINUOUS
 10
27.584075632139388
 20
84.750000000000313
 30
0.0
 40
2.0
 50
17.833289804593349
 51
90.0
  0
ARC
  5
446A
  8
240
  6
CONTINUOUS
 10
27.584075632139498
 20
69.250000000000028
 30
0.0
 40
2.0
 50
270.0
 51
342.16671019540672
  0
ARC
  5
4488
  8
241
  6
CONTINUOUS
 10
11.14070864777346
 20
-0.4702000712341317
 30
0.0
 40
33.470083441340272
 50
351.84093304870311
 51
11.91106708337848
  0
ARC
  5
4489
  8
241
  6
CONTINUOUS
 10
11.12005577049103
 20
-0.4701979854905574
 30
0.0
 40
34.864777329698157
 50
351.65076112065032
 51
11.911007684704989
  0
LINE
  5
448A
  8
241
  6
CONTINUOUS
 10
44.272003713144549
 20
-5.2203340547753214
 30
0.0
 11
42.806361453835898
 21
-4.8794230330491919
 31
0.0
  0
LINE
  5
448B
  8
241
  6
CONTINUOUS
 10
42.806361453835898
 20
-4.8794230330491919
 30
0.0
 11
44.434995856623289
 21
-8.099800466826764
 31
0.0
  0
LINE
  5
448C
  8
241
  6
CONTINUOUS
 10
35.828687704319918
 20
-10.38336084874132
 30
0.0
 11
40.299999999999891
 21
-10.38336084874129
 31
0.0
  0
LINE
  5
448D
  8
241
  6
CONTINUOUS
 10
39.629302211659081
 20
-9.7076274042963178
 30
0.0
 11
35.828687704319918
 21
-9.707627404296403
 31
0.0
  0
LINE
  5
448E
  8
241
  6
CONTINUOUS
 10
35.828687704319918
 20
-9.707627404296403
 30
0.0
 11
35.828687704319918
 21
-10.38336084874132
 31
0.0
  0
LINE
  5
448F
  8
241
  6
CONTINUOUS
 10
40.299999999999891
 20
-6.7043672433113102
 30
0.0
 11
39.629302211659081
 21
-6.7043672433113102
 31
0.0
  0
LINE
  5
4490
  8
241
  6
CONTINUOUS
 10
39.546950721686869
 20
-9.7037297792009838
 30
0.0
 11
39.546950721686869
 21
-9.7076274042963178
 31
0.0
  0
LINE
  5
4491
  8
241
  6
CONTINUOUS
 10
39.629302211659081
 20
-6.7043672433113102
 30
0.0
 11
39.629302211659081
 21
-9.7076274042963178
 31
0.0
  0
LINE
  5
4492
  8
241
  6
CONTINUOUS
 10
40.299999999999891
 20
-10.38336084874129
 30
0.0
 11
40.299999999999891
 21
-6.7043672433113102
 31
0.0
  0
ARC
  5
4493
  8
241
  6
CONTINUOUS
 10
38.46430384259083
 20
-3.3012441542599902
 30
0.0
 40
1.163805556211978
 50
270.48791521565022
 51
89.512084784349753
  0
ARC
  5
4494
  8
241
  6
CONTINUOUS
 10
38.458767849313404
 20
-3.3010591398637521
 30
0.0
 40
1.8397466628064409
 50
270.4810613560486
 51
89.518938643951358
  0
LINE
  5
4495
  8
241
  6
CONTINUOUS
 10
38.47421437318701
 20
-2.137480795989489
 30
0.0
 11
37.654473331132813
 21
-2.137480795989489
 31
0.0
  0
LINE
  5
4496
  8
241
  6
CONTINUOUS
 10
38.47421437318701
 20
-1.4617472204349149
 30
0.0
 11
37.654473331132813
 21
-1.4617472204349149
 31
0.0
  0
LINE
  5
4497
  8
241
  6
CONTINUOUS
 10
37.654473331132813
 20
-4.4650075125295237
 30
0.0
 11
38.47421437318701
 21
-4.4650075125295237
 31
0.0
  0
LINE
  5
4498
  8
241
  6
CONTINUOUS
 10
37.654473331132813
 20
-5.140740956974553
 30
0.0
 11
38.47421437318701
 21
-5.140740956974553
 31
0.0
  0
ARC
  5
4499
  8
241
  6
CONTINUOUS
 10
37.66438074808741
 20
-3.301244154254845
 30
0.0
 40
1.1638055297056999
 50
90.487761932246002
 51
269.51223806775403
  0
ARC
  5
449A
  8
241
  6
CONTINUOUS
 10
37.66991985656086
 20
-3.3014291580106478
 30
0.0
 40
1.839746783280287
 50
90.481061372952468
 51
269.51893862704748
  0
LINE
  5
449C
  8
241
  6
CONTINUOUS
 10
44.434995856623289
 20
-8.099800466826764
 30
0.0
 11
47.299999999999891
 21
-5.9246516802757014
 31
0.0
  0
LINE
  5
449D
  8
241
  6
CONTINUOUS
 10
47.299999999999891
 20
-5.9246516802757014
 30
0.0
 11
45.615314112662361
 21
-5.5327912099452581
 31
0.0
  0
LINE
  5
44B1
  8
241
  6
CONTINUOUS
 10
38.94676260756836
 20
5.308276400871363
 30
0.0
 11
38.773171448114169
 21
4.6555678934805647
 31
0.0
  0
ARC
  5
44B2
  8
241
  6
CONTINUOUS
 10
38.457479556192538
 20
3.5321468488104411
 30
0.0
 40
1.84229044671787
 50
270.5204649316114
 51
74.598336967548775
  0
LINE
  5
44B3
  8
241
  6
CONTINUOUS
 10
37.3555141584526
 20
4.6555678934805647
 30
0.0
 11
37.181925096751463
 21
5.308276400871363
 31
0.0
  0
ARC
  5
44B4
  8
241
  6
CONTINUOUS
 10
37.671208775196362
 20
3.5321464329397818
 30
0.0
 40
1.8422910141932729
 50
105.40167839913239
 51
269.4795157258805
  0
ARC
  5
44B5
  8
241
  6
CONTINUOUS
 10
38.463624895306168
 20
3.5318941672435349
 30
0.0
 40
1.1655306565640919
 50
270.52057038058098
 51
74.598329745509147
  0
LINE
  5
44B6
  8
241
  6
CONTINUOUS
 10
38.47421437318701
 20
2.3676955265550239
 30
0.0
 11
37.654473331132813
 21
2.3676955265550239
 31
0.0
  0
LINE
  5
44B7
  8
241
  6
CONTINUOUS
 10
37.654473331132813
 20
1.6919619510005071
 30
0.0
 11
38.47421437318701
 21
1.6919619510005071
 31
0.0
  0
ARC
  5
44B8
  8
241
  6
CONTINUOUS
 10
37.665060079278483
 20
3.531893465346541
 30
0.0
 40
1.1655311654101099
 50
105.401631139107
 51
269.47956404196049
  0
LINE
  5
44B9
  8
241
  6
CONTINUOUS
 10
40.299999999999891
 20
7.9490401215259956
 30
0.0
 11
38.698271176838887
 21
7.9490401215258544
 31
0.0
  0
LINE
  5
44BA
  8
241
  6
CONTINUOUS
 10
38.23236862399807
 20
8.4631448430648391
 30
0.0
 11
40.299999999999891
 21
10.1769240944584
 31
0.0
  0
LINE
  5
44BB
  8
241
  6
CONTINUOUS
 10
39.87389391954008
 20
10.698760084721069
 30
0.0
 11
37.779537170172027
 21
8.9628275126496533
 31
0.0
  0
LINE
  5
44BC
  8
241
  6
CONTINUOUS
 10
35.828687704319918
 20
7.2733066770810799
 30
0.0
 11
40.299999999999891
 21
7.2733066770810799
 31
0.0
  0
LINE
  5
44BD
  8
241
  6
CONTINUOUS
 10
38.698271176838887
 20
7.9490401215258544
 30
0.0
 11
38.23236862399807
 21
8.4631448430648391
 31
0.0
  0
LINE
  5
44BE
  8
241
  6
CONTINUOUS
 10
36.323988167863767
 20
10.568974203652941
 30
0.0
 11
35.828687704319918
 21
10.11334749393896
 31
0.0
  0
LINE
  5
44BF
  8
241
  6
CONTINUOUS
 10
35.828687704319918
 20
7.9490401215258544
 30
0.0
 11
35.828687704319918
 21
7.2733066770810799
 31
0.0
  0
LINE
  5
44C0
  8
241
  6
CONTINUOUS
 10
37.779537170172027
 20
8.9628275126496533
 30
0.0
 11
36.323988167863767
 21
10.568974203652941
 31
0.0
  0
LINE
  5
44C1
  8
241
  6
CONTINUOUS
 10
37.790065792536502
 20
7.9490401215258544
 30
0.0
 11
35.828687704319918
 21
7.9490401215258544
 31
0.0
  0
LINE
  5
44C2
  8
241
  6
CONTINUOUS
 10
35.828687704319918
 20
10.11334749393896
 30
0.0
 11
37.790065792536502
 21
7.9490401215258544
 31
0.0
  0
LINE
  5
44C3
  8
241
  6
CONTINUOUS
 10
40.299999999999891
 20
10.1769240944584
 30
0.0
 11
39.87389391954008
 21
10.698760084721069
 31
0.0
  0
LINE
  5
44C4
  8
241
  6
CONTINUOUS
 10
40.299999999999891
 20
7.2733066770810799
 30
0.0
 11
40.299999999999891
 21
7.9490401215259956
 31
0.0
  0
LINE
  5
44D2
  8
241
  6
CONTINUOUS
 10
45.234171817915183
 20
6.7256225181331502
 30
0.0
 11
43.890152309857278
 21
6.437797134488334
 31
0.0
  0
ARC
  5
4549
  8
241
  6
CONTINUOUS
 10
161.0
 20
-0.0000000000000142
 30
0.0
 40
4.5
 50
270.0
 51
90.0
  0
LINE
  5
454A
  8
241
  6
CONTINUOUS
 10
73.705806743464663
 20
3.7383664692864609
 30
0.0
 11
142.6221714969771
 21
4.3397904731090193
 31
0.0
  0
LINE
  5
454B
  8
241
  6
CONTINUOUS
 10
73.705806743464663
 20
-3.738366469286361
 30
0.0
 11
142.6221714969771
 21
-4.3397904731089483
 31
0.0
  0
ARC
  5
454C
  8
241
  6
CONTINUOUS
 10
73.738430973395452
 20
0.0000000000000711
 30
0.0
 40
3.7385088202468229
 50
90.499999999998053
 51
269.50000000000199
  0
LINE
  5
454D
  8
241
  6
CONTINUOUS
 10
161.0
 20
-4.5000000000000142
 30
0.0
 11
157.0
 21
-4.5000000000000284
 31
0.0
  0
LINE
  5
454E
  8
241
  6
CONTINUOUS
 10
161.0
 20
4.5
 30
0.0
 11
157.0
 21
4.5
 31
0.0
  0
ARC
  5
454F
  8
241
  6
CONTINUOUS
 10
157.0
 20
-0.0000000000000142
 30
0.0
 40
4.5
 50
90.0
 51
270.0
  0
ARC
  5
4550
  8
241
  6
CONTINUOUS
 10
142.66004427467541
 20
0.0000000000000142
 30
0.0
 40
4.3399557253246481
 50
269.50000000000199
 51
90.499999999998053
  0
LINE
  5
4680
  8
240
  6
CONTINUOUS
 10
170.40000000000029
 20
77.75
 30
0.0
 11
170.40000000000029
 21
76.25
 31
0.0
  0
CIRCLE
  5
4710
  8
246
  6
PHANTOM2
 10
0.0
 20
0.0
 30
0.0
 40
21.0
  0
LINE
  5
4711
  8
246
  6
PHANTOM2
 10
-20.999999999999659
 20
86.749999999999815
 30
0.0
 11
-20.999999999999659
 21
67.25
 31
0.0
  0
LINE
  5
4712
  8
246
  6
PHANTOM2
 10
21.000000000000341
 20
86.750000000000284
 30
0.0
 11
21.000000000000341
 21
67.249999999999986
 31
0.0
  0
TEXT
  5
476A
  8
241
  6
CONTINUOUS
 10
-35.0
 20
119.0
 30
0.0
 40
4.0
  1
MGR42
  7
YOKO
  0
LINE
  5
476B
  8
250
  6
CONTINUOUS
 10
-20.999999999999659
 20
87.249999999999801
 30
0.0
 11
-20.999999999999659
 21
106.0
 31
0.0
  0
LINE
  5
476C
  8
250
  6
CONTINUOUS
 10
21.000000000000341
 20
87.250000000000284
 30
0.0
 11
21.000000000000341
 21
106.0
 31
0.0
  0
LINE
  5
476D
  8
250
  6
CONTINUOUS
 10
-18.769999999999659
 20
105.0
 30
0.0
 11
18.770000000000341
 21
105.0
 31
0.0
  0
LINE
  5
4771
  8
250
  6
CONTINUOUS
 10
170.40000000000001
 20
0.5
 30
0.0
 11
170.40000000000001
 21
50.0
 31
0.0
  0
LINE
  5
4772
  8
250
  6
CONTINUOUS
 10
-30.800000000000001
 20
0.5
 30
0.0
 11
-30.800000000000001
 21
50.0
 31
0.0
  0
LINE
  5
4773
  8
250
  6
CONTINUOUS
 10
168.16999999999999
 20
49.0
 30
0.0
 11
-28.57
 21
49.0
 31
0.0
  0
LINE
  5
4777
  8
250
  6
CONTINUOUS
 10
0.0
 20
33.259962357124273
 30
0.0
 11
0.0000000000000006
 21
43.0
 31
0.0
  0
LINE
  5
4778
  8
250
  6
CONTINUOUS
 10
170.40000000000001
 20
0.5
 30
0.0
 11
170.40000000000001
 21
43.0
 31
0.0
  0
LINE
  5
4779
  8
250
  6
CONTINUOUS
 10
2.23
 20
42.0
 30
0.0
 11
168.16999999999999
 21
42.0
 31
0.0
  0
LINE
  5
477D
  8
250
  6
CONTINUOUS
 10
-30.800000000000001
 20
0.5
 30
0.0
 11
-30.800000000000001
 21
43.0
 31
0.0
  0
LINE
  5
477E
  8
250
  6
CONTINUOUS
 10
0.0
 20
33.259962357124273
 30
0.0
 11
0.0000000000000006
 21
43.0
 31
0.0
  0
LINE
  5
477F
  8
250
  6
CONTINUOUS
 10
-28.57
 20
42.0
 30
0.0
 11
-2.2299999999999991
 21
42.0
 31
0.0
  0
TEXT
  5
4783
  8
250
  6
CONTINUOUS
 10
-3.9333333333329912
 20
106.0
 30
0.0
 40
2.7999999999999989
  1
\U+220542
  0
LINE
  5
4784
  8
250
  6
CONTINUOUS
 10
18.770000000000341
 20
105.3716666666666
 30
0.0
 11
21.000000000000341
 21
105.0
 31
0.0
  0
LINE
  5
4785
  8
250
  6
CONTINUOUS
 10
18.770000000000341
 20
104.6283333333333
 30
0.0
 11
21.000000000000341
 21
105.0
 31
0.0
  0
LINE
  5
4786
  8
250
  6
CONTINUOUS
 10
21.000000000000341
 20
105.0
 30
0.0
 11
18.770000000000341
 21
105.0
 31
0.0
  0
LINE
  5
4787
  8
250
  6
CONTINUOUS
 10
-18.769999999999659
 20
104.6283333333333
 30
0.0
 11
-20.999999999999659
 21
105.0
 31
0.0
  0
LINE
  5
4788
  8
250
  6
CONTINUOUS
 10
-18.769999999999659
 20
105.3716666666666
 30
0.0
 11
-20.999999999999659
 21
105.0
 31
0.0
  0
LINE
  5
4789
  8
250
  6
CONTINUOUS
 10
-20.999999999999659
 20
105.0
 30
0.0
 11
-18.769999999999659
 21
105.0
 31
0.0
  0
TEXT
  5
478A
  8
250
  6
CONTINUOUS
 10
63.800000000000033
 20
50.0
 30
0.0
 40
2.7999999999999989
  1
201.2
  0
LINE
  5
478B
  8
250
  6
CONTINUOUS
 10
-28.57
 20
48.62833333333333
 30
0.0
 11
-30.800000000000001
 21
49.0
 31
0.0
  0
LINE
  5
478C
  8
250
  6
CONTINUOUS
 10
-28.57
 20
49.37166666666667
 30
0.0
 11
-30.800000000000001
 21
49.0
 31
0.0
  0
LINE
  5
478D
  8
250
  6
CONTINUOUS
 10
-30.800000000000001
 20
49.0
 30
0.0
 11
-28.57
 21
49.0
 31
0.0
  0
LINE
  5
478E
  8
250
  6
CONTINUOUS
 10
168.16999999999999
 20
49.37166666666667
 30
0.0
 11
170.40000000000001
 21
49.0
 31
0.0
  0
LINE
  5
478F
  8
250
  6
CONTINUOUS
 10
168.16999999999999
 20
48.62833333333333
 30
0.0
 11
170.40000000000001
 21
49.0
 31
0.0
  0
LINE
  5
4790
  8
250
  6
CONTINUOUS
 10
170.40000000000001
 20
49.0
 30
0.0
 11
168.16999999999999
 21
49.0
 31
0.0
  0
TEXT
  5
4791
  8
250
  6
CONTINUOUS
 10
78.933333333333351
 20
43.0
 30
0.0
 40
2.7999999999999989
  1
170.4
  0
LINE
  5
4792
  8
250
  6
CONTINUOUS
 10
168.16999999999999
 20
42.371666666666663
 30
0.0
 11
170.40000000000001
 21
42.0
 31
0.0
  0
LINE
  5
4793
  8
250
  6
CONTINUOUS
 10
168.16999999999999
 20
41.62833333333333
 30
0.0
 11
170.40000000000001
 21
42.0
 31
0.0
  0
LINE
  5
4794
  8
250
  6
CONTINUOUS
 10
170.40000000000001
 20
42.0
 30
0.0
 11
168.16999999999999
 21
42.0
 31
0.0
  0
LINE
  5
4795
  8
250
  6
CONTINUOUS
 10
2.23
 20
41.62833333333333
 30
0.0
 11
0.0000000000000006
 21
42.0
 31
0.0
  0
LINE
  5
4796
  8
250
  6
CONTINUOUS
 10
2.23
 20
42.371666666666663
 30
0.0
 11
0.0000000000000006
 21
42.0
 31
0.0
  0
LINE
  5
4797
  8
250
  6
CONTINUOUS
 10
0.0000000000000006
 20
42.0
 30
0.0
 11
2.23
 21
42.0
 31
0.0
  0
TEXT
  5
4798
  8
250
  6
CONTINUOUS
 10
-20.066666666666659
 20
43.0
 30
0.0
 40
2.7999999999999989
  1
30.8
  0
LINE
  5
4799
  8
250
  6
CONTINUOUS
 10
-2.2299999999999991
 20
42.371666666666663
 30
0.0
 11
0.0000000000000006
 21
42.0
 31
0.0
  0
LINE
  5
479A
  8
250
  6
CONTINUOUS
 10
-2.2299999999999991
 20
41.62833333333333
 30
0.0
 11
0.0000000000000006
 21
42.0
 31
0.0
  0
LINE
  5
479B
  8
250
  6
CONTINUOUS
 10
0.0000000000000006
 20
42.0
 30
0.0
 11
-2.2299999999999991
 21
42.0
 31
0.0
  0
LINE
  5
479C
  8
250
  6
CONTINUOUS
 10
-28.57
 20
41.62833333333333
 30
0.0
 11
-30.800000000000001
 21
42.0
 31
0.0
  0
LINE
  5
479D
  8
250
  6
CONTINUOUS
 10
-28.57
 20
42.371666666666663
 30
0.0
 11
-30.800000000000001
 21
42.0
 31
0.0
  0
LINE
  5
479E
  8
250
  6
CONTINUOUS
 10
-30.800000000000001
 20
42.0
 30
0.0
 11
-28.57
 21
42.0
 31
0.0
  0
VIEWPORT
  5
22
 67
     1
  8
0
 10
261.51769911504419
 20
148.5
 30
0.0
 40
523.0353982300885
 41
297.0
 68
     1
 69
     1
1001
ACAD
1000
MVIEW
1002
{
1070
    16
1010
0.0
1020
0.0
1030
0.0
1010
0.0
1020
0.0
1030
1.0
1040
0.0
1040
297.0
1040
261.51769911504419
1040
148.5
1040
50.0
1040
0.0
1040
0.0
1070
     0
1070
   100
1070
     1
1070
     1
1070
     0
1070
     0
1070
     0
1070
     0
1040
0.0
1040
0.0
1040
0.0
1040
1.0
1040
1.0
1040
10.0
1040
10.0
1070
     0
1002
{
1002
}
1002
}
1001
GENIUS_GENODEF_13
1002
{
1000
HIER
1070
     0
1002
}
1002
{
1000
MANEDIT
1070
     0
1002
}
1002
{
1000
NOSEL
1070
     0
1002
}
1002
{
1000
BEHIND
1070
     0
1002
}
1002
{
1000
OTHER
1070
     0
1002
}
1002
{
1000
REACTOR
1002
}
1001
GENIUS_GENOBJ-N-SDF_13
1002
{
1000
OWNER
1000
GEN
1002
}
1001
GENIUS_GENSCREG_15
1000
PF
1040
1.0
1000
DF
1040
1.0
1000
MIN
1011
0.0
1021
0.0
1031
0.0
1021
0.0
1031
0.0
1000
MAX
1011
523.0353982300885
1021
0.0
1031
0.0
1021
297.0
1031
0.0
1000
FLAGS
1070
     4
  0
ENDSEC
  0
EOF
