  0
SECTION
  2
HEADER
  9
$ACADVER
  1
AC1009
  9
$INSBASE
 10
0.0
 20
0.0
 30
0.0
  9
$EXTMIN
 10
-30.87699484790291
 20
-30.876994847903688
 30
0.0
  9
$EXTMAX
 10
251.13960969963921
 20
109.0
 30
0.0
  9
$LIMMIN
 10
0.0
 20
0.0
  9
$LIMMAX
 10
297.0
 20
210.0
  9
$ORTHOMODE
 70
     0
  9
$REGENMODE
 70
     1
  9
$FILLMODE
 70
     1
  9
$QTEXTMODE
 70
     0
  9
$MIRRTEXT
 70
     1
  9
$DRAGMODE
 70
     2
  9
$LTSCALE
 40
10.0
  9
$OSMODE
 70
    37
  9
$ATTMODE
 70
     1
  9
$TEXTSIZE
 40
3.0
  9
$TRACEWID
 40
1.0
  9
$TEXTSTYLE
  7
YOKO
  9
$CLAYER
  8
240
  9
$CELTYPE
  6
BYLAYER
  9
$CECOLOR
 62
   256
  9
$DIMSCALE
 40
1.0
  9
$DIMASZ
 40
2.2299999999999991
  9
$DIMEXO
 40
0.5
  9
$DIMDLI
 40
7.0
  9
$DIMRND
 40
0.0
  9
$DIMDLE
 40
0.0
  9
$DIMEXE
 40
1.0
  9
$DIMTP
 40
0.0
  9
$DIMTM
 40
0.01
  9
$DIMTXT
 40
2.7999999999999989
  9
$DIMCEN
 40
0.0
  9
$DIMTSZ
 40
0.0
  9
$DIMTOL
 70
     0
  9
$DIMLIM
 70
     0
  9
$DIMTIH
 70
     0
  9
$DIMTOH
 70
     0
  9
$DIMSE1
 70
     0
  9
$DIMSE2
 70
     0
  9
$DIMTAD
 70
     3
  9
$DIMZIN
 70
     9
  9
$DIMBLK
  1
OPEN
  9
$DIMASO
 70
     1
  9
$DIMSHO
 70
     1
  9
$DIMPOST
  1

  9
$DIMAPOST
  1

  9
$DIMALT
 70
     0
  9
$DIMALTD
 70
     2
  9
$DIMALTF
 40
25.399999999999999
  9
$DIMLFAC
 40
1.0
  9
$DIMTOFL
 70
     1
  9
$DIMTVP
 40
0.0
  9
$DIMTIX
 70
     1
  9
$DIMSOXD
 70
     0
  9
$DIMSAH
 70
     0
  9
$DIMBLK1
  1

  9
$DIMBLK2
  1

  9
$DIMSTYLE
  2
BIGT
  9
$DIMCLRD
 70
   256
  9
$DIMCLRE
 70
   256
  9
$DIMCLRT
 70
    40
  9
$DIMTFAC
 40
1.0
  9
$DIMGAP
 40
1.0
  9
$LUNITS
 70
     2
  9
$LUPREC
 70
     6
  9
$SKETCHINC
 40
1.0
  9
$FILLETRAD
 40
0.0
  9
$AUNITS
 70
     0
  9
$AUPREC
 70
     6
  9
$MENU
  1
.
  9
$ELEVATION
 40
0.0
  9
$PELEVATION
 40
0.0
  9
$THICKNESS
 40
0.0
  9
$LIMCHECK
 70
     0
  9
$BLIPMODE
 70
     0
  9
$CHAMFERA
 40
0.2
  9
$CHAMFERB
 40
0.2
  9
$SKPOLY
 70
     0
  9
$TDCREATE
 40
2459494.6578639471
  9
$TDUPDATE
 40
2459494.6711262972
  9
$TDINDWG
 40
0.0132081366
  9
$TDUSRTIMER
 40
0.0132080671
  9
$USRTIMER
 70
     1
  9
$ANGBASE
 50
0.0
  9
$ANGDIR
 70
     0
  9
$PDMODE
 70
     1
  9
$PDSIZE
 40
0.0
  9
$PLINEWID
 40
0.0
  9
$COORDS
 70
     1
  9
$SPLFRAME
 70
     0
  9
$SPLINETYPE
 70
     6
  9
$SPLINESEGS
 70
     4
  9
$ATTDIA
 70
     1
  9
$ATTREQ
 70
     1
  9
$HANDLING
 70
     1
  9
$HANDSEED
  5
4DB0
  9
$SURFTAB1
 70
     6
  9
$SURFTAB2
 70
     6
  9
$SURFTYPE
 70
     6
  9
$SURFU
 70
     6
  9
$SURFV
 70
     6
  9
$UCSNAME
  2

  9
$UCSORG
 10
0.0
 20
0.0
 30
0.0
  9
$UCSXDIR
 10
1.0
 20
0.0
 30
0.0
  9
$UCSYDIR
 10
0.0
 20
1.0
 30
0.0
  9
$PUCSNAME
  2

  9
$PUCSORG
 10
0.0
 20
0.0
 30
0.0
  9
$PUCSXDIR
 10
1.0
 20
0.0
 30
0.0
  9
$PUCSYDIR
 10
0.0
 20
1.0
 30
0.0
  9
$USERI1
 70
     1
  9
$USERI2
 70
     0
  9
$USERI3
 70
     0
  9
$USERI4
 70
     0
  9
$USERI5
 70
     0
  9
$USERR1
 40
0.0
  9
$USERR2
 40
0.0
  9
$USERR3
 40
0.0
  9
$USERR4
 40
0.0
  9
$USERR5
 40
0.0
  9
$WORLDVIEW
 70
     1
  9
$SHADEDGE
 70
     3
  9
$SHADEDIF
 70
    70
  9
$TILEMODE
 70
     1
  9
$MAXACTVP
 70
    16
  9
$PLIMCHECK
 70
     0
  9
$PEXTMIN
 10
1.0000000000000000E+020
 20
1.0000000000000000E+020
 30
1.0000000000000000E+020
  9
$PEXTMAX
 10
-1.0000000000000000E+020
 20
-1.0000000000000000E+020
 30
-1.0000000000000000E+020
  9
$PLIMMIN
 10
0.0
 20
0.0
  9
$PLIMMAX
 10
420.0
 20
297.0
  9
$UNITMODE
 70
     0
  9
$VISRETAIN
 70
     1
  9
$PLINEGEN
 70
     0
  9
$PSLTSCALE
 70
     1
  0
ENDSEC
  0
SECTION
  2
TABLES
  0
TABLE
  2
VPORT
 70
     1
  0
VPORT
  2
*ACTIVE
 70
     0
 10
0.0
 20
0.0
 11
1.0
 21
1.0
 12
114.4695268409465
 22
39.019864571342509
 13
0.0
 23
0.0
 14
7.0
 24
7.0
 15
7.0
 25
7.0
 16
0.0
 26
0.0
 36
1.0
 17
0.0
 27
0.0
 37
0.0
 40
251.49685951509329
 41
1.806872037914691
 42
50.0
 43
0.0
 44
0.0
 50
0.0
 51
0.0
 71
     0
 72
  2000
 73
     1
 74
     0
 75
     1
 76
     1
 77
     0
 78
     0
  0
ENDTAB
  0
TABLE
  2
LTYPE
 70
    16
  0
LTYPE
  2
CONTINUOUS
 70
     0
  3
Solid line
 72
    65
 73
     0
 40
0.0
  0
LTYPE
  2
CENTER2
 70
     0
  3
___ _ ___ _ ___ _ ___ _ ___ _ ___ _ ___ _ ___ _
 72
    65
 73
     4
 40
1.125
 49
0.75
 49
-0.125
 49
0.125
 49
-0.125
  0
LTYPE
  2
HIDDEN2
 70
     0
  3
_ _ _ _ _ _ _ _ _ _ _ _ _ _ _ _ _ _ _ _ _ _ _ _
 72
    65
 73
     2
 40
0.1875
 49
0.125
 49
-0.0625
  0
LTYPE
  2
PHANTOM2
 70
     0
  3
___ _ _ ___ _ _ ___ _ _ ___ _ _ ___ _ _ ___ _ _
 72
    65
 73
     6
 40
1.25
 49
0.625
 49
-0.125
 49
0.125
 49
-0.125
 49
0.125
 49
-0.125
  0
LTYPE
  2
AM_ISO02W050
 70
     0
  3
__ __ __ __ __ __ __ __ __ __ __ __ __ __ __
 72
    65
 73
     2
 40
7.5
 49
6.0
 49
-1.5
  0
LTYPE
  2
AMCONSTR
 70
     0
  3
_______________________
 72
    65
 73
     2
 40
9999.0
 49
9999.0
 49
0.0
  0
LTYPE
  2
ACISOWELD
 70
     0
  3
_ _ _ _ _
 72
    65
 73
     2
 40
2.0
 49
2.0
 49
-1.0
  0
LTYPE
  2
ACISOTGB
 70
     0
  3
__ . . __ . .
 72
    65
 73
     6
 40
9.0
 49
4.0
 49
-1.0
 49
1.0
 49
-1.0
 49
1.0
 49
-1.0
  0
LTYPE
  2
ACISOTGL
 70
     0
  3
_ _ _ _ _
 72
    65
 73
     2
 40
3.0
 49
2.0
 49
-1.0
  0
LTYPE
  2
ACJISTGB
 70
     0
  3
__ . . __ . .
 72
    65
 73
     6
 40
9.0
 49
4.0
 49
-1.0
 49
1.0
 49
-1.0
 49
1.0
 49
-1.0
  0
LTYPE
  2
ACJISTGL
 70
     0
  3
_ _ _ _ _
 72
    65
 73
     2
 40
3.0
 49
2.0
 49
-1.0
  0
ENDTAB
  0
TABLE
  2
LAYER
 70
     7
  0
LAYER
  2
0
 70
     0
 62
     7
  6
CONTINUOUS
  0
LAYER
  2
DEFPOINTS
 70
     0
 62
     7
  6
CONTINUOUS
  0
LAYER
  2
245
 70
     0
 62
     2
  6
CENTER2
  0
LAYER
  2
240
 70
     0
 62
     4
  6
CONTINUOUS
  0
LAYER
  2
241
 70
     0
 62
   211
  6
CONTINUOUS
  0
LAYER
  2
246
 70
     0
 62
     3
  6
PHANTOM2
  0
LAYER
  2
250
 70
     0
 62
     3
  6
CONTINUOUS
  0
ENDTAB
  0
TABLE
  2
STYLE
 70
     8
  0
STYLE
  2
STANDARD
 70
     0
 40
0.0
 41
1.0
 50
0.0
 71
     0
 42
3.0
  3
romans.shx
  4
extfont.shx
  0
STYLE
  2
ACISOTS
 70
     0
 40
1.0
 41
1.0
 50
0.0
 71
     0
 42
3.0
  3
amgdt.shx
  4
extfont.shx
  0
STYLE
  2
ACISOGDT
 70
     0
 40
0.0
 41
1.0
 50
0.0
 71
     0
 42
3.0
  3
amgdt.shx
  4
extfont.shx
  0
STYLE
  2
ACJISTS
 70
     0
 40
1.0
 41
1.0
 50
0.0
 71
     0
 42
3.0
  3
amgdt.shx
  4
extfont.shx
  0
STYLE
  2
ACJISGDT
 70
     0
 40
0.0
 41
1.0
 50
0.0
 71
     0
 42
3.0
  3
amgdt.shx
  4
extfont.shx
  0
STYLE
  2
YOKO
 70
     0
 40
0.0
 41
1.0
 50
0.0
 71
     0
 42
3.0
  3
romans.shx
  4
extfont.shx
  0
ENDTAB
  0
TABLE
  2
VIEW
 70
     0
  0
ENDTAB
  0
TABLE
  2
UCS
 70
     0
  0
ENDTAB
  0
TABLE
  2
APPID
 70
    45
  0
APPID
  2
ACAD
 70
     0
  0
APPID
  2
GLOBAL
 70
     0
  0
APPID
  2
DETAIL
 70
     0
  0
APPID
  2
GRPNAME
 70
     0
  0
APPID
  2
GPARA
 70
     0
  0
APPID
  2
MCAD_NO_VIS
 70
     0
  0
APPID
  2
ACAD_TEMP_GRAPHIC
 70
     0
  0
APPID
  2
ACATTRIBSERVICES
 70
     0
  0
APPID
  2
GENIUS_GENSCREG_15
 70
     0
  0
APPID
  2
GENIUS_GENODEF_13
 70
     0
  0
APPID
  2
GENIUS_GENOBJ-N-SDF_13
 70
     0
  0
APPID
  2
GENIUS_GENREC_14
 70
     0
  0
APPID
  2
GENIUS_GENOBJ-N-REC_13
 70
     0
  0
APPID
  2
GENIUS_GENDIMSH_14
 70
     0
  0
APPID
  2
GENIUS_GENOBJ-N-DIM_13
 70
     0
  0
APPID
  2
GENIUS_GENDIM_13
 70
     0
  0
APPID
  2
GENIUS_GENDTOL_13
 70
     0
  0
APPID
  2
GENIUS_GENOLIS_13
 70
     0
  0
APPID
  2
GENIUS_GENOENT_13
 70
     0
  0
APPID
  2
GENIUS_GENOBJ-F-FEM_13
 70
     0
  0
APPID
  2
GENIUS_GENOREF_13
 70
     0
  0
APPID
  2
GENIUS_GEFFEM_13
 70
     0
  0
APPID
  2
GENIUS_GEFFEMP_13
 70
     0
  0
APPID
  2
AD_DRAW
 70
     0
  0
APPID
  2
DESIGNERASSEMBLIES
 70
     0
  0
APPID
  2
ACADM_DIM_EDIT
 70
     0
  0
APPID
  2
AMDT_DM_ADJ
 70
     0
  0
APPID
  2
ITEMNAME
 70
     0
  0
APPID
  2
GENIUS_GENOBJ-N-FIL_13
 70
     0
  0
APPID
  2
GENIUS_GENFIL_13
 70
     0
  0
APPID
  2
GENIUS_GENOBJ-N-CHA_13
 70
     0
  0
APPID
  2
ACAD_NAV_VCDISPLAY
 70
     0
  0
APPID
  2
ACAECLAYERSTANDARD
 70
     0
  0
APPID
  2
LAYER_SCALE
 70
     0
  0
APPID
  2
ACAD_PSEXT
 70
     0
  0
APPID
  2
ASK_MEN_XD
 70
     0
  0
APPID
  2
ACAD_DSTYLE_DIMINSPECT
 70
     0
  0
APPID
  2
ACAD_DSTYLE_DIMJAG
 70
     0
  0
APPID
  2
ACAD_DSTYLE_DIMBREAK
 70
     0
  0
APPID
  2
ACAD_EXEMPT_FROM_CAD_STANDARDS
 70
     0
  0
APPID
  2
ACAD_MLEADERVER
 70
     0
  0
APPID
  2
ACAD_DSTYLE_DIMARC_LENGTH_
 70
     0
  0
APPID
  2
ACAD_DSTYLE_DIM_LINETYPE
 70
     0
  0
APPID
  2
ACAD_DSTYLE_DIM_EXT1_LINETYPE
 70
     0
  0
APPID
  2
ACAD_DSTYLE_DIM_EXT2_LINETYPE
 70
     0
  0
ENDTAB
  0
TABLE
  2
DIMSTYLE
 70
    30
  0
DIMSTYLE
  2
BIGT
 70
     0
  3

  4

  5
OPEN
  6

  7

 40
1.0
 41
2.2299999999999991
 42
0.5
 43
7.0
 44
1.0
 45
0.0
 46
0.0
 47
0.0
 48
0.01
140
2.7999999999999989
141
0.0
142
0.0
143
25.399999999999999
144
1.0
145
0.0
146
1.0
147
1.0
 71
     0
 72
     0
 73
     0
 74
     0
 75
     0
 76
     0
 77
     3
 78
     9
170
     0
171
     2
172
     1
173
     0
174
     1
175
     0
176
   256
177
   256
178
    40
  0
DIMSTYLE
  2
AM_ISO
 70
     0
  3

  4
"
  5

  6

  7

 40
1.0
 41
2.5
 42
1.0
 43
10.0
 44
1.0
 45
0.0
 46
0.0
 47
0.1
 48
0.1
140
3.5
141
0.0
142
0.0
143
0.0393701
144
1.0
145
0.0
146
0.71
147
1.5
 71
     0
 72
     0
 73
     0
 74
     0
 75
     0
 76
     0
 77
     1
 78
     8
170
     0
171
     2
172
     1
173
     0
174
     0
175
     0
176
   256
177
   256
178
     2
  0
DIMSTYLE
  2
AM_ISO$3
 70
     0
  3

  4
"
  5

  6

  7

 40
1.0
 41
2.5
 42
1.0
 43
10.0
 44
1.0
 45
0.0
 46
0.0
 47
0.1
 48
0.1
140
3.5
141
0.0
142
0.0
143
0.0393701
144
1.0
145
0.0
146
0.71
147
1.5
 71
     0
 72
     0
 73
     0
 74
     1
 75
     0
 76
     0
 77
     1
 78
     8
170
     0
171
     2
172
     0
173
     0
174
     0
175
     0
176
   256
177
   256
178
     2
  0
DIMSTYLE
  2
AM_ISO$4
 70
     0
  3

  4
"
  5

  6

  7

 40
1.0
 41
2.5
 42
1.0
 43
10.0
 44
1.0
 45
0.0
 46
0.0
 47
0.1
 48
0.1
140
3.5
141
0.0
142
0.0
143
0.0393701
144
1.0
145
0.0
146
0.71
147
1.5
 71
     0
 72
     0
 73
     0
 74
     1
 75
     0
 76
     0
 77
     1
 78
     8
170
     0
171
     2
172
     0
173
     0
174
     0
175
     0
176
   256
177
   256
178
     2
  0
DIMSTYLE
  2
AM_ISO$6
 70
     0
  3

  4
"
  5

  6

  7

 40
1.0
 41
2.5
 42
1.0
 43
10.0
 44
1.0
 45
0.0
 46
0.0
 47
0.1
 48
0.1
140
3.5
141
0.0
142
0.0
143
0.0393701
144
1.0
145
0.0
146
0.71
147
1.5
 71
     0
 72
     0
 73
     0
 74
     0
 75
     0
 76
     0
 77
     0
 78
     8
170
     0
171
     2
172
     1
173
     0
174
     0
175
     0
176
   256
177
   256
178
     2
  0
DIMSTYLE
  2
AM_ISO$7
 70
     0
  3

  4
"
  5

  6

  7

 40
1.0
 41
2.5
 42
1.0
 43
10.0
 44
1.0
 45
0.0
 46
0.0
 47
0.1
 48
0.1
140
5.0
141
0.0
142
0.0
143
0.0393701
144
1.0
145
0.0
146
0.71
147
1.5
 71
     0
 72
     0
 73
     0
 74
     0
 75
     0
 76
     0
 77
     1
 78
     8
170
     0
171
     2
172
     1
173
     0
174
     0
175
     0
176
   256
177
   256
178
     2
  0
DIMSTYLE
  2
AM_ISO$SF
 70
     0
  3

  4
"
  5

  6

  7

 40
1.0
 41
2.5
 42
1.0
 43
10.0
 44
1.0
 45
0.0
 46
0.0
 47
0.1
 48
0.1
140
3.5
141
0.0
142
0.0
143
0.0393701
144
1.0
145
0.0
146
0.71
147
1.5
 71
     0
 72
     0
 73
     0
 74
     0
 75
     1
 76
     1
 77
     1
 78
     8
170
     0
171
     2
172
     1
173
     0
174
     0
175
     0
176
   256
177
   256
178
     2
  0
DIMSTYLE
  2
AM_ISO$SH
 70
     0
  3

  4
"
  5

  6
GENAXEH
  7

 40
1.0
 41
2.5
 42
1.0
 43
10.0
 44
1.0
 45
0.0
 46
0.0
 47
0.1
 48
0.1
140
3.5
141
0.0
142
0.0
143
0.0393701
144
2.0
145
0.0
146
0.71
147
1.5
 71
     0
 72
     0
 73
     0
 74
     0
 75
     1
 76
     1
 77
     1
 78
     8
170
     0
171
     2
172
     1
173
     1
174
     0
175
     0
176
   256
177
   256
178
     2
  0
DIMSTYLE
  2
BIGT$2
 70
     0
  3

  4

  5
OPEN
  6

  7

 40
1.0
 41
2.2299999999999991
 42
0.5
 43
7.0
 44
1.0
 45
0.0
 46
0.0
 47
0.0
 48
0.01
140
2.7999999999999989
141
0.0
142
0.0
143
25.399999999999999
144
1.0
145
0.0
146
1.0
147
1.0
 71
     0
 72
     0
 73
     0
 74
     0
 75
     0
 76
     0
 77
     3
 78
     9
170
     0
171
     2
172
     1
173
     0
174
     0
175
     0
176
   256
177
   256
178
    40
  0
DIMSTYLE
  2
BIGT$3
 70
     0
  3

  4

  5
OPEN
  6

  7

 40
1.0
 41
2.2299999999999991
 42
0.5
 43
2.5
 44
1.0
 45
0.0
 46
0.0
 47
0.0
 48
0.01
140
2.7999999999999989
141
0.0
142
0.0
143
25.399999999999999
144
1.0
145
0.0
146
1.0
147
1.0
 71
     0
 72
     0
 73
     0
 74
     0
 75
     0
 76
     0
 77
     3
 78
     9
170
     0
171
     2
172
     1
173
     0
174
     0
175
     0
176
   256
177
   256
178
    40
  0
DIMSTYLE
  2
BIGT$7
 70
     0
  3

  4

  5
OPEN
  6

  7

 40
0.0
 41
2.2299999999999991
 42
0.5
 43
7.0
 44
1.0
 45
0.0
 46
0.0
 47
0.0
 48
0.01
140
2.7999999999999989
141
0.0
142
0.0
143
25.399999999999999
144
1.0
145
0.0
146
1.0
147
1.0
 71
     0
 72
     0
 73
     0
 74
     0
 75
     0
 76
     0
 77
     3
 78
     9
170
     0
171
     2
172
     0
173
     0
174
     0
175
     0
176
   256
177
   256
178
    40
  0
DIMSTYLE
  2
BIGT$6
 70
     0
  3

  4

  5
OPEN
  6

  7

 40
1.0
 41
2.2299999999999991
 42
0.5
 43
2.5
 44
1.0
 45
0.0
 46
0.0
 47
0.0
 48
0.01
140
2.7999999999999989
141
0.0
142
0.0
143
25.399999999999999
144
1.0
145
0.0
146
1.0
147
1.0
 71
     0
 72
     0
 73
     0
 74
     0
 75
     0
 76
     0
 77
     3
 78
     9
170
     0
171
     2
172
     1
173
     0
174
     0
175
     0
176
   256
177
   256
178
    40
  0
DIMSTYLE
  2
BIGT$0
 70
     0
  3

  4

  5
OPEN
  6

  7

 40
1.0
 41
2.2299999999999991
 42
0.5
 43
7.0
 44
1.0
 45
0.0
 46
0.0
 47
0.0
 48
0.01
140
2.7999999999999989
141
0.0
142
0.0
143
25.399999999999999
144
1.0
145
0.0
146
1.0
147
1.0
 71
     0
 72
     0
 73
     0
 74
     0
 75
     0
 76
     0
 77
     3
 78
     9
170
     0
171
     2
172
     1
173
     0
174
     1
175
     0
176
   256
177
   256
178
    40
  0
DIMSTYLE
  2
BIGT$4
 70
     0
  3

  4

  5
OPEN
  6

  7

 40
1.0
 41
2.2299999999999991
 42
0.5
 43
2.5
 44
1.0
 45
0.0
 46
0.0
 47
0.0
 48
0.01
140
2.7999999999999989
141
0.0
142
0.0
143
25.399999999999999
144
1.0
145
0.0
146
1.0
147
1.0
 71
     0
 72
     0
 73
     0
 74
     0
 75
     0
 76
     0
 77
     3
 78
     9
170
     0
171
     2
172
     1
173
     0
174
     0
175
     0
176
   256
177
   256
178
    40
  0
DIMSTYLE
  2
BIGT$SH
 70
     0
  3

  4

  5
OPEN
  6

  7

 40
1.0
 41
2.2299999999999991
 42
0.5
 43
7.0
 44
1.0
 45
0.0
 46
0.0
 47
0.0
 48
0.0
140
2.7999999999999989
141
0.0
142
0.0
143
25.399999999999999
144
1.0
145
0.0
146
1.0
147
1.0
 71
     0
 72
     0
 73
     0
 74
     0
 75
     0
 76
     0
 77
     3
 78
     9
170
     0
171
     2
172
     1
173
     0
174
     0
175
     0
176
   256
177
   256
178
    40
  0
DIMSTYLE
  2
BIGT$SF
 70
     0
  3

  4

  5
OPEN
  6

  7

 40
1.0
 41
2.2299999999999991
 42
0.5
 43
7.0
 44
1.0
 45
0.0
 46
0.0
 47
0.0
 48
0.0
140
2.7999999999999989
141
0.0
142
0.0
143
25.399999999999999
144
1.0
145
0.0
146
1.0
147
1.0
 71
     0
 72
     0
 73
     0
 74
     0
 75
     0
 76
     0
 77
     3
 78
     9
170
     0
171
     2
172
     1
173
     0
174
     0
175
     0
176
   256
177
   256
178
    40
  0
DIMSTYLE
  2
TECHNICAL_OSAKA
 70
     0
  3

  4
"
  5
OPEN30
  6

  7

 40
1.0
 41
2.5
 42
1.0
 43
10.0
 44
1.0
 45
0.0
 46
0.0
 47
0.1
 48
0.1
140
2.7999999999999989
141
0.0
142
0.0
143
0.0393701
144
1.0
145
0.0
146
0.71
147
1.5
 71
     0
 72
     0
 73
     0
 74
     0
 75
     0
 76
     0
 77
     3
 78
     8
170
     0
171
     2
172
     1
173
     0
174
     0
175
     0
176
   256
177
   256
178
    40
  0
DIMSTYLE
  2
TECHNICAL_OSAKA$3
 70
     0
  3

  4
"
  5
OPEN30
  6

  7

 40
1.0
 41
2.5
 42
1.0
 43
10.0
 44
1.0
 45
0.0
 46
0.0
 47
0.1
 48
0.1
140
2.7999999999999989
141
0.0
142
0.0
143
0.0393701
144
1.0
145
0.0
146
0.71
147
1.5
 71
     0
 72
     0
 73
     0
 74
     1
 75
     0
 76
     0
 77
     3
 78
     8
170
     0
171
     2
172
     0
173
     0
174
     0
175
     0
176
   256
177
   256
178
    40
  0
DIMSTYLE
  2
TECHNICAL_OSAKA$4
 70
     0
  3

  4
"
  5
OPEN30
  6

  7

 40
1.0
 41
2.5
 42
1.0
 43
10.0
 44
1.0
 45
0.0
 46
0.0
 47
0.1
 48
0.1
140
2.7999999999999989
141
0.0
142
0.0
143
0.0393701
144
1.0
145
0.0
146
0.71
147
1.5
 71
     0
 72
     0
 73
     0
 74
     1
 75
     0
 76
     0
 77
     3
 78
     8
170
     0
171
     2
172
     0
173
     0
174
     0
175
     0
176
   256
177
   256
178
    40
  0
DIMSTYLE
  2
TECHNICAL_OSAKA$6
 70
     0
  3

  4
"
  5
OPEN30
  6

  7

 40
1.0
 41
2.5
 42
1.0
 43
10.0
 44
1.0
 45
0.0
 46
0.0
 47
0.1
 48
0.1
140
2.7999999999999989
141
0.0
142
0.0
143
0.0393701
144
1.0
145
0.0
146
0.71
147
1.5
 71
     0
 72
     0
 73
     0
 74
     0
 75
     0
 76
     0
 77
     0
 78
     8
170
     0
171
     2
172
     1
173
     0
174
     0
175
     0
176
   256
177
   256
178
    40
  0
DIMSTYLE
  2
TECHNICAL_OSAKA$7
 70
     0
  3

  4
"
  5
OPEN30
  6

  7

 40
1.0
 41
2.5
 42
1.0
 43
10.0
 44
1.0
 45
0.0
 46
0.0
 47
0.1
 48
0.1
140
2.7999999999999989
141
0.0
142
0.0
143
0.0393701
144
1.0
145
0.0
146
0.71
147
1.5
 71
     0
 72
     0
 73
     0
 74
     0
 75
     0
 76
     0
 77
     3
 78
     8
170
     0
171
     2
172
     1
173
     0
174
     0
175
     0
176
   256
177
   256
178
    40
  0
DIMSTYLE
  2
TECHNICAL_OSAKA$SF
 70
     0
  3

  4
"
  5
OPEN30
  6
OPEN30
  7
OPEN30
 40
1.0
 41
2.5
 42
1.0
 43
10.0
 44
1.0
 45
0.0
 46
0.0
 47
0.1
 48
0.1
140
3.5
141
0.0
142
0.0
143
0.0393701
144
1.0
145
0.0
146
0.71
147
1.5
 71
     0
 72
     0
 73
     0
 74
     0
 75
     1
 76
     1
 77
     3
 78
     8
170
     0
171
     2
172
     1
173
     0
174
     0
175
     0
176
   256
177
   256
178
    40
  0
DIMSTYLE
  2
TECHNICAL_OSAKA$SH
 70
     0
  3

  4
"
  5
OPEN30
  6
GENAXEH
  7
OPEN30
 40
1.0
 41
2.5
 42
1.0
 43
10.0
 44
1.0
 45
0.0
 46
0.0
 47
0.1
 48
0.1
140
3.5
141
0.0
142
0.0
143
0.0393701
144
2.0
145
0.0
146
0.71
147
1.5
 71
     0
 72
     0
 73
     0
 74
     0
 75
     1
 76
     1
 77
     3
 78
     8
170
     0
171
     2
172
     1
173
     1
174
     0
175
     0
176
   256
177
   256
178
    40
  0
DIMSTYLE
  2
STANDARD
 70
     0
  3

  4

  5

  6

  7

 40
1.0
 41
0.18
 42
0.0625
 43
0.38
 44
0.18
 45
0.0
 46
0.0
 47
0.0
 48
0.0
140
0.18
141
0.09
142
0.0
143
25.399999999999999
144
1.0
145
0.0
146
1.0
147
0.09
 71
     0
 72
     0
 73
     1
 74
     1
 75
     0
 76
     0
 77
     0
 78
     0
170
     0
171
     2
172
     0
173
     0
174
     0
175
     0
176
     0
177
     0
178
     0
  0
ENDTAB
  0
ENDSEC
  0
SECTION
  2
BLOCKS
  0
BLOCK
  8
0
  2
$MODEL_SPACE
 70
     0
 10
0.0
 20
0.0
 30
0.0
  3
$MODEL_SPACE
  1

  0
ENDBLK
  5
1C
  8
0
  0
BLOCK
 67
     1
  8
0
  2
$PAPER_SPACE
 70
     0
 10
0.0
 20
0.0
 30
0.0
  3
$PAPER_SPACE
  1

  0
ENDBLK
  5
19
 67
     1
  8
0
  0
BLOCK
  8
0
  2
_OPEN
 70
     0
 10
0.0
 20
0.0
 30
0.0
  3
_OPEN
  1

  0
LINE
  5
4CB7
  8
0
  6
BYBLOCK
 62
     0
 10
-1.0
 20
0.1666666666666666
 30
0.0
 11
0.0
 21
0.0
 31
0.0
  0
LINE
  5
4CB8
  8
0
  6
BYBLOCK
 62
     0
 10
-1.0
 20
-0.1666666666666666
 30
0.0
 11
0.0
 21
0.0
 31
0.0
  0
LINE
  5
4CB9
  8
0
  6
BYBLOCK
 62
     0
 10
0.0
 20
0.0
 30
0.0
 11
-1.0
 21
0.0
 31
0.0
  0
ENDBLK
  5
4CBA
  8
0
  0
BLOCK
  8
0
  2
GENAXEH
 70
     0
 10
0.0
 20
0.0
 30
0.0
  3
GENAXEH
  1

  0
LINE
  5
4CF2
  8
0
 10
-1.0
 20
0.0
 30
0.0
 11
1.0
 21
0.0
 31
0.0
  0
ENDBLK
  5
4CF3
  8
0
  0
BLOCK
  8
0
  2
_OPEN30
 70
     0
 10
0.0
 20
0.0
 30
0.0
  3
_OPEN30
  1

  0
LINE
  5
4D2E
  8
0
  6
BYBLOCK
 62
     0
 10
-1.0
 20
0.26794919
 30
0.0
 11
0.0
 21
0.0
 31
0.0
  0
LINE
  5
4D2F
  8
0
  6
BYBLOCK
 62
     0
 10
0.0
 20
0.0
 30
0.0
 11
-1.0
 21
-0.26794919
 31
0.0
  0
LINE
  5
4D30
  8
0
  6
BYBLOCK
 62
     0
 10
0.0
 20
0.0
 30
0.0
 11
-1.0
 21
0.0
 31
0.0
  0
ENDBLK
  5
4D31
  8
0
  0
ENDSEC
  0
SECTION
  2
ENTITIES
  0
LINE
  5
45A2
  8
245
  6
CENTER2
 10
-30.87699484790291
 20
0.0
 30
0.0
 11
245.0000000000008
 21
0.0000000000000284
 31
0.0
  0
LINE
  5
45A3
  8
245
  6
CENTER2
 10
-28.309846872759589
 20
70.0
 30
0.0
 11
251.13960969963921
 21
69.999999999999972
 31
0.0
  0
LINE
  5
45A4
  8
245
  6
CENTER2
 10
0.0000000000007816
 20
30.876994847903688
 30
0.0
 11
0.0000000000007816
 21
-30.876994847903688
 31
0.0
  0
LINE
  5
45A5
  8
245
  6
CENTER2
 10
0.0000000000007816
 20
82.092469285125176
 30
0.0
 11
0.0000000000007816
 21
57.529422140724733
 31
0.0
  0
LINE
  5
45A6
  8
241
  6
CONTINUOUS
 10
-27.79019107722765
 20
69.25
 30
0.0
 11
239.98241220842539
 21
69.25
 31
0.0
  0
LINE
  5
45A7
  8
241
  6
CONTINUOUS
 10
-27.79019107722765
 20
70.75
 30
0.0
 11
240.0000000000008
 21
70.75
 31
0.0
  0
LINE
  5
45A9
  8
240
  6
CONTINUOUS
 10
-24.572248296088091
 20
80.0
 30
0.0
 11
24.572248296089661
 21
80.0
 31
0.0
  0
LINE
  5
45AA
  8
240
  6
CONTINUOUS
 10
-24.572248296088091
 20
60.0
 30
0.0
 11
24.572248296089661
 21
60.0
 31
0.0
  0
CIRCLE
  5
45AC
  8
241
  6
CONTINUOUS
 10
0.0000000000007816
 20
0.0
 30
0.0
 40
26.0
  0
ARC
  5
45AD
  8
240
  6
CONTINUOUS
 10
0.0000000000007816
 20
0.0
 30
0.0
 40
27.800000000000001
 50
55.401037295450479
 51
304.59896270454948
  0
ARC
  5
45AE
  8
240
  6
CONTINUOUS
 10
38.4987955362392
 20
55.80934278648067
 30
0.0
 40
40.0
 50
235.40103729545041
 51
263.00000000000063
1001
ASK_MEN_XD
1005
45D0
1070
     1
1005
45AD
1070
     1
  0
ARC
  5
45B2
  8
240
  6
CONTINUOUS
 10
0.8777777777783768
 20
70.0
 30
0.0
 40
28.67777777777761
 50
162.54990138190769
 51
197.4500986180922
  0
ARC
  5
45B4
  8
240
  6
CONTINUOUS
 10
-0.8777777777768137
 20
70.0
 30
0.0
 40
28.67777777777761
 50
342.54990138190777
 51
342.98274739204481
  0
ARC
  5
45B5
  8
240
  6
CONTINUOUS
 10
-0.8777777777768137
 20
70.0
 30
0.0
 40
28.67777777777761
 50
17.017252607955189
 51
17.45009861809223
  0
ARC
  5
45B6
  8
240
  6
CONTINUOUS
 10
27.022499877415569
 20
78.539158202805822
 30
0.0
 40
0.5
 50
197.01725260795689
 51
267.00000000000091
1001
ASK_MEN_XD
1005
47B1
1070
     1
1005
45B5
1070
     1
  0
ARC
  5
45B9
  8
241
  6
CONTINUOUS
 10
0.0000000000007248
 20
0.0
 30
0.0
 40
26.825541576567328
 50
327.75974156367897
 51
27.218586440080021
  0
ARC
  5
45BA
  8
241
  6
CONTINUOUS
 10
0.0000000000007816
 20
0.0
 30
0.0
 40
29.0
 50
342.03261411981418
 51
17.967385880185759
  0
ARC
  5
45BB
  8
241
  6
CONTINUOUS
 10
29.488200122825969
 20
-9.5627429912244963
 30
0.0
 40
2.0
 50
162.03261411981421
 51
276.99999999999852
1001
ASK_MEN_XD
1005
45D6
1070
     1
1005
45BA
1070
     1
  0
ARC
  5
45BC
  8
241
  6
CONTINUOUS
 10
29.48820012282594
 20
9.5627429912245248
 30
0.0
 40
2.0
 50
82.999999999999844
 51
197.9673858801857
1001
ASK_MEN_XD
1005
45BA
1070
     1
1005
45D5
1070
     1
  0
ARC
  5
45C3
  8
240
  6
CONTINUOUS
 10
-24.572248296088091
 20
78.0
 30
0.0
 40
2.0
 50
90.0
 51
162.54990138190769
  0
ARC
  5
45C4
  8
240
  6
CONTINUOUS
 10
-24.572248296088091
 20
62.0
 30
0.0
 40
2.0
 50
197.4500986180922
 51
270.0
  0
ARC
  5
45C7
  8
240
  6
CONTINUOUS
 10
24.572248296089661
 20
78.0
 30
0.0
 40
2.0
 50
17.45009861809223
 51
90.0
  0
ARC
  5
45C8
  8
240
  6
CONTINUOUS
 10
24.572248296089661
 20
62.0
 30
0.0
 40
2.0
 50
270.0
 51
342.54990138190777
  0
ARC
  5
45C9
  8
240
  6
CONTINUOUS
 10
226.5000000000008
 20
0.0000000000000284
 30
0.0
 40
13.5
 50
268.50000000000051
 51
91.499999999999503
  0
LINE
  5
45CA
  8
245
  6
CENTER2
 10
226.5000000000008
 20
16.200000000000038
 30
0.0
 11
226.5000000000008
 21
-16.19999999999996
 31
0.0
  0
LINE
  5
45CB
  8
245
  6
CENTER2
 10
240.060800887563
 20
13.85972976708371
 30
0.0
 11
240.0000000000008
 21
13.85813763981065
 31
0.0
  0
LINE
  5
45CC
  8
240
  6
CONTINUOUS
 10
226.14661119784461
 20
13.49537388717005
 30
0.0
 11
92.428737158801894
 21
9.9938481251866165
 31
0.0
  0
ARC
  5
45CD
  8
240
  6
CONTINUOUS
 10
89.811042328015517
 20
109.95958062274229
 30
0.0
 40
100.0
 50
263.00000000000063
 51
271.49999999999949
1001
ASK_MEN_XD
1005
45D0
1070
     1
1005
45CC
1070
     1
  0
LINE
  5
45CE
  8
240
  6
CONTINUOUS
 10
226.14661119784461
 20
-13.49537388716999
 30
0.0
 11
92.428737158801951
 21
-9.9938481251864175
 31
0.0
  0
LINE
  5
45CF
  8
241
  6
CONTINUOUS
 10
85.000000000000753
 20
10.075378309673621
 30
0.0
 11
85.000000000000753
 21
-10.075378309673511
 31
0.0
  0
LINE
  5
45D0
  8
240
  6
CONTINUOUS
 10
77.624107987501489
 20
10.70496545861004
 30
0.0
 11
33.624021800033638
 21
16.107496720827839
 31
0.0
  0
ARC
  5
45D1
  8
240
  6
CONTINUOUS
 10
38.4987955362392
 20
-55.80934278648062
 30
0.0
 40
40.0
 50
96.999999999999375
 51
124.59896270454951
1001
ASK_MEN_XD
1005
45D0
1070
     1
1005
45AD
1070
     1
  0
ARC
  5
45D2
  8
240
  6
CONTINUOUS
 10
89.811042328015517
 20
-109.95958062274229
 30
0.0
 40
100.0
 50
88.500000000000526
 51
96.999999999999375
1001
ASK_MEN_XD
1005
45D0
1070
     1
1005
45CC
1070
     1
  0
LINE
  5
45D3
  8
240
  6
CONTINUOUS
 10
77.624107987501489
 20
-10.70496545860999
 30
0.0
 11
33.624021800033638
 21
-16.107496720827779
 31
0.0
  0
CIRCLE
  5
45D4
  8
241
  6
CONTINUOUS
 10
226.5000000000008
 20
0.0000000000000568
 30
0.0
 40
8.0
  0
LINE
  5
45D5
  8
241
  6
CONTINUOUS
 10
29.731938809636251
 20
11.547835294507189
 30
0.0
 11
74.129435950372894
 21
6.0965081028942327
 31
0.0
  0
LINE
  5
45D6
  8
241
  6
CONTINUOUS
 10
29.731938809636219
 20
-11.54783529450714
 30
0.0
 11
74.129435950372823
 21
-6.0965081028942327
 31
0.0
  0
ARC
  5
4760
  8
241
  6
CONTINUOUS
 10
0.0000000000007816
 20
0.0
 30
0.0
 40
76.0
 50
356.81502518800897
 51
3.1849748119910108
  0
ARC
  5
4761
  8
241
  6
CONTINUOUS
 10
73.885697263562591
 20
4.1114157996116196
 30
0.0
 40
2.0
 50
3.1849748119910108
 51
82.999999999999844
1001
ASK_MEN_XD
1005
4760
1070
     1
1005
45D5
1070
     1
  0
ARC
  5
4762
  8
241
  6
CONTINUOUS
 10
73.885697263562591
 20
-4.1114157996115921
 30
0.0
 40
2.0
 50
276.99999999999852
 51
356.81502518800738
1001
ASK_MEN_XD
1005
4760
1070
     1
1005
45D6
1070
     1
  0
LINE
  5
4764
  8
241
  6
CONTINUOUS
 10
203.3926542246187
 20
7.8978265920264326
 30
0.0
 11
98.518465875054929
 21
5.151599321273693
 31
0.0
  0
LINE
  5
4765
  8
241
  6
CONTINUOUS
 10
203.3926542246187
 20
-7.8978265920263757
 30
0.0
 11
98.518465875054929
 21
-5.1515993212734648
 31
0.0
  0
ARC
  5
4766
  8
241
  6
CONTINUOUS
 10
203.59946609232449
 20
0.0000000000000568
 30
0.0
 40
7.9005339076762757
 50
268.50000000000051
 51
91.499999999999503
  0
ARC
  5
4767
  8
241
  6
CONTINUOUS
 10
98.653365250837638
 20
0.0000000000000853
 30
0.0
 40
5.1533652508368837
 50
91.499999999999503
 51
268.50000000000051
  0
LINE
  5
4781
  8
241
  6
CONTINUOUS
 10
37.399388655256082
 20
-6.043548619456856
 30
0.0
 11
39.40628704170183
 21
-4.5312422122058811
 31
0.0
  0
LINE
  5
4782
  8
241
  6
CONTINUOUS
 10
34.253509263923888
 20
-9.2043875967444801
 30
0.0
 11
34.253509263923888
 21
-6.3460542634110757
 31
0.0
  0
LINE
  5
4783
  8
241
  6
CONTINUOUS
 10
37.017734141990388
 20
4.0638384886781864
 30
0.0
 11
37.959201207696928
 21
4.2639534910902901
 31
0.0
  0
LINE
  5
4784
  8
241
  6
CONTINUOUS
 10
30.753509263924059
 20
-9.2043875967444801
 30
0.0
 11
34.253509263924002
 21
-9.2043875967444801
 31
0.0
  0
LINE
  5
4785
  8
241
  6
CONTINUOUS
 10
38.22618810548537
 20
-4.2587949054567096
 30
0.0
 11
39.406287041700473
 21
-4.531242212209917
 31
0.0
  0
LINE
  5
4786
  8
241
  6
CONTINUOUS
 10
36.258551828033518
 20
-3.804530277288364
 30
0.0
 11
37.28521508747594
 21
-4.0415541668909318
 31
0.0
  0
LINE
  5
4787
  8
241
  6
CONTINUOUS
 10
36.258551828036673
 20
-3.8045302772844991
 30
0.0
 11
37.399388655258292
 21
-6.0435486194567991
 31
0.0
  0
LINE
  5
4788
  8
241
  6
CONTINUOUS
 10
30.753509263924059
 20
-8.6793875967445047
 30
0.0
 11
33.728509263923861
 21
-8.6793875967445047
 31
0.0
  0
LINE
  5
4789
  8
241
  6
CONTINUOUS
 10
33.728509263923861
 20
-8.6793875967445047
 30
0.0
 11
33.728509263923861
 21
-6.3460542634110757
 31
0.0
  0
LINE
  5
478A
  8
241
  6
CONTINUOUS
 10
33.728509263923861
 20
-6.3460542634110757
 30
0.0
 11
34.253509263923888
 21
-6.3460542634110757
 31
0.0
  0
LINE
  5
478B
  8
241
  6
CONTINUOUS
 10
30.753509263924059
 20
-9.2043875967444801
 30
0.0
 11
30.753509263924059
 21
-8.6793875967445047
 31
0.0
  0
LINE
  5
478C
  8
241
  6
CONTINUOUS
 10
30.753509263924059
 20
6.9831124032556877
 30
0.0
 11
32.288812914421158
 21
6.9831124032556877
 31
0.0
  0
LINE
  5
478D
  8
241
  6
CONTINUOUS
 10
30.753509263924059
 20
6.458112403255682
 30
0.0
 11
34.253509263924002
 21
6.458112403255682
 31
0.0
  0
LINE
  5
478E
  8
241
  6
CONTINUOUS
 10
32.280572525313573
 20
7.770758166445745
 30
0.0
 11
31.141214148236319
 21
9.0186268651493702
 31
0.0
  0
LINE
  5
478F
  8
241
  6
CONTINUOUS
 10
32.288812914421158
 20
6.9831124032556877
 30
0.0
 11
30.753509263924059
 21
8.6646354490381992
 31
0.0
  0
LINE
  5
4790
  8
241
  6
CONTINUOUS
 10
32.635034895189882
 20
7.3825374756288511
 30
0.0
 11
34.253509263923974
 21
8.7140301618339322
 31
0.0
  0
LINE
  5
4791
  8
241
  6
CONTINUOUS
 10
32.280572525313573
 20
7.7707581664457157
 30
0.0
 11
33.919967281105698
 21
9.1194617167203944
 31
0.0
  0
LINE
  5
4792
  8
241
  6
CONTINUOUS
 10
34.253509263924002
 20
6.458112403255682
 30
0.0
 11
34.253509263924002
 21
6.9831124032556877
 31
0.0
  0
LINE
  5
4793
  8
241
  6
CONTINUOUS
 10
30.753509263924059
 20
6.458112403255682
 30
0.0
 11
30.753509263924059
 21
6.9831124032556877
 31
0.0
  0
LINE
  5
4794
  8
241
  6
CONTINUOUS
 10
33.919967281105698
 20
9.1194617167203944
 30
0.0
 11
34.253509263924002
 21
8.7140301618339322
 31
0.0
  0
LINE
  5
4795
  8
241
  6
CONTINUOUS
 10
30.753509263924059
 20
8.6646354490381992
 30
0.0
 11
31.141214148236319
 21
9.0186268651493702
 31
0.0
  0
LINE
  5
4796
  8
241
  6
CONTINUOUS
 10
32.999727352574098
 20
6.9831124032556602
 30
0.0
 11
32.635034895189882
 21
7.3825374756288511
 31
0.0
  0
LINE
  5
4797
  8
241
  6
CONTINUOUS
 10
32.999727352574098
 20
6.9831124032556877
 30
0.0
 11
34.253509263924002
 21
6.9831124032556877
 31
0.0
  0
LINE
  5
4798
  8
241
  6
CONTINUOUS
 10
32.182675930590392
 20
-4.1589986767446874
 30
0.0
 11
32.824342597257221
 21
-4.1589986767446874
 31
0.0
  0
LINE
  5
4799
  8
241
  6
CONTINUOUS
 10
32.182675930590392
 20
-1.3006653434113671
 30
0.0
 11
32.824342597257221
 21
-1.3006653434113671
 31
0.0
  0
LINE
  5
479A
  8
241
  6
CONTINUOUS
 10
32.182675930590392
 20
-3.6339986767446808
 30
0.0
 11
32.824342597257221
 21
-3.6339986767446808
 31
0.0
  0
LINE
  5
479B
  8
241
  6
CONTINUOUS
 10
32.182675930590392
 20
-1.825665343411401
 30
0.0
 11
32.824342597257221
 21
-1.825665343411401
 31
0.0
  0
LINE
  5
479C
  8
241
  6
CONTINUOUS
 10
32.182675930590392
 20
1.6745568632555601
 30
0.0
 11
32.824342597257221
 21
1.6745568632555601
 31
0.0
  0
LINE
  5
479D
  8
241
  6
CONTINUOUS
 10
32.182675930590392
 20
1.149556863255554
 30
0.0
 11
32.824342597257221
 21
1.149556863255554
 31
0.0
  0
LINE
  5
479E
  8
241
  6
CONTINUOUS
 10
31.948660377310208
 20
3.4520814645252349
 30
0.0
 11
31.81278037863137
 21
3.9591925233270042
 31
0.0
  0
LINE
  5
479F
  8
241
  6
CONTINUOUS
 10
33.058358150537401
 20
3.4520814645252349
 30
0.0
 11
33.194238149216233
 21
3.9591925233269758
 31
0.0
  0
ARC
  5
47A0
  8
241
  6
CONTINUOUS
 10
14.422524565038939
 20
-0.7389215692119251
 30
0.0
 40
23.100000000000001
 50
351.78019184719892
 51
11.99999999999627
  0
ARC
  5
47A1
  8
241
  6
CONTINUOUS
 10
14.422524565038939
 20
-0.7389215692119251
 30
0.0
 40
24.0625
 50
351.58856573579061
 51
11.99999999999627
  0
ARC
  5
47A2
  8
241
  6
CONTINUOUS
 10
32.824342597257221
 20
-2.7298320100780411
 30
0.0
 40
1.42916666666665
 50
270.0
 51
90.0
  0
ARC
  5
47A3
  8
241
  6
CONTINUOUS
 10
32.182675930590392
 20
-2.7298320100780411
 30
0.0
 40
1.42916666666665
 50
90.0
 51
270.0
  0
ARC
  5
47A4
  8
241
  6
CONTINUOUS
 10
32.824342597257221
 20
-2.7298320100780411
 30
0.0
 40
0.90416666666665
 50
270.0
 51
90.0
  0
ARC
  5
47A5
  8
241
  6
CONTINUOUS
 10
32.182675930590392
 20
-2.7298320100780411
 30
0.0
 40
0.90416666666665
 50
90.0
 51
270.0
  0
ARC
  5
47A6
  8
241
  6
CONTINUOUS
 10
32.182675930590392
 20
2.578723529922228
 30
0.0
 40
0.90416666666665
 50
104.9999999999996
 51
270.0
  0
ARC
  5
47A7
  8
241
  6
CONTINUOUS
 10
32.182675930590392
 20
2.578723529922228
 30
0.0
 40
1.42916666666665
 50
104.9999999999996
 51
270.0
  0
ARC
  5
47A8
  8
241
  6
CONTINUOUS
 10
32.824342597257221
 20
2.578723529922228
 30
0.0
 40
1.42916666666665
 50
270.0
 51
75.000000000000341
  0
ARC
  5
47A9
  8
241
  6
CONTINUOUS
 10
32.824342597257221
 20
2.578723529922228
 30
0.0
 40
0.90416666666665
 50
270.0
 51
75.000000000000341
  0
ARC
  5
47AA
  8
240
  6
CONTINUOUS
 10
224.0000000000008
 20
70.0
 30
0.0
 40
16.0
 50
351.15011690157058
 51
8.8498830984294141
  0
ARC
  5
47AB
  8
240
  6
CONTINUOUS
 10
236.8452325786659
 20
68.0
 30
0.0
 40
3.0
 50
270.0
 51
351.15011690157058
1001
ASK_MEN_XD
1005
47AA
1070
     1
1005
47AF
1070
     1
  0
ARC
  5
47AC
  8
240
  6
CONTINUOUS
 10
236.8452325786659
 20
72.0
 30
0.0
 40
3.0
 50
8.8498830984294141
 51
90.0
1001
ASK_MEN_XD
1005
47AA
1070
     1
1005
47AD
1070
     1
  0
LINE
  5
47AD
  8
240
  6
CONTINUOUS
 10
236.8452325786659
 20
75.0
 30
0.0
 11
87.618592156919576
 21
75.0
 31
0.0
  0
ARC
  5
47AE
  8
240
  6
CONTINUOUS
 10
87.618592156919604
 20
175.0
 30
0.0
 40
100.0
 50
267.00000000000011
 51
270.0
1001
ASK_MEN_XD
1005
47B1
1070
     1
1005
47AD
1070
     1
  0
LINE
  5
47AF
  8
240
  6
CONTINUOUS
 10
236.8452325786659
 20
65.0
 30
0.0
 11
87.618592156919576
 21
65.0
 31
0.0
  0
LINE
  5
47B1
  8
240
  6
CONTINUOUS
 10
82.384996532625379
 20
75.137046524542598
 30
0.0
 11
26.996331899294109
 21
78.039843435428494
 31
0.0
  0
ARC
  5
47B2
  8
240
  6
CONTINUOUS
 10
27.022499877415569
 20
61.460841797194178
 30
0.0
 40
0.5
 50
92.999999999999105
 51
162.98274739204311
1001
ASK_MEN_XD
1005
47B1
1070
     1
1005
45B5
1070
     1
  0
ARC
  5
47B3
  8
240
  6
CONTINUOUS
 10
87.618592156919576
 20
-35.0
 30
0.0
 40
100.0
 50
90.0
 51
92.999999999999929
1001
ASK_MEN_XD
1005
47B1
1070
     1
1005
47AD
1070
     1
  0
LINE
  5
47B4
  8
240
  6
CONTINUOUS
 10
82.384996532625379
 20
64.862953475457374
 30
0.0
 11
26.996331899294109
 21
61.960156564571427
 31
0.0
  0
CIRCLE
  5
47FE
  8
241
  6
CONTINUOUS
 10
0.00000000000108
 20
0.0
 30
0.0
 40
21.0
  0
CIRCLE
  5
4A8B
  8
246
  6
PHANTOM2
 10
0.0000000000007816
 20
0.0
 30
0.0
 40
17.5
  0
LINE
  5
4A8C
  8
246
  6
PHANTOM2
 10
-17.499999999999218
 20
80.0
 30
0.0
 11
-17.499999999999211
 21
60.0
 31
0.0
  0
LINE
  5
4A8D
  8
246
  6
PHANTOM2
 10
17.500000000000782
 20
80.0
 30
0.0
 11
17.500000000000782
 21
60.0
 31
0.0
  0
TEXT
  5
4BB9
  8
241
  6
CONTINUOUS
 10
-28.0
 20
105.0
 30
0.0
 40
4.0
  1
MGR35L
  7
YOKO
  0
LINE
  5
4BDB
  8
250
  6
CONTINUOUS
 10
-27.799999999999219
 20
0.5000000000000004
 30
0.0
 11
-27.799999999999219
 21
42.999999999999943
 31
0.0
  0
LINE
  5
4BDC
  8
250
  6
CONTINUOUS
 10
240.0000000000008
 20
0.5000000000000279
 30
0.0
 11
240.0000000000008
 21
42.999999999999943
 31
0.0
  0
LINE
  5
4BDD
  8
250
  6
CONTINUOUS
 10
-25.569999999999219
 20
41.999999999999943
 30
0.0
 11
237.77000000000081
 21
41.999999999999943
 31
0.0
  0
LINE
  5
4BE1
  8
250
  6
CONTINUOUS
 10
0.0000000000007816
 20
31.376994847903688
 30
0.0
 11
0.0000000000007819
 21
36.0
 31
0.0
  0
LINE
  5
4BE2
  8
250
  6
CONTINUOUS
 10
240.0000000000008
 20
0.5000000000000279
 30
0.0
 11
240.0000000000008
 21
36.0
 31
0.0
  0
LINE
  5
4BE3
  8
250
  6
CONTINUOUS
 10
2.230000000000782
 20
35.0
 30
0.0
 11
237.77000000000081
 21
35.0
 31
0.0
  0
LINE
  5
4BE7
  8
250
  6
CONTINUOUS
 10
-27.799999999999219
 20
0.5000000000000004
 30
0.0
 11
-27.799999999999219
 21
36.0
 31
0.0
  0
LINE
  5
4BE8
  8
250
  6
CONTINUOUS
 10
0.0000000000007816
 20
31.376994847903688
 30
0.0
 11
0.0000000000007819
 21
36.0
 31
0.0
  0
LINE
  5
4BE9
  8
250
  6
CONTINUOUS
 10
-25.569999999999219
 20
35.0
 30
0.0
 11
-2.2299999999992171
 21
35.0
 31
0.0
  0
LINE
  5
4BED
  8
250
  6
CONTINUOUS
 10
-17.499999999999218
 20
80.5
 30
0.0
 11
-17.499999999999218
 21
92.0
 31
0.0
  0
LINE
  5
4BEE
  8
250
  6
CONTINUOUS
 10
17.500000000000782
 20
80.5
 30
0.0
 11
17.500000000000782
 21
92.0
 31
0.0
  0
LINE
  5
4BEF
  8
250
  6
CONTINUOUS
 10
-15.26999999999922
 20
91.0
 30
0.0
 11
15.270000000000779
 21
91.0
 31
0.0
  0
TEXT
  5
4BF3
  8
250
  6
CONTINUOUS
 10
100.1000000000008
 20
42.999999999999943
 30
0.0
 40
2.7999999999999989
  1
267.8
  0
LINE
  5
4BF4
  8
250
  6
CONTINUOUS
 10
237.77000000000081
 20
42.371666666666613
 30
0.0
 11
240.0000000000008
 21
41.999999999999943
 31
0.0
  0
LINE
  5
4BF5
  8
250
  6
CONTINUOUS
 10
237.77000000000081
 20
41.628333333333273
 30
0.0
 11
240.0000000000008
 21
41.999999999999943
 31
0.0
  0
LINE
  5
4BF6
  8
250
  6
CONTINUOUS
 10
240.0000000000008
 20
41.999999999999943
 30
0.0
 11
237.77000000000081
 21
41.999999999999943
 31
0.0
  0
LINE
  5
4BF7
  8
250
  6
CONTINUOUS
 10
-25.569999999999219
 20
41.628333333333273
 30
0.0
 11
-27.799999999999219
 21
41.999999999999943
 31
0.0
  0
LINE
  5
4BF8
  8
250
  6
CONTINUOUS
 10
-25.569999999999219
 20
42.371666666666613
 30
0.0
 11
-27.799999999999219
 21
41.999999999999943
 31
0.0
  0
LINE
  5
4BF9
  8
250
  6
CONTINUOUS
 10
-27.799999999999219
 20
41.999999999999943
 30
0.0
 11
-25.569999999999219
 21
41.999999999999943
 31
0.0
  0
TEXT
  5
4BFA
  8
250
  6
CONTINUOUS
 10
116.0000000000008
 20
36.0
 30
0.0
 40
2.7999999999999989
  1
240
  0
LINE
  5
4BFB
  8
250
  6
CONTINUOUS
 10
237.77000000000081
 20
35.37166666666667
 30
0.0
 11
240.0000000000008
 21
35.0
 31
0.0
  0
LINE
  5
4BFC
  8
250
  6
CONTINUOUS
 10
237.77000000000081
 20
34.62833333333333
 30
0.0
 11
240.0000000000008
 21
35.0
 31
0.0
  0
LINE
  5
4BFD
  8
250
  6
CONTINUOUS
 10
240.0000000000008
 20
35.0
 30
0.0
 11
237.77000000000081
 21
35.0
 31
0.0
  0
LINE
  5
4BFE
  8
250
  6
CONTINUOUS
 10
2.230000000000782
 20
34.62833333333333
 30
0.0
 11
0.0000000000007818
 21
35.0
 31
0.0
  0
LINE
  5
4BFF
  8
250
  6
CONTINUOUS
 10
2.230000000000782
 20
35.37166666666667
 30
0.0
 11
0.0000000000007818
 21
35.0
 31
0.0
  0
LINE
  5
4C00
  8
250
  6
CONTINUOUS
 10
0.0000000000007818
 20
35.0
 30
0.0
 11
2.230000000000782
 21
35.0
 31
0.0
  0
TEXT
  5
4C01
  8
250
  6
CONTINUOUS
 10
-18.566666666665881
 20
36.0
 30
0.0
 40
2.7999999999999989
  1
27.8
  0
LINE
  5
4C02
  8
250
  6
CONTINUOUS
 10
-2.2299999999992171
 20
35.37166666666667
 30
0.0
 11
0.0000000000007818
 21
35.0
 31
0.0
  0
LINE
  5
4C03
  8
250
  6
CONTINUOUS
 10
-2.2299999999992171
 20
34.62833333333333
 30
0.0
 11
0.0000000000007818
 21
35.0
 31
0.0
  0
LINE
  5
4C04
  8
250
  6
CONTINUOUS
 10
0.0000000000007818
 20
35.0
 30
0.0
 11
-2.2299999999992171
 21
35.0
 31
0.0
  0
LINE
  5
4C05
  8
250
  6
CONTINUOUS
 10
-25.569999999999219
 20
34.62833333333333
 30
0.0
 11
-27.799999999999219
 21
35.0
 31
0.0
  0
LINE
  5
4C06
  8
250
  6
CONTINUOUS
 10
-25.569999999999219
 20
35.37166666666667
 30
0.0
 11
-27.799999999999219
 21
35.0
 31
0.0
  0
LINE
  5
4C07
  8
250
  6
CONTINUOUS
 10
-27.799999999999219
 20
35.0
 30
0.0
 11
-25.569999999999219
 21
35.0
 31
0.0
  0
TEXT
  5
4C08
  8
250
  6
CONTINUOUS
 10
-3.9333333333325489
 20
92.000000000000014
 30
0.0
 40
2.7999999999999989
  1
\U+220535
  0
LINE
  5
4C09
  8
250
  6
CONTINUOUS
 10
15.270000000000779
 20
91.37166666666667
 30
0.0
 11
17.500000000000782
 21
91.0
 31
0.0
  0
LINE
  5
4C0A
  8
250
  6
CONTINUOUS
 10
15.270000000000779
 20
90.62833333333333
 30
0.0
 11
17.500000000000782
 21
91.0
 31
0.0
  0
LINE
  5
4C0B
  8
250
  6
CONTINUOUS
 10
17.500000000000782
 20
91.0
 30
0.0
 11
15.270000000000779
 21
91.0
 31
0.0
  0
LINE
  5
4C0C
  8
250
  6
CONTINUOUS
 10
-15.26999999999922
 20
90.62833333333333
 30
0.0
 11
-17.499999999999218
 21
91.0
 31
0.0
  0
LINE
  5
4C0D
  8
250
  6
CONTINUOUS
 10
-15.26999999999922
 20
91.37166666666667
 30
0.0
 11
-17.499999999999218
 21
91.0
 31
0.0
  0
LINE
  5
4C0E
  8
250
  6
CONTINUOUS
 10
-17.499999999999218
 20
91.0
 30
0.0
 11
-15.26999999999922
 21
91.0
 31
0.0
  0
VIEWPORT
  5
22
 67
     1
  8
0
 10
261.51769911504419
 20
148.5
 30
0.0
 40
523.0353982300885
 41
297.0
 68
     1
 69
     1
1001
ACAD
1000
MVIEW
1002
{
1070
    16
1010
0.0
1020
0.0
1030
0.0
1010
0.0
1020
0.0
1030
1.0
1040
0.0
1040
297.0
1040
261.51769911504419
1040
148.5
1040
50.0
1040
0.0
1040
0.0
1070
     0
1070
   100
1070
     1
1070
     1
1070
     0
1070
     0
1070
     0
1070
     0
1040
0.0
1040
0.0
1040
0.0
1040
1.0
1040
1.0
1040
10.0
1040
10.0
1070
     0
1002
{
1002
}
1002
}
1001
GENIUS_GENODEF_13
1002
{
1000
HIER
1070
     0
1002
}
1002
{
1000
MANEDIT
1070
     0
1002
}
1002
{
1000
NOSEL
1070
     0
1002
}
1002
{
1000
BEHIND
1070
     0
1002
}
1002
{
1000
OTHER
1070
     0
1002
}
1002
{
1000
REACTOR
1002
}
1001
GENIUS_GENOBJ-N-SDF_13
1002
{
1000
OWNER
1000
GEN
1002
}
1001
GENIUS_GENSCREG_15
1000
PF
1040
1.0
1000
DF
1040
1.0
1000
MIN
1011
0.0
1021
0.0
1031
0.0
1021
0.0
1031
0.0
1000
MAX
1011
523.0353982300885
1021
0.0
1031
0.0
1021
297.0
1031
0.0
1000
FLAGS
1070
     4
  0
ENDSEC
  0
EOF
