  0
SECTION
  2
HEADER
  9
$ACADVER
  1
AC1009
  9
$INSBASE
 10
0.0
 20
0.0
 30
0.0
  9
$EXTMIN
 10
-28.258520943418691
 20
-26.450626510882241
 30
0.0
  9
$EXTMAX
 10
223.64051926556539
 20
109.0
 30
0.0
  9
$LIMMIN
 10
0.0
 20
0.0
  9
$LIMMAX
 10
297.0
 20
210.0
  9
$ORTHOMODE
 70
     0
  9
$REGENMODE
 70
     1
  9
$FILLMODE
 70
     1
  9
$QTEXTMODE
 70
     0
  9
$MIRRTEXT
 70
     1
  9
$DRAGMODE
 70
     2
  9
$LTSCALE
 40
10.0
  9
$OSMODE
 70
    37
  9
$ATTMODE
 70
     1
  9
$TEXTSIZE
 40
3.0
  9
$TRACEWID
 40
1.0
  9
$TEXTSTYLE
  7
YOKO
  9
$CLAYER
  8
240
  9
$CELTYPE
  6
BYLAYER
  9
$CECOLOR
 62
   256
  9
$DIMSCALE
 40
1.0
  9
$DIMASZ
 40
2.2299999999999991
  9
$DIMEXO
 40
0.5
  9
$DIMDLI
 40
7.0
  9
$DIMRND
 40
0.0
  9
$DIMDLE
 40
0.0
  9
$DIMEXE
 40
1.0
  9
$DIMTP
 40
0.0
  9
$DIMTM
 40
0.01
  9
$DIMTXT
 40
2.7999999999999989
  9
$DIMCEN
 40
0.0
  9
$DIMTSZ
 40
0.0
  9
$DIMTOL
 70
     0
  9
$DIMLIM
 70
     0
  9
$DIMTIH
 70
     0
  9
$DIMTOH
 70
     0
  9
$DIMSE1
 70
     0
  9
$DIMSE2
 70
     0
  9
$DIMTAD
 70
     3
  9
$DIMZIN
 70
     9
  9
$DIMBLK
  1
OPEN
  9
$DIMASO
 70
     1
  9
$DIMSHO
 70
     1
  9
$DIMPOST
  1

  9
$DIMAPOST
  1

  9
$DIMALT
 70
     0
  9
$DIMALTD
 70
     2
  9
$DIMALTF
 40
25.399999999999999
  9
$DIMLFAC
 40
1.0
  9
$DIMTOFL
 70
     1
  9
$DIMTVP
 40
0.0
  9
$DIMTIX
 70
     1
  9
$DIMSOXD
 70
     0
  9
$DIMSAH
 70
     0
  9
$DIMBLK1
  1

  9
$DIMBLK2
  1

  9
$DIMSTYLE
  2
BIGT
  9
$DIMCLRD
 70
   256
  9
$DIMCLRE
 70
   256
  9
$DIMCLRT
 70
    40
  9
$DIMTFAC
 40
1.0
  9
$DIMGAP
 40
1.0
  9
$LUNITS
 70
     2
  9
$LUPREC
 70
     6
  9
$SKETCHINC
 40
1.0
  9
$FILLETRAD
 40
0.0
  9
$AUNITS
 70
     0
  9
$AUPREC
 70
     6
  9
$MENU
  1
.
  9
$ELEVATION
 40
0.0
  9
$PELEVATION
 40
0.0
  9
$THICKNESS
 40
0.0
  9
$LIMCHECK
 70
     0
  9
$BLIPMODE
 70
     0
  9
$CHAMFERA
 40
0.2
  9
$CHAMFERB
 40
0.2
  9
$SKPOLY
 70
     0
  9
$TDCREATE
 40
2459494.6434842939
  9
$TDUPDATE
 40
2459494.657566655
  9
$TDINDWG
 40
0.0139009838
  9
$TDUSRTIMER
 40
0.0139009144
  9
$USRTIMER
 70
     1
  9
$ANGBASE
 50
0.0
  9
$ANGDIR
 70
     0
  9
$PDMODE
 70
     1
  9
$PDSIZE
 40
0.0
  9
$PLINEWID
 40
0.0
  9
$COORDS
 70
     1
  9
$SPLFRAME
 70
     0
  9
$SPLINETYPE
 70
     6
  9
$SPLINESEGS
 70
     4
  9
$ATTDIA
 70
     1
  9
$ATTREQ
 70
     1
  9
$HANDLING
 70
     1
  9
$HANDSEED
  5
4943
  9
$SURFTAB1
 70
     6
  9
$SURFTAB2
 70
     6
  9
$SURFTYPE
 70
     6
  9
$SURFU
 70
     6
  9
$SURFV
 70
     6
  9
$UCSNAME
  2

  9
$UCSORG
 10
0.0
 20
0.0
 30
0.0
  9
$UCSXDIR
 10
1.0
 20
0.0
 30
0.0
  9
$UCSYDIR
 10
0.0
 20
1.0
 30
0.0
  9
$PUCSNAME
  2

  9
$PUCSORG
 10
0.0
 20
0.0
 30
0.0
  9
$PUCSXDIR
 10
1.0
 20
0.0
 30
0.0
  9
$PUCSYDIR
 10
0.0
 20
1.0
 30
0.0
  9
$USERI1
 70
     1
  9
$USERI2
 70
     0
  9
$USERI3
 70
     0
  9
$USERI4
 70
     0
  9
$USERI5
 70
     0
  9
$USERR1
 40
0.0
  9
$USERR2
 40
0.0
  9
$USERR3
 40
0.0
  9
$USERR4
 40
0.0
  9
$USERR5
 40
0.0
  9
$WORLDVIEW
 70
     1
  9
$SHADEDGE
 70
     3
  9
$SHADEDIF
 70
    70
  9
$TILEMODE
 70
     1
  9
$MAXACTVP
 70
    16
  9
$PLIMCHECK
 70
     0
  9
$PEXTMIN
 10
1.0000000000000000E+020
 20
1.0000000000000000E+020
 30
1.0000000000000000E+020
  9
$PEXTMAX
 10
-1.0000000000000000E+020
 20
-1.0000000000000000E+020
 30
-1.0000000000000000E+020
  9
$PLIMMIN
 10
0.0
 20
0.0
  9
$PLIMMAX
 10
420.0
 20
297.0
  9
$UNITMODE
 70
     0
  9
$VISRETAIN
 70
     1
  9
$PLINEGEN
 70
     0
  9
$PSLTSCALE
 70
     1
  0
ENDSEC
  0
SECTION
  2
TABLES
  0
TABLE
  2
VPORT
 70
     1
  0
VPORT
  2
*ACTIVE
 70
     0
 10
0.0
 20
0.0
 11
1.0
 21
1.0
 12
115.6181490238954
 22
44.469593231550412
 13
0.0
 23
0.0
 14
7.0
 24
7.0
 15
7.0
 25
7.0
 16
0.0
 26
0.0
 36
1.0
 17
0.0
 27
0.0
 37
0.0
 40
260.83280227048527
 41
1.806872037914691
 42
50.0
 43
0.0
 44
0.0
 50
0.0
 51
0.0
 71
     0
 72
  2000
 73
     1
 74
     0
 75
     1
 76
     1
 77
     0
 78
     0
  0
ENDTAB
  0
TABLE
  2
LTYPE
 70
    16
  0
LTYPE
  2
CONTINUOUS
 70
     0
  3
Solid line
 72
    65
 73
     0
 40
0.0
  0
LTYPE
  2
CENTER2
 70
     0
  3
___ _ ___ _ ___ _ ___ _ ___ _ ___ _ ___ _ ___ _
 72
    65
 73
     4
 40
1.125
 49
0.75
 49
-0.125
 49
0.125
 49
-0.125
  0
LTYPE
  2
HIDDEN2
 70
     0
  3
_ _ _ _ _ _ _ _ _ _ _ _ _ _ _ _ _ _ _ _ _ _ _ _
 72
    65
 73
     2
 40
0.1875
 49
0.125
 49
-0.0625
  0
LTYPE
  2
PHANTOM2
 70
     0
  3
___ _ _ ___ _ _ ___ _ _ ___ _ _ ___ _ _ ___ _ _
 72
    65
 73
     6
 40
1.25
 49
0.625
 49
-0.125
 49
0.125
 49
-0.125
 49
0.125
 49
-0.125
  0
LTYPE
  2
AM_ISO02W050
 70
     0
  3
__ __ __ __ __ __ __ __ __ __ __ __ __ __ __
 72
    65
 73
     2
 40
7.5
 49
6.0
 49
-1.5
  0
LTYPE
  2
AMCONSTR
 70
     0
  3
_______________________
 72
    65
 73
     2
 40
9999.0
 49
9999.0
 49
0.0
  0
LTYPE
  2
ACISOWELD
 70
     0
  3
_ _ _ _ _
 72
    65
 73
     2
 40
2.0
 49
2.0
 49
-1.0
  0
LTYPE
  2
ACISOTGB
 70
     0
  3
__ . . __ . .
 72
    65
 73
     6
 40
9.0
 49
4.0
 49
-1.0
 49
1.0
 49
-1.0
 49
1.0
 49
-1.0
  0
LTYPE
  2
ACISOTGL
 70
     0
  3
_ _ _ _ _
 72
    65
 73
     2
 40
3.0
 49
2.0
 49
-1.0
  0
LTYPE
  2
ACJISTGB
 70
     0
  3
__ . . __ . .
 72
    65
 73
     6
 40
9.0
 49
4.0
 49
-1.0
 49
1.0
 49
-1.0
 49
1.0
 49
-1.0
  0
LTYPE
  2
ACJISTGL
 70
     0
  3
_ _ _ _ _
 72
    65
 73
     2
 40
3.0
 49
2.0
 49
-1.0
  0
ENDTAB
  0
TABLE
  2
LAYER
 70
     7
  0
LAYER
  2
0
 70
     0
 62
     7
  6
CONTINUOUS
  0
LAYER
  2
DEFPOINTS
 70
     0
 62
     7
  6
CONTINUOUS
  0
LAYER
  2
245
 70
     0
 62
     2
  6
CENTER2
  0
LAYER
  2
240
 70
     0
 62
     4
  6
CONTINUOUS
  0
LAYER
  2
241
 70
     0
 62
   211
  6
CONTINUOUS
  0
LAYER
  2
246
 70
     0
 62
     3
  6
PHANTOM2
  0
LAYER
  2
250
 70
     0
 62
     3
  6
CONTINUOUS
  0
ENDTAB
  0
TABLE
  2
STYLE
 70
     8
  0
STYLE
  2
STANDARD
 70
     0
 40
0.0
 41
1.0
 50
0.0
 71
     0
 42
3.0
  3
romans.shx
  4
extfont.shx
  0
STYLE
  2
ACISOTS
 70
     0
 40
1.0
 41
1.0
 50
0.0
 71
     0
 42
3.0
  3
amgdt.shx
  4
extfont.shx
  0
STYLE
  2
ACISOGDT
 70
     0
 40
0.0
 41
1.0
 50
0.0
 71
     0
 42
3.0
  3
amgdt.shx
  4
extfont.shx
  0
STYLE
  2
ACJISTS
 70
     0
 40
1.0
 41
1.0
 50
0.0
 71
     0
 42
3.0
  3
amgdt.shx
  4
extfont.shx
  0
STYLE
  2
ACJISGDT
 70
     0
 40
0.0
 41
1.0
 50
0.0
 71
     0
 42
3.0
  3
amgdt.shx
  4
extfont.shx
  0
STYLE
  2
YOKO
 70
     0
 40
0.0
 41
1.0
 50
0.0
 71
     0
 42
3.0
  3
romans.shx
  4
extfont.shx
  0
ENDTAB
  0
TABLE
  2
VIEW
 70
     0
  0
ENDTAB
  0
TABLE
  2
UCS
 70
     0
  0
ENDTAB
  0
TABLE
  2
APPID
 70
    46
  0
APPID
  2
ACAD
 70
     0
  0
APPID
  2
GLOBAL
 70
     0
  0
APPID
  2
DETAIL
 70
     0
  0
APPID
  2
GRPNAME
 70
     0
  0
APPID
  2
GPARA
 70
     0
  0
APPID
  2
MCAD_NO_VIS
 70
     0
  0
APPID
  2
ACAD_TEMP_GRAPHIC
 70
     0
  0
APPID
  2
ACATTRIBSERVICES
 70
     0
  0
APPID
  2
GENIUS_GENSCREG_15
 70
     0
  0
APPID
  2
GENIUS_GENODEF_13
 70
     0
  0
APPID
  2
GENIUS_GENOBJ-N-SDF_13
 70
     0
  0
APPID
  2
GENIUS_GENREC_14
 70
     0
  0
APPID
  2
GENIUS_GENOBJ-N-REC_13
 70
     0
  0
APPID
  2
GENIUS_GENDIMSH_14
 70
     0
  0
APPID
  2
GENIUS_GENOBJ-N-DIM_13
 70
     0
  0
APPID
  2
GENIUS_GENDIM_13
 70
     0
  0
APPID
  2
GENIUS_GENDTOL_13
 70
     0
  0
APPID
  2
GENIUS_GENOLIS_13
 70
     0
  0
APPID
  2
GENIUS_GENOENT_13
 70
     0
  0
APPID
  2
GENIUS_GENOBJ-F-FEM_13
 70
     0
  0
APPID
  2
GENIUS_GENOREF_13
 70
     0
  0
APPID
  2
GENIUS_GEFFEM_13
 70
     0
  0
APPID
  2
GENIUS_GEFFEMP_13
 70
     0
  0
APPID
  2
AD_DRAW
 70
     0
  0
APPID
  2
DESIGNERASSEMBLIES
 70
     0
  0
APPID
  2
ACADM_DIM_EDIT
 70
     0
  0
APPID
  2
AMDT_DM_ADJ
 70
     0
  0
APPID
  2
ITEMNAME
 70
     0
  0
APPID
  2
GENIUS_GENOBJ-N-FIL_13
 70
     0
  0
APPID
  2
GENIUS_GENFIL_13
 70
     0
  0
APPID
  2
GENIUS_GENOBJ-N-CHA_13
 70
     0
  0
APPID
  2
ACAD_NAV_VCDISPLAY
 70
     0
  0
APPID
  2
ACAECLAYERSTANDARD
 70
     0
  0
APPID
  2
LAYER_SCALE
 70
     0
  0
APPID
  2
ACAD_PSEXT
 70
     0
  0
APPID
  2
ASK_MEN_XD
 70
     0
  0
APPID
  2
KCAD_BASE
 70
     0
  0
APPID
  2
ACAD_DSTYLE_DIMINSPECT
 70
     0
  0
APPID
  2
ACAD_EXEMPT_FROM_CAD_STANDARDS
 70
     0
  0
APPID
  2
ACAD_DSTYLE_DIMJAG
 70
     0
  0
APPID
  2
ACAD_DSTYLE_DIMBREAK
 70
     0
  0
APPID
  2
ACAD_MLEADERVER
 70
     0
  0
APPID
  2
ACAD_DSTYLE_DIMARC_LENGTH_
 70
     0
  0
APPID
  2
ACAD_DSTYLE_DIM_LINETYPE
 70
     0
  0
APPID
  2
ACAD_DSTYLE_DIM_EXT1_LINETYPE
 70
     0
  0
APPID
  2
ACAD_DSTYLE_DIM_EXT2_LINETYPE
 70
     0
  0
ENDTAB
  0
TABLE
  2
DIMSTYLE
 70
    30
  0
DIMSTYLE
  2
BIGT
 70
     0
  3

  4

  5
OPEN
  6

  7

 40
1.0
 41
2.2299999999999991
 42
0.5
 43
7.0
 44
1.0
 45
0.0
 46
0.0
 47
0.0
 48
0.01
140
2.7999999999999989
141
0.0
142
0.0
143
25.399999999999999
144
1.0
145
0.0
146
1.0
147
1.0
 71
     0
 72
     0
 73
     0
 74
     0
 75
     0
 76
     0
 77
     3
 78
     9
170
     0
171
     2
172
     1
173
     0
174
     1
175
     0
176
   256
177
   256
178
    40
  0
DIMSTYLE
  2
AM_ISO
 70
     0
  3

  4
"
  5

  6

  7

 40
1.0
 41
2.5
 42
1.0
 43
10.0
 44
1.0
 45
0.0
 46
0.0
 47
0.1
 48
0.1
140
3.5
141
0.0
142
0.0
143
0.0393701
144
1.0
145
0.0
146
0.71
147
1.5
 71
     0
 72
     0
 73
     0
 74
     0
 75
     0
 76
     0
 77
     1
 78
     8
170
     0
171
     2
172
     1
173
     0
174
     0
175
     0
176
   256
177
   256
178
     2
  0
DIMSTYLE
  2
AM_ISO$3
 70
     0
  3

  4
"
  5

  6

  7

 40
1.0
 41
2.5
 42
1.0
 43
10.0
 44
1.0
 45
0.0
 46
0.0
 47
0.1
 48
0.1
140
3.5
141
0.0
142
0.0
143
0.0393701
144
1.0
145
0.0
146
0.71
147
1.5
 71
     0
 72
     0
 73
     0
 74
     1
 75
     0
 76
     0
 77
     1
 78
     8
170
     0
171
     2
172
     0
173
     0
174
     0
175
     0
176
   256
177
   256
178
     2
  0
DIMSTYLE
  2
AM_ISO$4
 70
     0
  3

  4
"
  5

  6

  7

 40
1.0
 41
2.5
 42
1.0
 43
10.0
 44
1.0
 45
0.0
 46
0.0
 47
0.1
 48
0.1
140
3.5
141
0.0
142
0.0
143
0.0393701
144
1.0
145
0.0
146
0.71
147
1.5
 71
     0
 72
     0
 73
     0
 74
     1
 75
     0
 76
     0
 77
     1
 78
     8
170
     0
171
     2
172
     0
173
     0
174
     0
175
     0
176
   256
177
   256
178
     2
  0
DIMSTYLE
  2
AM_ISO$6
 70
     0
  3

  4
"
  5

  6

  7

 40
1.0
 41
2.5
 42
1.0
 43
10.0
 44
1.0
 45
0.0
 46
0.0
 47
0.1
 48
0.1
140
3.5
141
0.0
142
0.0
143
0.0393701
144
1.0
145
0.0
146
0.71
147
1.5
 71
     0
 72
     0
 73
     0
 74
     0
 75
     0
 76
     0
 77
     0
 78
     8
170
     0
171
     2
172
     1
173
     0
174
     0
175
     0
176
   256
177
   256
178
     2
  0
DIMSTYLE
  2
AM_ISO$7
 70
     0
  3

  4
"
  5

  6

  7

 40
1.0
 41
2.5
 42
1.0
 43
10.0
 44
1.0
 45
0.0
 46
0.0
 47
0.1
 48
0.1
140
5.0
141
0.0
142
0.0
143
0.0393701
144
1.0
145
0.0
146
0.71
147
1.5
 71
     0
 72
     0
 73
     0
 74
     0
 75
     0
 76
     0
 77
     1
 78
     8
170
     0
171
     2
172
     1
173
     0
174
     0
175
     0
176
   256
177
   256
178
     2
  0
DIMSTYLE
  2
AM_ISO$SF
 70
     0
  3

  4
"
  5

  6

  7

 40
1.0
 41
2.5
 42
1.0
 43
10.0
 44
1.0
 45
0.0
 46
0.0
 47
0.1
 48
0.1
140
3.5
141
0.0
142
0.0
143
0.0393701
144
1.0
145
0.0
146
0.71
147
1.5
 71
     0
 72
     0
 73
     0
 74
     0
 75
     1
 76
     1
 77
     1
 78
     8
170
     0
171
     2
172
     1
173
     0
174
     0
175
     0
176
   256
177
   256
178
     2
  0
DIMSTYLE
  2
AM_ISO$SH
 70
     0
  3

  4
"
  5

  6
GENAXEH
  7

 40
1.0
 41
2.5
 42
1.0
 43
10.0
 44
1.0
 45
0.0
 46
0.0
 47
0.1
 48
0.1
140
3.5
141
0.0
142
0.0
143
0.0393701
144
2.0
145
0.0
146
0.71
147
1.5
 71
     0
 72
     0
 73
     0
 74
     0
 75
     1
 76
     1
 77
     1
 78
     8
170
     0
171
     2
172
     1
173
     1
174
     0
175
     0
176
   256
177
   256
178
     2
  0
DIMSTYLE
  2
BIGT$2
 70
     0
  3

  4

  5
OPEN
  6

  7

 40
1.0
 41
2.2299999999999991
 42
0.5
 43
7.0
 44
1.0
 45
0.0
 46
0.0
 47
0.0
 48
0.01
140
2.7999999999999989
141
0.0
142
0.0
143
25.399999999999999
144
1.0
145
0.0
146
1.0
147
1.0
 71
     0
 72
     0
 73
     0
 74
     0
 75
     0
 76
     0
 77
     3
 78
     9
170
     0
171
     2
172
     1
173
     0
174
     0
175
     0
176
   256
177
   256
178
    40
  0
DIMSTYLE
  2
BIGT$3
 70
     0
  3

  4

  5
OPEN
  6

  7

 40
1.0
 41
2.2299999999999991
 42
0.5
 43
2.5
 44
1.0
 45
0.0
 46
0.0
 47
0.0
 48
0.01
140
2.7999999999999989
141
0.0
142
0.0
143
25.399999999999999
144
1.0
145
0.0
146
1.0
147
1.0
 71
     0
 72
     0
 73
     0
 74
     0
 75
     0
 76
     0
 77
     3
 78
     9
170
     0
171
     2
172
     1
173
     0
174
     0
175
     0
176
   256
177
   256
178
    40
  0
DIMSTYLE
  2
BIGT$7
 70
     0
  3

  4

  5
OPEN
  6

  7

 40
0.0
 41
2.2299999999999991
 42
0.5
 43
7.0
 44
1.0
 45
0.0
 46
0.0
 47
0.0
 48
0.01
140
2.7999999999999989
141
0.0
142
0.0
143
25.399999999999999
144
1.0
145
0.0
146
1.0
147
1.0
 71
     0
 72
     0
 73
     0
 74
     0
 75
     0
 76
     0
 77
     3
 78
     9
170
     0
171
     2
172
     0
173
     0
174
     0
175
     0
176
   256
177
   256
178
    40
  0
DIMSTYLE
  2
BIGT$6
 70
     0
  3

  4

  5
OPEN
  6

  7

 40
1.0
 41
2.2299999999999991
 42
0.5
 43
2.5
 44
1.0
 45
0.0
 46
0.0
 47
0.0
 48
0.01
140
2.7999999999999989
141
0.0
142
0.0
143
25.399999999999999
144
1.0
145
0.0
146
1.0
147
1.0
 71
     0
 72
     0
 73
     0
 74
     0
 75
     0
 76
     0
 77
     3
 78
     9
170
     0
171
     2
172
     1
173
     0
174
     0
175
     0
176
   256
177
   256
178
    40
  0
DIMSTYLE
  2
BIGT$0
 70
     0
  3

  4

  5
OPEN
  6

  7

 40
1.0
 41
2.2299999999999991
 42
0.5
 43
7.0
 44
1.0
 45
0.0
 46
0.0
 47
0.0
 48
0.01
140
2.7999999999999989
141
0.0
142
0.0
143
25.399999999999999
144
1.0
145
0.0
146
1.0
147
1.0
 71
     0
 72
     0
 73
     0
 74
     0
 75
     0
 76
     0
 77
     3
 78
     9
170
     0
171
     2
172
     1
173
     0
174
     1
175
     0
176
   256
177
   256
178
    40
  0
DIMSTYLE
  2
BIGT$4
 70
     0
  3

  4

  5
OPEN
  6

  7

 40
1.0
 41
2.2299999999999991
 42
0.5
 43
2.5
 44
1.0
 45
0.0
 46
0.0
 47
0.0
 48
0.01
140
2.7999999999999989
141
0.0
142
0.0
143
25.399999999999999
144
1.0
145
0.0
146
1.0
147
1.0
 71
     0
 72
     0
 73
     0
 74
     0
 75
     0
 76
     0
 77
     3
 78
     9
170
     0
171
     2
172
     1
173
     0
174
     0
175
     0
176
   256
177
   256
178
    40
  0
DIMSTYLE
  2
BIGT$SH
 70
     0
  3

  4

  5
OPEN
  6

  7

 40
1.0
 41
2.2299999999999991
 42
0.5
 43
7.0
 44
1.0
 45
0.0
 46
0.0
 47
0.0
 48
0.0
140
2.7999999999999989
141
0.0
142
0.0
143
25.399999999999999
144
1.0
145
0.0
146
1.0
147
1.0
 71
     0
 72
     0
 73
     0
 74
     0
 75
     0
 76
     0
 77
     3
 78
     9
170
     0
171
     2
172
     1
173
     0
174
     0
175
     0
176
   256
177
   256
178
    40
  0
DIMSTYLE
  2
BIGT$SF
 70
     0
  3

  4

  5
OPEN
  6

  7

 40
1.0
 41
2.2299999999999991
 42
0.5
 43
7.0
 44
1.0
 45
0.0
 46
0.0
 47
0.0
 48
0.0
140
2.7999999999999989
141
0.0
142
0.0
143
25.399999999999999
144
1.0
145
0.0
146
1.0
147
1.0
 71
     0
 72
     0
 73
     0
 74
     0
 75
     0
 76
     0
 77
     3
 78
     9
170
     0
171
     2
172
     1
173
     0
174
     0
175
     0
176
   256
177
   256
178
    40
  0
DIMSTYLE
  2
TECHNICAL_OSAKA
 70
     0
  3

  4
"
  5
OPEN30
  6

  7

 40
1.0
 41
2.5
 42
1.0
 43
10.0
 44
1.0
 45
0.0
 46
0.0
 47
0.1
 48
0.1
140
2.7999999999999989
141
0.0
142
0.0
143
0.0393701
144
1.0
145
0.0
146
0.71
147
1.5
 71
     0
 72
     0
 73
     0
 74
     0
 75
     0
 76
     0
 77
     3
 78
     8
170
     0
171
     2
172
     1
173
     0
174
     0
175
     0
176
   256
177
   256
178
    40
  0
DIMSTYLE
  2
TECHNICAL_OSAKA$3
 70
     0
  3

  4
"
  5
OPEN30
  6

  7

 40
1.0
 41
2.5
 42
1.0
 43
10.0
 44
1.0
 45
0.0
 46
0.0
 47
0.1
 48
0.1
140
2.7999999999999989
141
0.0
142
0.0
143
0.0393701
144
1.0
145
0.0
146
0.71
147
1.5
 71
     0
 72
     0
 73
     0
 74
     1
 75
     0
 76
     0
 77
     3
 78
     8
170
     0
171
     2
172
     0
173
     0
174
     0
175
     0
176
   256
177
   256
178
    40
  0
DIMSTYLE
  2
TECHNICAL_OSAKA$4
 70
     0
  3

  4
"
  5
OPEN30
  6

  7

 40
1.0
 41
2.5
 42
1.0
 43
10.0
 44
1.0
 45
0.0
 46
0.0
 47
0.1
 48
0.1
140
2.7999999999999989
141
0.0
142
0.0
143
0.0393701
144
1.0
145
0.0
146
0.71
147
1.5
 71
     0
 72
     0
 73
     0
 74
     1
 75
     0
 76
     0
 77
     3
 78
     8
170
     0
171
     2
172
     0
173
     0
174
     0
175
     0
176
   256
177
   256
178
    40
  0
DIMSTYLE
  2
TECHNICAL_OSAKA$6
 70
     0
  3

  4
"
  5
OPEN30
  6

  7

 40
1.0
 41
2.5
 42
1.0
 43
10.0
 44
1.0
 45
0.0
 46
0.0
 47
0.1
 48
0.1
140
2.7999999999999989
141
0.0
142
0.0
143
0.0393701
144
1.0
145
0.0
146
0.71
147
1.5
 71
     0
 72
     0
 73
     0
 74
     0
 75
     0
 76
     0
 77
     0
 78
     8
170
     0
171
     2
172
     1
173
     0
174
     0
175
     0
176
   256
177
   256
178
    40
  0
DIMSTYLE
  2
TECHNICAL_OSAKA$7
 70
     0
  3

  4
"
  5
OPEN30
  6

  7

 40
1.0
 41
2.5
 42
1.0
 43
10.0
 44
1.0
 45
0.0
 46
0.0
 47
0.1
 48
0.1
140
2.7999999999999989
141
0.0
142
0.0
143
0.0393701
144
1.0
145
0.0
146
0.71
147
1.5
 71
     0
 72
     0
 73
     0
 74
     0
 75
     0
 76
     0
 77
     3
 78
     8
170
     0
171
     2
172
     1
173
     0
174
     0
175
     0
176
   256
177
   256
178
    40
  0
DIMSTYLE
  2
TECHNICAL_OSAKA$SF
 70
     0
  3

  4
"
  5
OPEN30
  6
OPEN30
  7
OPEN30
 40
1.0
 41
2.5
 42
1.0
 43
10.0
 44
1.0
 45
0.0
 46
0.0
 47
0.1
 48
0.1
140
3.5
141
0.0
142
0.0
143
0.0393701
144
1.0
145
0.0
146
0.71
147
1.5
 71
     0
 72
     0
 73
     0
 74
     0
 75
     1
 76
     1
 77
     3
 78
     8
170
     0
171
     2
172
     1
173
     0
174
     0
175
     0
176
   256
177
   256
178
    40
  0
DIMSTYLE
  2
TECHNICAL_OSAKA$SH
 70
     0
  3

  4
"
  5
OPEN30
  6
GENAXEH
  7
OPEN30
 40
1.0
 41
2.5
 42
1.0
 43
10.0
 44
1.0
 45
0.0
 46
0.0
 47
0.1
 48
0.1
140
3.5
141
0.0
142
0.0
143
0.0393701
144
2.0
145
0.0
146
0.71
147
1.5
 71
     0
 72
     0
 73
     0
 74
     0
 75
     1
 76
     1
 77
     3
 78
     8
170
     0
171
     2
172
     1
173
     1
174
     0
175
     0
176
   256
177
   256
178
    40
  0
DIMSTYLE
  2
STANDARD
 70
     0
  3

  4

  5

  6

  7

 40
1.0
 41
0.18
 42
0.0625
 43
0.38
 44
0.18
 45
0.0
 46
0.0
 47
0.0
 48
0.0
140
0.18
141
0.09
142
0.0
143
25.399999999999999
144
1.0
145
0.0
146
1.0
147
0.09
 71
     0
 72
     0
 73
     1
 74
     1
 75
     0
 76
     0
 77
     0
 78
     0
170
     0
171
     2
172
     0
173
     0
174
     0
175
     0
176
     0
177
     0
178
     0
  0
ENDTAB
  0
ENDSEC
  0
SECTION
  2
BLOCKS
  0
BLOCK
  8
0
  2
$MODEL_SPACE
 70
     0
 10
0.0
 20
0.0
 30
0.0
  3
$MODEL_SPACE
  1

  0
ENDBLK
  5
1C
  8
0
  0
BLOCK
 67
     1
  8
0
  2
$PAPER_SPACE
 70
     0
 10
0.0
 20
0.0
 30
0.0
  3
$PAPER_SPACE
  1

  0
ENDBLK
  5
19
 67
     1
  8
0
  0
BLOCK
  8
0
  2
_OPEN
 70
     0
 10
0.0
 20
0.0
 30
0.0
  3
_OPEN
  1

  0
LINE
  5
484A
  8
0
  6
BYBLOCK
 62
     0
 10
-1.0
 20
0.1666666666666666
 30
0.0
 11
0.0
 21
0.0
 31
0.0
  0
LINE
  5
484B
  8
0
  6
BYBLOCK
 62
     0
 10
-1.0
 20
-0.1666666666666666
 30
0.0
 11
0.0
 21
0.0
 31
0.0
  0
LINE
  5
484C
  8
0
  6
BYBLOCK
 62
     0
 10
0.0
 20
0.0
 30
0.0
 11
-1.0
 21
0.0
 31
0.0
  0
ENDBLK
  5
484D
  8
0
  0
BLOCK
  8
0
  2
GENAXEH
 70
     0
 10
0.0
 20
0.0
 30
0.0
  3
GENAXEH
  1

  0
LINE
  5
4885
  8
0
 10
-1.0
 20
0.0
 30
0.0
 11
1.0
 21
0.0
 31
0.0
  0
ENDBLK
  5
4886
  8
0
  0
BLOCK
  8
0
  2
_OPEN30
 70
     0
 10
0.0
 20
0.0
 30
0.0
  3
_OPEN30
  1

  0
LINE
  5
48C1
  8
0
  6
BYBLOCK
 62
     0
 10
-1.0
 20
0.26794919
 30
0.0
 11
0.0
 21
0.0
 31
0.0
  0
LINE
  5
48C2
  8
0
  6
BYBLOCK
 62
     0
 10
0.0
 20
0.0
 30
0.0
 11
-1.0
 21
-0.26794919
 31
0.0
  0
LINE
  5
48C3
  8
0
  6
BYBLOCK
 62
     0
 10
0.0
 20
0.0
 30
0.0
 11
-1.0
 21
0.0
 31
0.0
  0
ENDBLK
  5
48C4
  8
0
  0
ENDSEC
  0
SECTION
  2
ENTITIES
  0
LINE
  5
43A0
  8
245
  6
CENTER2
 10
-28.258520943418691
 20
0.0000000000001137
 30
0.0
 11
222.6307318369478
 21
0.0000000000001137
 31
0.0
  0
LINE
  5
43A1
  8
245
  6
CENTER2
 10
-25.704856816340911
 20
70.000000000000085
 30
0.0
 11
223.64051926556539
 21
70.000000000000057
 31
0.0
  0
LINE
  5
43A2
  8
245
  6
CENTER2
 10
-0.0000000000006253
 20
83.750023907458043
 30
0.0
 11
-0.0000000000006253
 21
56.348454942197918
 31
0.0
  0
CIRCLE
  5
43A3
  8
241
  6
CONTINUOUS
 10
-0.0000000000006253
 20
0.0000000000001137
 30
0.0
 40
22.5
  0
ARC
  5
43A4
  8
241
  6
CONTINUOUS
 10
-0.0000000000006253
 20
0.0000000000001137
 30
0.0
 40
24.300000000000001
 50
324.8549358198407
 51
35.368481788771831
  0
ARC
  5
43A5
  8
240
  6
CONTINUOUS
 10
-0.0000000000006253
 20
0.0000000000001137
 30
0.0
 40
24.300000000000001
 50
59.684125086673518
 51
300.31587491332652
  0
TEXT
  5
43A6
  8
241
  6
CONTINUOUS
 10
31.41502555319612
 20
-9.6271559019168365
 30
0.0
 40
2.7999999999999989
  1
L O C K
 50
90.0
  7
YOKO
 11
30.015025553196129
 21
-9.6271559019168365
 31
0.0
 73
     2
  0
LINE
  5
43A7
  8
240
  6
CONTINUOUS
 10
21.79586130271727
 20
80.000000000000099
 30
0.0
 11
-21.43659041008047
 21
80.000000000000085
 31
0.0
  0
LINE
  5
43A8
  8
240
  6
CONTINUOUS
 10
-21.43659041008047
 20
60.000000000000078
 30
0.0
 11
21.79586130271727
 21
60.000000000000078
 31
0.0
  0
ARC
  5
43A9
  8
240
  6
CONTINUOUS
 10
21.79586130271727
 20
79.000000000000085
 30
0.0
 40
1.0
 50
18.327871427588299
 51
90.0
  0
ARC
  5
43AA
  8
240
  6
CONTINUOUS
 10
23.2197702391035
 20
79.471681397639941
 30
0.0
 40
0.5
 50
198.32787142758829
 51
266.00000000000023
1001
ASK_MEN_XD
1005
440D
1070
     1
1005
43A9
1070
     1
  0
ARC
  5
43AB
  8
240
  6
CONTINUOUS
 10
21.79586130271727
 20
61.000000000000078
 30
0.0
 40
1.0
 50
270.0
 51
341.02408808353778
  0
ARC
  5
43AC
  8
240
  6
CONTINUOUS
 10
-4.3777777777782196
 20
70.000000000000085
 30
0.0
 40
28.67777777777761
 50
341.02408808353613
 51
341.0574782337269
  0
ARC
  5
43AD
  8
240
  6
CONTINUOUS
 10
23.219868827428002
 20
60.52832549632739
 30
0.0
 40
0.5
 50
93.999999999999744
 51
161.0574782337269
1001
ASK_MEN_XD
1005
43AC
1070
     1
1005
4411
1070
     1
  0
ARC
  5
43AE
  8
240
  6
CONTINUOUS
 10
4.3777777777769691
 20
70.000000000000085
 30
0.0
 40
28.67777777777761
 50
161.77463041134371
 51
178.5013924374407
  0
ARC
  5
43AF
  8
240
  6
CONTINUOUS
 10
4.3777777777769691
 20
70.000000000000085
 30
0.0
 40
28.67777777777761
 50
181.49860756255919
 51
198.22536958865621
  0
ARC
  5
43B0
  8
241
  6
CONTINUOUS
 10
6.5153243246240322
 20
0.0130091292461714
 30
0.0
 40
27.55810113651
 50
353.99999999999829
 51
10.364909740214809
  0
ARC
  5
43B1
  8
241
  6
CONTINUOUS
 10
6.5153243246240322
 20
0.0130091292461714
 30
0.0
 40
26.67900832219042
 50
353.99999999999829
 51
10.364909740214809
  0
LINE
  5
43B2
  8
241
  6
CONTINUOUS
 10
32.501563198195022
 20
-2.7182546349922339
 30
0.0
 11
33.04818224775471
 21
-2.7757066121779128
 31
0.0
  0
LINE
  5
43B3
  8
241
  6
CONTINUOUS
 10
33.191308586508796
 20
-4.866064274627603
 30
0.0
 11
32.501563198195022
 21
-2.7182546349922339
 31
0.0
  0
LINE
  5
43C4
  8
241
  6
CONTINUOUS
 10
33.922459299656452
 20
-2.86759683312826
 30
0.0
 11
34.468359514340591
 21
-2.9249732577241332
 31
0.0
  0
LINE
  5
43C5
  8
241
  6
CONTINUOUS
 10
33.191308586508796
 20
-4.866064274627603
 30
0.0
 11
34.468359514340591
 21
-2.9249732577241332
 31
0.0
  0
LINE
  5
43CA
  8
241
  6
CONTINUOUS
 10
32.758980416249472
 20
4.8130091292456711
 30
0.0
 11
33.623728056529387
 21
4.9711726358413841
 31
0.0
  0
ARC
  5
43F7
  8
240
  6
CONTINUOUS
 10
-21.43659041008047
 20
78.500000000000085
 30
0.0
 40
1.5
 50
90.0
 51
161.774630411342
  0
ARC
  5
43F8
  8
240
  6
CONTINUOUS
 10
-21.43659041008047
 20
61.500000000000092
 30
0.0
 40
1.5
 50
198.22536958865621
 51
270.0
  0
LINE
  5
43F9
  8
241
  6
CONTINUOUS
 10
79.999999999999375
 20
10.46816713321129
 30
0.0
 11
79.999999999999403
 21
-10.468167133211089
 31
0.0
  0
LINE
  5
43FA
  8
240
  6
CONTINUOUS
 10
219.9999999999994
 20
70.000000000000085
 30
0.0
 11
219.9999999999994
 21
70.000000000000057
 31
0.0
  0
LINE
  5
43FB
  8
240
  6
CONTINUOUS
 10
217.6747943311768
 20
75.000000000000185
 30
0.0
 11
83.492076949176848
 21
75.000000000000185
 31
0.0
  0
LINE
  5
43FE
  8
240
  6
CONTINUOUS
 10
217.6747943311768
 20
65.000000000000057
 30
0.0
 11
81.047623084753155
 21
65.000000000000114
 31
0.0
  0
ARC
  5
43FF
  8
240
  6
CONTINUOUS
 10
27.408838598857809
 20
46.874786043903661
 30
0.0
 40
30.0
 50
239.68412508667271
 51
263.00000000000063
1001
ASK_MEN_XD
1005
4405
1070
     1
1005
0
1070
     1
  0
LINE
  5
4400
  8
245
  6
CENTER2
 10
206.4999999999994
 20
15.340121513468141
 30
0.0
 11
206.4999999999994
 21
-15.340121513468
 31
0.0
  0
ARC
  5
4401
  8
240
  6
CONTINUOUS
 10
206.4999999999994
 20
0.0000000000000853
 30
0.0
 40
13.5
 50
268.50000000000051
 51
91.499999999999503
  0
LINE
  5
4402
  8
240
  6
CONTINUOUS
 10
206.14661119784321
 20
13.4953738871701
 30
0.0
 11
87.428737158800985
 21
10.386636948724229
 31
0.0
  0
ARC
  5
4403
  8
240
  6
CONTINUOUS
 10
84.811042328014608
 20
110.35236944627999
 30
0.0
 40
100.0
 50
263.00000000000063
 51
271.49999999999949
1001
ASK_MEN_XD
1005
4405
1070
     1
1005
4402
1070
     1
  0
LINE
  5
4404
  8
240
  6
CONTINUOUS
 10
206.14661119784321
 20
-13.495373887169899
 30
0.0
 11
87.428737158800942
 21
-10.38663694872414
 31
0.0
  0
LINE
  5
4405
  8
240
  6
CONTINUOUS
 10
72.624107987500992
 20
11.09775428214766
 30
0.0
 11
23.75275829670375
 21
17.0984014946639
 31
0.0
  0
ARC
  5
4406
  8
240
  6
CONTINUOUS
 10
27.408838598857809
 20
-46.87478604390347
 30
0.0
 40
30.0
 50
96.999999999999375
 51
120.3158749133265
1001
ASK_MEN_XD
1005
4405
1070
     1
1005
0
1070
     1
  0
ARC
  5
4407
  8
240
  6
CONTINUOUS
 10
84.811042328014608
 20
-110.35236944627979
 30
0.0
 40
100.0
 50
88.500000000000526
 51
96.999999999999375
1001
ASK_MEN_XD
1005
4405
1070
     1
1005
4402
1070
     1
  0
LINE
  5
4408
  8
240
  6
CONTINUOUS
 10
72.624107987500992
 20
-11.097754282147459
 30
0.0
 11
23.75275829670375
 21
-17.098401494663701
 31
0.0
  0
CIRCLE
  5
4409
  8
241
  6
CONTINUOUS
 10
206.4999999999994
 20
0.0000000000000568
 30
0.0
 40
8.0
  0
ARC
  5
440A
  8
240
  6
CONTINUOUS
 10
203.9999999999994
 20
70.000000000000057
 30
0.0
 40
16.0
 50
347.62637488381262
 51
12.37362511618903
  0
ARC
  5
440B
  8
240
  6
CONTINUOUS
 10
217.6747943311768
 20
67.000000000000057
 30
0.0
 40
2.0
 50
270.0
 51
347.62637488381102
1001
ASK_MEN_XD
1005
440A
1070
     1
1005
43FE
1070
     1
  0
ARC
  5
440C
  8
240
  6
CONTINUOUS
 10
217.6747943311768
 20
73.000000000000085
 30
0.0
 40
2.0
 50
12.37362511618903
 51
90.0
1001
ASK_MEN_XD
1005
440A
1070
     1
1005
43FB
1070
     1
  0
LINE
  5
440D
  8
240
  6
CONTINUOUS
 10
76.516429574765255
 20
75.243594974017626
 30
0.0
 11
23.18489200223144
 21
78.972899372510014
 31
0.0
  0
ARC
  5
440E
  8
240
  6
CONTINUOUS
 10
83.492076949176919
 20
175.00000000000011
 30
0.0
 40
100.0
 50
266.00000000000023
 51
270.0
1001
ASK_MEN_XD
1005
43FB
1070
     1
1005
440D
1070
     1
  0
LINE
  5
4411
  8
240
  6
CONTINUOUS
 10
78.954928872429505
 20
64.926921507794845
 30
0.0
 11
23.184990590555941
 21
61.027107521457339
 31
0.0
  0
ARC
  5
4412
  8
240
  6
CONTINUOUS
 10
81.047623084753155
 20
35.000000000000107
 30
0.0
 40
30.0
 50
90.0
 51
93.999999999999744
1001
ASK_MEN_XD
1005
43FE
1070
     1
1005
4411
1070
     1
  0
LINE
  5
4425
  8
241
  6
CONTINUOUS
 10
68.085770850249204
 20
-6.6174428874800517
 30
0.0
 11
27.60783188332249
 21
-11.587508849788231
 31
0.0
  0
LINE
  5
4426
  8
241
  6
CONTINUOUS
 10
68.08577085024919
 20
6.6174428874802231
 30
0.0
 11
27.60783188332249
 21
11.58750884978838
 31
0.0
  0
ARC
  5
4428
  8
241
  6
CONTINUOUS
 10
0.0
 20
0.0000000000001137
 30
0.0
 40
70.0
 50
356.09382569304609
 51
3.9061743069538819
  0
ARC
  5
4429
  8
241
  6
CONTINUOUS
 10
67.842032163438944
 20
-4.6323505841973249
 30
0.0
 40
2.0
 50
276.99999999999937
 51
356.09382569304609
1001
ASK_MEN_XD
1005
4427
1070
     1
1005
4425
1070
     1
  0
ARC
  5
442A
  8
241
  6
CONTINUOUS
 10
67.842032163438944
 20
4.6323505841975807
 30
0.0
 40
2.0
 50
3.9061743069538819
 51
83.000000000000654
1001
ASK_MEN_XD
1005
4427
1070
     1
1005
4426
1070
     1
  0
LINE
  5
4433
  8
240
  6
CONTINUOUS
 10
-24.29019107722905
 20
70.750000000000142
 30
0.0
 11
-24.30000000000064
 21
69.250000000000085
 31
0.0
  0
LINE
  5
4441
  8
241
  6
CONTINUOUS
 10
90.319500780593899
 20
5.3969883523434126
 30
0.0
 11
185.3403003280016
 21
7.8851955567324117
 31
0.0
  0
LINE
  5
4442
  8
241
  6
CONTINUOUS
 10
185.3403003280016
 20
-8.0124594435357022
 30
0.0
 11
90.319500780593899
 21
-5.524252239146846
 31
0.0
  0
ARC
  5
4443
  8
241
  6
CONTINUOUS
 10
185.54844770148711
 20
-0.0636319434016741
 30
0.0
 40
7.951552298512329
 50
268.50000000000051
 51
91.499999999999503
  0
ARC
  5
4444
  8
241
  6
CONTINUOUS
 10
90.462492155377319
 20
-0.063631943401731
 30
0.0
 40
5.4624921553780093
 50
91.499999999999503
 51
268.50000000000051
  0
LINE
  5
4445
  8
245
  6
CENTER2
 10
0.0
 20
26.77408077300845
 30
0.0
 11
0.0
 21
-26.450626510882241
 31
0.0
  0
ARC
  5
4459
  8
241
  6
CONTINUOUS
 10
0.000000000000199
 20
0.0000000000001137
 30
0.0
 40
27.0
 50
340.66336383316428
 51
19.33663616683566
  0
ARC
  5
445B
  8
241
  6
CONTINUOUS
 10
27.36409319651219
 20
-9.6024165465055642
 30
0.0
 40
2.0
 50
160.66336383316491
 51
276.99999999999937
1001
ASK_MEN_XD
1005
4425
1070
     1
1005
4459
1070
     1
  0
ARC
  5
445C
  8
241
  6
CONTINUOUS
 10
27.364093196512218
 20
9.6024165465057632
 30
0.0
 40
2.0
 50
83.000000000000654
 51
199.3366361668356
1001
ASK_MEN_XD
1005
4459
1070
     1
1005
4426
1070
     1
  0
CIRCLE
  5
448F
  8
241
  6
CONTINUOUS
 10
0.0
 20
0.0
 30
0.0
 40
18.5
  0
LINE
  5
4490
  8
241
  6
CONTINUOUS
 10
-24.290191077229071
 20
70.750000000000085
 30
0.0
 11
219.98563547560519
 21
70.750000000000057
 31
0.0
  0
LINE
  5
4491
  8
241
  6
CONTINUOUS
 10
219.97724150850519
 20
69.250000000000085
 30
0.0
 11
-24.285478394050759
 21
69.250000000000114
 31
0.0
  0
CIRCLE
  5
46BB
  8
246
  6
PHANTOM2
 10
0.0
 20
0.0
 30
0.0
 40
15.0
  0
LINE
  5
46BC
  8
246
  6
PHANTOM2
 10
-15.000000000000631
 20
80.000000000000085
 30
0.0
 11
-15.00000000000062
 21
60.000000000000099
 31
0.0
  0
LINE
  5
46BD
  8
246
  6
PHANTOM2
 10
14.999999999999369
 20
80.000000000000085
 30
0.0
 11
14.999999999999369
 21
60.000000000000099
 31
0.0
  0
LINE
  5
4701
  8
250
  6
CONTINUOUS
 10
-15.000000000000631
 20
80.500000000000085
 30
0.0
 11
-15.000000000000631
 21
92.0
 31
0.0
  0
LINE
  5
4702
  8
250
  6
CONTINUOUS
 10
14.999999999999369
 20
80.500000000000085
 30
0.0
 11
14.999999999999369
 21
92.0
 31
0.0
  0
LINE
  5
4703
  8
250
  6
CONTINUOUS
 10
-12.77000000000062
 20
91.0
 30
0.0
 11
12.769999999999371
 21
91.0
 31
0.0
  0
LINE
  5
4707
  8
250
  6
CONTINUOUS
 10
219.9999999999994
 20
0.5000000000001141
 30
0.0
 11
219.9999999999994
 21
43.0
 31
0.0
  0
LINE
  5
4708
  8
250
  6
CONTINUOUS
 10
-24.30000000000063
 20
0.5000000000001137
 30
0.0
 11
-24.300000000000619
 21
43.0
 31
0.0
  0
LINE
  5
4709
  8
250
  6
CONTINUOUS
 10
217.76999999999941
 20
42.0
 30
0.0
 11
-22.070000000000618
 21
42.0
 31
0.0
  0
LINE
  5
470D
  8
250
  6
CONTINUOUS
 10
0.0
 20
27.27408077300845
 30
0.0
 11
0.0000000000000006
 21
36.0
 31
0.0
  0
LINE
  5
470E
  8
250
  6
CONTINUOUS
 10
219.9999999999994
 20
0.5000000000001137
 30
0.0
 11
219.9999999999994
 21
36.0
 31
0.0
  0
LINE
  5
470F
  8
250
  6
CONTINUOUS
 10
2.23
 20
35.0
 30
0.0
 11
217.76999999999941
 21
35.0
 31
0.0
  0
LINE
  5
4713
  8
250
  6
CONTINUOUS
 10
-24.30000000000063
 20
0.5000000000001137
 30
0.0
 11
-24.300000000000619
 21
36.000000000000007
 31
0.0
  0
LINE
  5
4714
  8
250
  6
CONTINUOUS
 10
0.0
 20
27.27408077300845
 30
0.0
 11
0.0000000000000006
 21
36.000000000000007
 31
0.0
  0
LINE
  5
4715
  8
250
  6
CONTINUOUS
 10
-22.070000000000618
 20
35.000000000000007
 30
0.0
 11
-2.2299999999999991
 21
35.000000000000007
 31
0.0
  0
TEXT
  5
4719
  8
250
  6
CONTINUOUS
 10
-3.9333333333339588
 20
92.0
 30
0.0
 40
2.7999999999999989
  1
\U+220530
  0
LINE
  5
471A
  8
250
  6
CONTINUOUS
 10
12.769999999999371
 20
91.37166666666667
 30
0.0
 11
14.999999999999369
 21
91.0
 31
0.0
  0
LINE
  5
471B
  8
250
  6
CONTINUOUS
 10
12.769999999999371
 20
90.62833333333333
 30
0.0
 11
14.999999999999369
 21
91.0
 31
0.0
  0
LINE
  5
471C
  8
250
  6
CONTINUOUS
 10
14.999999999999369
 20
91.0
 30
0.0
 11
12.769999999999371
 21
91.0
 31
0.0
  0
LINE
  5
471D
  8
250
  6
CONTINUOUS
 10
-12.77000000000062
 20
90.62833333333333
 30
0.0
 11
-15.000000000000631
 21
91.0
 31
0.0
  0
LINE
  5
471E
  8
250
  6
CONTINUOUS
 10
-12.77000000000062
 20
91.37166666666667
 30
0.0
 11
-15.000000000000631
 21
91.0
 31
0.0
  0
LINE
  5
471F
  8
250
  6
CONTINUOUS
 10
-15.000000000000631
 20
91.0
 30
0.0
 11
-12.77000000000062
 21
91.0
 31
0.0
  0
TEXT
  5
4720
  8
250
  6
CONTINUOUS
 10
91.849999999999383
 20
43.0
 30
0.0
 40
2.7999999999999989
  1
244.3
  0
LINE
  5
4721
  8
250
  6
CONTINUOUS
 10
-22.070000000000618
 20
41.62833333333333
 30
0.0
 11
-24.300000000000619
 21
42.0
 31
0.0
  0
LINE
  5
4722
  8
250
  6
CONTINUOUS
 10
-22.070000000000618
 20
42.371666666666663
 30
0.0
 11
-24.300000000000619
 21
42.0
 31
0.0
  0
LINE
  5
4723
  8
250
  6
CONTINUOUS
 10
-24.300000000000619
 20
42.0
 30
0.0
 11
-22.070000000000618
 21
42.0
 31
0.0
  0
LINE
  5
4724
  8
250
  6
CONTINUOUS
 10
217.76999999999941
 20
42.371666666666663
 30
0.0
 11
219.9999999999994
 21
42.0
 31
0.0
  0
LINE
  5
4725
  8
250
  6
CONTINUOUS
 10
217.76999999999941
 20
41.62833333333333
 30
0.0
 11
219.9999999999994
 21
42.0
 31
0.0
  0
LINE
  5
4726
  8
250
  6
CONTINUOUS
 10
219.9999999999994
 20
42.0
 30
0.0
 11
217.76999999999941
 21
42.0
 31
0.0
  0
TEXT
  5
4727
  8
250
  6
CONTINUOUS
 10
105.9999999999997
 20
36.0
 30
0.0
 40
2.7999999999999989
  1
220
  0
LINE
  5
4728
  8
250
  6
CONTINUOUS
 10
217.76999999999941
 20
35.37166666666667
 30
0.0
 11
219.9999999999994
 21
35.0
 31
0.0
  0
LINE
  5
4729
  8
250
  6
CONTINUOUS
 10
217.76999999999941
 20
34.62833333333333
 30
0.0
 11
219.9999999999994
 21
35.0
 31
0.0
  0
LINE
  5
472A
  8
250
  6
CONTINUOUS
 10
219.9999999999994
 20
35.0
 30
0.0
 11
217.76999999999941
 21
35.0
 31
0.0
  0
LINE
  5
472B
  8
250
  6
CONTINUOUS
 10
2.23
 20
34.62833333333333
 30
0.0
 11
0.0000000000000005
 21
35.0
 31
0.0
  0
LINE
  5
472C
  8
250
  6
CONTINUOUS
 10
2.23
 20
35.37166666666667
 30
0.0
 11
0.0000000000000005
 21
35.0
 31
0.0
  0
LINE
  5
472D
  8
250
  6
CONTINUOUS
 10
0.0000000000000005
 20
35.0
 30
0.0
 11
2.23
 21
35.0
 31
0.0
  0
TEXT
  5
472E
  8
250
  6
CONTINUOUS
 10
-16.816666666666968
 20
36.000000000000007
 30
0.0
 40
2.7999999999999989
  1
24.3
  0
LINE
  5
472F
  8
250
  6
CONTINUOUS
 10
-2.2299999999999991
 20
35.371666666666677
 30
0.0
 11
0.0000000000000005
 21
35.000000000000007
 31
0.0
  0
LINE
  5
4730
  8
250
  6
CONTINUOUS
 10
-2.2299999999999991
 20
34.628333333333337
 30
0.0
 11
0.0000000000000005
 21
35.000000000000007
 31
0.0
  0
LINE
  5
4731
  8
250
  6
CONTINUOUS
 10
0.0000000000000005
 20
35.000000000000007
 30
0.0
 11
-2.2299999999999991
 21
35.000000000000007
 31
0.0
  0
LINE
  5
4732
  8
250
  6
CONTINUOUS
 10
-22.070000000000618
 20
34.628333333333337
 30
0.0
 11
-24.300000000000619
 21
35.000000000000007
 31
0.0
  0
LINE
  5
4733
  8
250
  6
CONTINUOUS
 10
-22.070000000000618
 20
35.371666666666677
 30
0.0
 11
-24.300000000000619
 21
35.000000000000007
 31
0.0
  0
LINE
  5
4734
  8
250
  6
CONTINUOUS
 10
-24.300000000000619
 20
35.000000000000007
 30
0.0
 11
-22.070000000000618
 21
35.000000000000007
 31
0.0
  0
TEXT
  5
47A0
  8
241
  6
CONTINUOUS
 10
-21.0
 20
105.0
 30
0.0
 40
4.0
  1
MGR30L
  7
YOKO
  0
VIEWPORT
  5
22
 67
     1
  8
0
 10
261.51769911504419
 20
148.5
 30
0.0
 40
523.0353982300885
 41
297.0
 68
     1
 69
     1
1001
ACAD
1000
MVIEW
1002
{
1070
    16
1010
0.0
1020
0.0
1030
0.0
1010
0.0
1020
0.0
1030
1.0
1040
0.0
1040
297.0
1040
261.51769911504419
1040
148.5
1040
50.0
1040
0.0
1040
0.0
1070
     0
1070
   100
1070
     1
1070
     1
1070
     0
1070
     0
1070
     0
1070
     0
1040
0.0
1040
0.0
1040
0.0
1040
1.0
1040
1.0
1040
10.0
1040
10.0
1070
     0
1002
{
1002
}
1002
}
1001
GENIUS_GENODEF_13
1002
{
1000
HIER
1070
     0
1002
}
1002
{
1000
MANEDIT
1070
     0
1002
}
1002
{
1000
NOSEL
1070
     0
1002
}
1002
{
1000
BEHIND
1070
     0
1002
}
1002
{
1000
OTHER
1070
     0
1002
}
1002
{
1000
REACTOR
1002
}
1001
GENIUS_GENOBJ-N-SDF_13
1002
{
1000
OWNER
1000
GEN
1002
}
1001
GENIUS_GENSCREG_15
1000
PF
1040
1.0
1000
DF
1040
1.0
1000
MIN
1011
0.0
1021
0.0
1031
0.0
1021
0.0
1031
0.0
1000
MAX
1011
523.0353982300885
1021
0.0
1031
0.0
1021
297.0
1031
0.0
1000
FLAGS
1070
     4
  0
ENDSEC
  0
EOF
