  0
SECTION
  2
HEADER
  9
$ACADVER
  1
AC1009
  9
$INSBASE
 10
0.0
 20
0.0
 30
0.0
  9
$EXTMIN
 10
-28.258520943418059
 20
-26.45062651088233
 30
0.0
  9
$EXTMAX
 10
144.7667785853491
 20
109.0
 30
0.0
  9
$LIMMIN
 10
0.0
 20
0.0
  9
$LIMMAX
 10
297.0
 20
210.0
  9
$ORTHOMODE
 70
     0
  9
$REGENMODE
 70
     1
  9
$FILLMODE
 70
     1
  9
$QTEXTMODE
 70
     0
  9
$MIRRTEXT
 70
     1
  9
$DRAGMODE
 70
     2
  9
$LTSCALE
 40
10.0
  9
$OSMODE
 70
    37
  9
$ATTMODE
 70
     1
  9
$TEXTSIZE
 40
3.0
  9
$TRACEWID
 40
1.0
  9
$TEXTSTYLE
  7
YOKO
  9
$CLAYER
  8
240
  9
$CELTYPE
  6
BYLAYER
  9
$CECOLOR
 62
   256
  9
$DIMSCALE
 40
1.0
  9
$DIMASZ
 40
2.2299999999999991
  9
$DIMEXO
 40
0.5
  9
$DIMDLI
 40
7.0
  9
$DIMRND
 40
0.0
  9
$DIMDLE
 40
0.0
  9
$DIMEXE
 40
1.0
  9
$DIMTP
 40
0.0
  9
$DIMTM
 40
0.01
  9
$DIMTXT
 40
2.7999999999999989
  9
$DIMCEN
 40
0.0
  9
$DIMTSZ
 40
0.0
  9
$DIMTOL
 70
     0
  9
$DIMLIM
 70
     0
  9
$DIMTIH
 70
     0
  9
$DIMTOH
 70
     0
  9
$DIMSE1
 70
     0
  9
$DIMSE2
 70
     0
  9
$DIMTAD
 70
     3
  9
$DIMZIN
 70
     9
  9
$DIMBLK
  1
OPEN
  9
$DIMASO
 70
     1
  9
$DIMSHO
 70
     1
  9
$DIMPOST
  1

  9
$DIMAPOST
  1

  9
$DIMALT
 70
     0
  9
$DIMALTD
 70
     2
  9
$DIMALTF
 40
25.399999999999999
  9
$DIMLFAC
 40
1.0
  9
$DIMTOFL
 70
     1
  9
$DIMTVP
 40
0.0
  9
$DIMTIX
 70
     1
  9
$DIMSOXD
 70
     0
  9
$DIMSAH
 70
     0
  9
$DIMBLK1
  1

  9
$DIMBLK2
  1

  9
$DIMSTYLE
  2
BIGT
  9
$DIMCLRD
 70
   256
  9
$DIMCLRE
 70
   256
  9
$DIMCLRT
 70
    40
  9
$DIMTFAC
 40
1.0
  9
$DIMGAP
 40
1.0
  9
$LUNITS
 70
     2
  9
$LUPREC
 70
     6
  9
$SKETCHINC
 40
1.0
  9
$FILLETRAD
 40
0.0
  9
$AUNITS
 70
     0
  9
$AUPREC
 70
     6
  9
$MENU
  1
.
  9
$ELEVATION
 40
0.0
  9
$PELEVATION
 40
0.0
  9
$THICKNESS
 40
0.0
  9
$LIMCHECK
 70
     0
  9
$BLIPMODE
 70
     0
  9
$CHAMFERA
 40
0.2
  9
$CHAMFERB
 40
0.2
  9
$SKPOLY
 70
     0
  9
$TDCREATE
 40
2459494.5857827431
  9
$TDUPDATE
 40
2459494.6006284142
  9
$TDINDWG
 40
0.0147343056
  9
$TDUSRTIMER
 40
0.0147342361
  9
$USRTIMER
 70
     1
  9
$ANGBASE
 50
0.0
  9
$ANGDIR
 70
     0
  9
$PDMODE
 70
     1
  9
$PDSIZE
 40
0.0
  9
$PLINEWID
 40
0.0
  9
$COORDS
 70
     1
  9
$SPLFRAME
 70
     0
  9
$SPLINETYPE
 70
     6
  9
$SPLINESEGS
 70
     4
  9
$ATTDIA
 70
     1
  9
$ATTREQ
 70
     1
  9
$HANDLING
 70
     1
  9
$HANDSEED
  5
491E
  9
$SURFTAB1
 70
     6
  9
$SURFTAB2
 70
     6
  9
$SURFTYPE
 70
     6
  9
$SURFU
 70
     6
  9
$SURFV
 70
     6
  9
$UCSNAME
  2

  9
$UCSORG
 10
0.0
 20
0.0
 30
0.0
  9
$UCSXDIR
 10
1.0
 20
0.0
 30
0.0
  9
$UCSYDIR
 10
0.0
 20
1.0
 30
0.0
  9
$PUCSNAME
  2

  9
$PUCSORG
 10
0.0
 20
0.0
 30
0.0
  9
$PUCSXDIR
 10
1.0
 20
0.0
 30
0.0
  9
$PUCSYDIR
 10
0.0
 20
1.0
 30
0.0
  9
$USERI1
 70
     1
  9
$USERI2
 70
     0
  9
$USERI3
 70
     0
  9
$USERI4
 70
     0
  9
$USERI5
 70
     0
  9
$USERR1
 40
0.0
  9
$USERR2
 40
0.0
  9
$USERR3
 40
0.0
  9
$USERR4
 40
0.0
  9
$USERR5
 40
0.0
  9
$WORLDVIEW
 70
     1
  9
$SHADEDGE
 70
     3
  9
$SHADEDIF
 70
    70
  9
$TILEMODE
 70
     1
  9
$MAXACTVP
 70
    16
  9
$PLIMCHECK
 70
     0
  9
$PEXTMIN
 10
1.0000000000000000E+020
 20
1.0000000000000000E+020
 30
1.0000000000000000E+020
  9
$PEXTMAX
 10
-1.0000000000000000E+020
 20
-1.0000000000000000E+020
 30
-1.0000000000000000E+020
  9
$PLIMMIN
 10
0.0
 20
0.0
  9
$PLIMMAX
 10
420.0
 20
297.0
  9
$UNITMODE
 70
     0
  9
$VISRETAIN
 70
     1
  9
$PLINEGEN
 70
     0
  9
$PSLTSCALE
 70
     1
  0
ENDSEC
  0
SECTION
  2
TABLES
  0
TABLE
  2
VPORT
 70
     1
  0
VPORT
  2
*ACTIVE
 70
     0
 10
0.0
 20
0.0
 11
1.0
 21
1.0
 12
55.581780190917357
 22
42.462861384938847
 13
0.0
 23
0.0
 14
7.0
 24
7.0
 15
7.0
 25
7.0
 16
0.0
 26
0.0
 36
1.0
 17
0.0
 27
0.0
 37
0.0
 40
247.11191941391701
 41
1.758883248730964
 42
50.0
 43
0.0
 44
0.0
 50
0.0
 51
0.0
 71
     0
 72
  2000
 73
     1
 74
     0
 75
     1
 76
     1
 77
     0
 78
     0
  0
ENDTAB
  0
TABLE
  2
LTYPE
 70
    13
  0
LTYPE
  2
CONTINUOUS
 70
     0
  3
Solid line
 72
    65
 73
     0
 40
0.0
  0
LTYPE
  2
CENTER2
 70
     0
  3
___ _ ___ _ ___ _ ___ _ ___ _ ___ _ ___ _ ___ _
 72
    65
 73
     4
 40
1.125
 49
0.75
 49
-0.125
 49
0.125
 49
-0.125
  0
LTYPE
  2
HIDDEN2
 70
     0
  3
_ _ _ _ _ _ _ _ _ _ _ _ _ _ _ _ _ _ _ _ _ _ _ _
 72
    65
 73
     2
 40
0.1875
 49
0.125
 49
-0.0625
  0
LTYPE
  2
PHANTOM2
 70
     0
  3
___ _ _ ___ _ _ ___ _ _ ___ _ _ ___ _ _ ___ _ _
 72
    65
 73
     6
 40
1.25
 49
0.625
 49
-0.125
 49
0.125
 49
-0.125
 49
0.125
 49
-0.125
  0
LTYPE
  2
AM_ISO02W050
 70
     0
  3
__ __ __ __ __ __ __ __ __ __ __ __ __ __ __
 72
    65
 73
     2
 40
7.5
 49
6.0
 49
-1.5
  0
LTYPE
  2
AMCONSTR
 70
     0
  3
_______________________
 72
    65
 73
     2
 40
9999.0
 49
9999.0
 49
0.0
  0
LTYPE
  2
ACISOWELD
 70
     0
  3
_ _ _ _ _
 72
    65
 73
     2
 40
2.0
 49
2.0
 49
-1.0
  0
LTYPE
  2
ACISOTGB
 70
     0
  3
__ . . __ . .
 72
    65
 73
     6
 40
9.0
 49
4.0
 49
-1.0
 49
1.0
 49
-1.0
 49
1.0
 49
-1.0
  0
LTYPE
  2
ACISOTGL
 70
     0
  3
_ _ _ _ _
 72
    65
 73
     2
 40
3.0
 49
2.0
 49
-1.0
  0
LTYPE
  2
ACJISTGB
 70
     0
  3
__ . . __ . .
 72
    65
 73
     6
 40
9.0
 49
4.0
 49
-1.0
 49
1.0
 49
-1.0
 49
1.0
 49
-1.0
  0
LTYPE
  2
ACJISTGL
 70
     0
  3
_ _ _ _ _
 72
    65
 73
     2
 40
3.0
 49
2.0
 49
-1.0
  0
ENDTAB
  0
TABLE
  2
LAYER
 70
     7
  0
LAYER
  2
0
 70
     0
 62
     7
  6
CONTINUOUS
  0
LAYER
  2
DEFPOINTS
 70
     0
 62
     7
  6
CONTINUOUS
  0
LAYER
  2
245
 70
     0
 62
     2
  6
CENTER2
  0
LAYER
  2
240
 70
     0
 62
     4
  6
CONTINUOUS
  0
LAYER
  2
241
 70
     0
 62
   211
  6
CONTINUOUS
  0
LAYER
  2
246
 70
     0
 62
     3
  6
PHANTOM2
  0
LAYER
  2
250
 70
     0
 62
     3
  6
CONTINUOUS
  0
ENDTAB
  0
TABLE
  2
STYLE
 70
     6
  0
STYLE
  2
STANDARD
 70
     0
 40
0.0
 41
1.0
 50
0.0
 71
     0
 42
3.0
  3
romans.shx
  4
extfont.shx
  0
STYLE
  2
ACISOTS
 70
     0
 40
1.0
 41
1.0
 50
0.0
 71
     0
 42
3.0
  3
amgdt.shx
  4
extfont.shx
  0
STYLE
  2
ACISOGDT
 70
     0
 40
0.0
 41
1.0
 50
0.0
 71
     0
 42
3.0
  3
amgdt.shx
  4
extfont.shx
  0
STYLE
  2
ACJISTS
 70
     0
 40
1.0
 41
1.0
 50
0.0
 71
     0
 42
3.0
  3
amgdt.shx
  4
extfont.shx
  0
STYLE
  2
ACJISGDT
 70
     0
 40
0.0
 41
1.0
 50
0.0
 71
     0
 42
3.0
  3
amgdt.shx
  4
extfont.shx
  0
STYLE
  2
YOKO
 70
     0
 40
0.0
 41
1.0
 50
0.0
 71
     0
 42
3.0
  3
romans.shx
  4
extfont.shx
  0
ENDTAB
  0
TABLE
  2
VIEW
 70
     0
  0
ENDTAB
  0
TABLE
  2
UCS
 70
     0
  0
ENDTAB
  0
TABLE
  2
APPID
 70
    41
  0
APPID
  2
ACAD
 70
     0
  0
APPID
  2
GLOBAL
 70
     0
  0
APPID
  2
DETAIL
 70
     0
  0
APPID
  2
GRPNAME
 70
     0
  0
APPID
  2
GPARA
 70
     0
  0
APPID
  2
MCAD_NO_VIS
 70
     0
  0
APPID
  2
ACAD_TEMP_GRAPHIC
 70
     0
  0
APPID
  2
ACATTRIBSERVICES
 70
     0
  0
APPID
  2
GENIUS_GENSCREG_15
 70
     0
  0
APPID
  2
GENIUS_GENODEF_13
 70
     0
  0
APPID
  2
GENIUS_GENOBJ-N-SDF_13
 70
     0
  0
APPID
  2
GENIUS_GENREC_14
 70
     0
  0
APPID
  2
GENIUS_GENOBJ-N-REC_13
 70
     0
  0
APPID
  2
GENIUS_GENDIMSH_14
 70
     0
  0
APPID
  2
GENIUS_GENOBJ-N-DIM_13
 70
     0
  0
APPID
  2
GENIUS_GENDIM_13
 70
     0
  0
APPID
  2
GENIUS_GENDTOL_13
 70
     0
  0
APPID
  2
GENIUS_GENOLIS_13
 70
     0
  0
APPID
  2
GENIUS_GENOENT_13
 70
     0
  0
APPID
  2
GENIUS_GENOBJ-F-FEM_13
 70
     0
  0
APPID
  2
GENIUS_GENOREF_13
 70
     0
  0
APPID
  2
GENIUS_GEFFEM_13
 70
     0
  0
APPID
  2
GENIUS_GEFFEMP_13
 70
     0
  0
APPID
  2
AD_DRAW
 70
     0
  0
APPID
  2
DESIGNERASSEMBLIES
 70
     0
  0
APPID
  2
ACADM_DIM_EDIT
 70
     0
  0
APPID
  2
AMDT_DM_ADJ
 70
     0
  0
APPID
  2
ITEMNAME
 70
     0
  0
APPID
  2
GENIUS_GENOBJ-N-FIL_13
 70
     0
  0
APPID
  2
GENIUS_GENFIL_13
 70
     0
  0
APPID
  2
GENIUS_GENOBJ-N-CHA_13
 70
     0
  0
APPID
  2
ACAD_NAV_VCDISPLAY
 70
     0
  0
APPID
  2
ACAECLAYERSTANDARD
 70
     0
  0
APPID
  2
GRADE_0
 70
     0
  0
APPID
  2
KCAD_BASE
 70
     0
  0
APPID
  2
ACAD_PSEXT
 70
     0
  0
APPID
  2
ACAD_DSTYLE_DIMJAG
 70
     0
  0
APPID
  2
ACAD_DSTYLE_DIMTALN
 70
     0
  0
APPID
  2
ACAD_EXEMPT_FROM_CAD_STANDARDS
 70
     0
  0
APPID
  2
ACAD_DSTYLE_DIMINSPECT
 70
     0
  0
APPID
  2
ACAD_MLEADERVER
 70
     0
  0
ENDTAB
  0
TABLE
  2
DIMSTYLE
 70
    23
  0
DIMSTYLE
  2
BIGT
 70
     0
  3

  4

  5
OPEN
  6

  7

 40
1.0
 41
2.2299999999999991
 42
0.5
 43
7.0
 44
1.0
 45
0.0
 46
0.0
 47
0.0
 48
0.01
140
2.7999999999999989
141
0.0
142
0.0
143
25.399999999999999
144
1.0
145
0.0
146
1.0
147
1.0
 71
     0
 72
     0
 73
     0
 74
     0
 75
     0
 76
     0
 77
     3
 78
     9
170
     0
171
     2
172
     1
173
     0
174
     1
175
     0
176
   256
177
   256
178
    40
  0
DIMSTYLE
  2
AM_ISO
 70
     0
  3

  4
"
  5

  6

  7

 40
1.0
 41
2.5
 42
1.0
 43
10.0
 44
1.0
 45
0.0
 46
0.0
 47
0.1
 48
0.1
140
3.5
141
0.0
142
0.0
143
0.0393701
144
1.0
145
0.0
146
0.71
147
1.5
 71
     0
 72
     0
 73
     0
 74
     0
 75
     0
 76
     0
 77
     1
 78
     8
170
     0
171
     2
172
     1
173
     0
174
     0
175
     0
176
   256
177
   256
178
     2
  0
DIMSTYLE
  2
AM_ISO$3
 70
     0
  3

  4
"
  5

  6

  7

 40
1.0
 41
2.5
 42
1.0
 43
10.0
 44
1.0
 45
0.0
 46
0.0
 47
0.1
 48
0.1
140
3.5
141
0.0
142
0.0
143
0.0393701
144
1.0
145
0.0
146
0.71
147
1.5
 71
     0
 72
     0
 73
     0
 74
     1
 75
     0
 76
     0
 77
     1
 78
     8
170
     0
171
     2
172
     0
173
     0
174
     0
175
     0
176
   256
177
   256
178
     2
  0
DIMSTYLE
  2
AM_ISO$4
 70
     0
  3

  4
"
  5

  6

  7

 40
1.0
 41
2.5
 42
1.0
 43
10.0
 44
1.0
 45
0.0
 46
0.0
 47
0.1
 48
0.1
140
3.5
141
0.0
142
0.0
143
0.0393701
144
1.0
145
0.0
146
0.71
147
1.5
 71
     0
 72
     0
 73
     0
 74
     1
 75
     0
 76
     0
 77
     1
 78
     8
170
     0
171
     2
172
     0
173
     0
174
     0
175
     0
176
   256
177
   256
178
     2
  0
DIMSTYLE
  2
AM_ISO$6
 70
     0
  3

  4
"
  5

  6

  7

 40
1.0
 41
2.5
 42
1.0
 43
10.0
 44
1.0
 45
0.0
 46
0.0
 47
0.1
 48
0.1
140
3.5
141
0.0
142
0.0
143
0.0393701
144
1.0
145
0.0
146
0.71
147
1.5
 71
     0
 72
     0
 73
     0
 74
     0
 75
     0
 76
     0
 77
     0
 78
     8
170
     0
171
     2
172
     1
173
     0
174
     0
175
     0
176
   256
177
   256
178
     2
  0
DIMSTYLE
  2
AM_ISO$7
 70
     0
  3

  4
"
  5

  6

  7

 40
1.0
 41
2.5
 42
1.0
 43
10.0
 44
1.0
 45
0.0
 46
0.0
 47
0.1
 48
0.1
140
5.0
141
0.0
142
0.0
143
0.0393701
144
1.0
145
0.0
146
0.71
147
1.5
 71
     0
 72
     0
 73
     0
 74
     0
 75
     0
 76
     0
 77
     1
 78
     8
170
     0
171
     2
172
     1
173
     0
174
     0
175
     0
176
   256
177
   256
178
     2
  0
DIMSTYLE
  2
AM_ISO$SF
 70
     0
  3

  4
"
  5

  6

  7

 40
1.0
 41
2.5
 42
1.0
 43
10.0
 44
1.0
 45
0.0
 46
0.0
 47
0.1
 48
0.1
140
3.5
141
0.0
142
0.0
143
0.0393701
144
1.0
145
0.0
146
0.71
147
1.5
 71
     0
 72
     0
 73
     0
 74
     0
 75
     1
 76
     1
 77
     1
 78
     8
170
     0
171
     2
172
     1
173
     0
174
     0
175
     0
176
   256
177
   256
178
     2
  0
DIMSTYLE
  2
AM_ISO$SH
 70
     0
  3

  4
"
  5

  6
GENAXEH
  7

 40
1.0
 41
2.5
 42
1.0
 43
10.0
 44
1.0
 45
0.0
 46
0.0
 47
0.1
 48
0.1
140
3.5
141
0.0
142
0.0
143
0.0393701
144
2.0
145
0.0
146
0.71
147
1.5
 71
     0
 72
     0
 73
     0
 74
     0
 75
     1
 76
     1
 77
     1
 78
     8
170
     0
171
     2
172
     1
173
     1
174
     0
175
     0
176
   256
177
   256
178
     2
  0
DIMSTYLE
  2
BIGT$2
 70
     0
  3

  4

  5
OPEN
  6

  7

 40
1.0
 41
2.2299999999999991
 42
0.5
 43
7.0
 44
1.0
 45
0.0
 46
0.0
 47
0.0
 48
0.01
140
2.7999999999999989
141
0.0
142
0.0
143
25.399999999999999
144
1.0
145
0.0
146
1.0
147
1.0
 71
     0
 72
     0
 73
     0
 74
     0
 75
     0
 76
     0
 77
     3
 78
     9
170
     0
171
     2
172
     1
173
     0
174
     0
175
     0
176
   256
177
   256
178
    40
  0
DIMSTYLE
  2
BIGT$3
 70
     0
  3

  4

  5
OPEN
  6

  7

 40
1.0
 41
2.2299999999999991
 42
0.5
 43
2.5
 44
1.0
 45
0.0
 46
0.0
 47
0.0
 48
0.01
140
2.7999999999999989
141
0.0
142
0.0
143
25.399999999999999
144
1.0
145
0.0
146
1.0
147
1.0
 71
     0
 72
     0
 73
     0
 74
     0
 75
     0
 76
     0
 77
     3
 78
     9
170
     0
171
     2
172
     1
173
     0
174
     0
175
     0
176
   256
177
   256
178
    40
  0
DIMSTYLE
  2
BIGT$7
 70
     0
  3

  4

  5
OPEN
  6

  7

 40
0.0
 41
2.2299999999999991
 42
0.5
 43
7.0
 44
1.0
 45
0.0
 46
0.0
 47
0.0
 48
0.01
140
2.7999999999999989
141
0.0
142
0.0
143
25.399999999999999
144
1.0
145
0.0
146
1.0
147
1.0
 71
     0
 72
     0
 73
     0
 74
     0
 75
     0
 76
     0
 77
     3
 78
     9
170
     0
171
     2
172
     0
173
     0
174
     0
175
     0
176
   256
177
   256
178
    40
  0
DIMSTYLE
  2
BIGT$6
 70
     0
  3

  4

  5
OPEN
  6

  7

 40
1.0
 41
2.2299999999999991
 42
0.5
 43
2.5
 44
1.0
 45
0.0
 46
0.0
 47
0.0
 48
0.01
140
2.7999999999999989
141
0.0
142
0.0
143
25.399999999999999
144
1.0
145
0.0
146
1.0
147
1.0
 71
     0
 72
     0
 73
     0
 74
     0
 75
     0
 76
     0
 77
     3
 78
     9
170
     0
171
     2
172
     1
173
     0
174
     0
175
     0
176
   256
177
   256
178
    40
  0
DIMSTYLE
  2
BIGT$0
 70
     0
  3

  4

  5
OPEN
  6

  7

 40
1.0
 41
2.2299999999999991
 42
0.5
 43
7.0
 44
1.0
 45
0.0
 46
0.0
 47
0.0
 48
0.01
140
2.7999999999999989
141
0.0
142
0.0
143
25.399999999999999
144
1.0
145
0.0
146
1.0
147
1.0
 71
     0
 72
     0
 73
     0
 74
     0
 75
     0
 76
     0
 77
     3
 78
     9
170
     0
171
     2
172
     1
173
     0
174
     1
175
     0
176
   256
177
   256
178
    40
  0
DIMSTYLE
  2
BIGT$4
 70
     0
  3

  4

  5
OPEN
  6

  7

 40
1.0
 41
2.2299999999999991
 42
0.5
 43
2.5
 44
1.0
 45
0.0
 46
0.0
 47
0.0
 48
0.01
140
2.7999999999999989
141
0.0
142
0.0
143
25.399999999999999
144
1.0
145
0.0
146
1.0
147
1.0
 71
     0
 72
     0
 73
     0
 74
     0
 75
     0
 76
     0
 77
     3
 78
     9
170
     0
171
     2
172
     1
173
     0
174
     0
175
     0
176
   256
177
   256
178
    40
  0
DIMSTYLE
  2
BIGT$SH
 70
     0
  3

  4

  5
OPEN
  6

  7

 40
1.0
 41
2.2299999999999991
 42
0.5
 43
7.0
 44
1.0
 45
0.0
 46
0.0
 47
0.0
 48
0.0
140
2.7999999999999989
141
0.0
142
0.0
143
25.399999999999999
144
1.0
145
0.0
146
1.0
147
1.0
 71
     0
 72
     0
 73
     0
 74
     0
 75
     0
 76
     0
 77
     3
 78
     9
170
     0
171
     2
172
     1
173
     0
174
     0
175
     0
176
   256
177
   256
178
    40
  0
DIMSTYLE
  2
BIGT$SF
 70
     0
  3

  4

  5
OPEN
  6

  7

 40
1.0
 41
2.2299999999999991
 42
0.5
 43
7.0
 44
1.0
 45
0.0
 46
0.0
 47
0.0
 48
0.0
140
2.7999999999999989
141
0.0
142
0.0
143
25.399999999999999
144
1.0
145
0.0
146
1.0
147
1.0
 71
     0
 72
     0
 73
     0
 74
     0
 75
     0
 76
     0
 77
     3
 78
     9
170
     0
171
     2
172
     1
173
     0
174
     0
175
     0
176
   256
177
   256
178
    40
  0
DIMSTYLE
  2
TECHNICAL_OSAKA
 70
     0
  3

  4
"
  5
OPEN30
  6

  7

 40
1.0
 41
2.5
 42
1.0
 43
10.0
 44
1.0
 45
0.0
 46
0.0
 47
0.1
 48
0.1
140
2.7999999999999989
141
0.0
142
0.0
143
0.0393701
144
1.0
145
0.0
146
0.71
147
1.5
 71
     0
 72
     0
 73
     0
 74
     0
 75
     0
 76
     0
 77
     3
 78
     8
170
     0
171
     2
172
     1
173
     0
174
     0
175
     0
176
   256
177
   256
178
    40
  0
DIMSTYLE
  2
TECHNICAL_OSAKA$3
 70
     0
  3

  4
"
  5
OPEN30
  6

  7

 40
1.0
 41
2.5
 42
1.0
 43
10.0
 44
1.0
 45
0.0
 46
0.0
 47
0.1
 48
0.1
140
2.7999999999999989
141
0.0
142
0.0
143
0.0393701
144
1.0
145
0.0
146
0.71
147
1.5
 71
     0
 72
     0
 73
     0
 74
     1
 75
     0
 76
     0
 77
     3
 78
     8
170
     0
171
     2
172
     0
173
     0
174
     0
175
     0
176
   256
177
   256
178
    40
  0
DIMSTYLE
  2
TECHNICAL_OSAKA$4
 70
     0
  3

  4
"
  5
OPEN30
  6

  7

 40
1.0
 41
2.5
 42
1.0
 43
10.0
 44
1.0
 45
0.0
 46
0.0
 47
0.1
 48
0.1
140
2.7999999999999989
141
0.0
142
0.0
143
0.0393701
144
1.0
145
0.0
146
0.71
147
1.5
 71
     0
 72
     0
 73
     0
 74
     1
 75
     0
 76
     0
 77
     3
 78
     8
170
     0
171
     2
172
     0
173
     0
174
     0
175
     0
176
   256
177
   256
178
    40
  0
DIMSTYLE
  2
TECHNICAL_OSAKA$6
 70
     0
  3

  4
"
  5
OPEN30
  6

  7

 40
1.0
 41
2.5
 42
1.0
 43
10.0
 44
1.0
 45
0.0
 46
0.0
 47
0.1
 48
0.1
140
2.7999999999999989
141
0.0
142
0.0
143
0.0393701
144
1.0
145
0.0
146
0.71
147
1.5
 71
     0
 72
     0
 73
     0
 74
     0
 75
     0
 76
     0
 77
     0
 78
     8
170
     0
171
     2
172
     1
173
     0
174
     0
175
     0
176
   256
177
   256
178
    40
  0
DIMSTYLE
  2
TECHNICAL_OSAKA$7
 70
     0
  3

  4
"
  5
OPEN30
  6

  7

 40
1.0
 41
2.5
 42
1.0
 43
10.0
 44
1.0
 45
0.0
 46
0.0
 47
0.1
 48
0.1
140
2.7999999999999989
141
0.0
142
0.0
143
0.0393701
144
1.0
145
0.0
146
0.71
147
1.5
 71
     0
 72
     0
 73
     0
 74
     0
 75
     0
 76
     0
 77
     3
 78
     8
170
     0
171
     2
172
     1
173
     0
174
     0
175
     0
176
   256
177
   256
178
    40
  0
DIMSTYLE
  2
TECHNICAL_OSAKA$SF
 70
     0
  3

  4
"
  5
OPEN30
  6
OPEN30
  7
OPEN30
 40
1.0
 41
2.5
 42
1.0
 43
10.0
 44
1.0
 45
0.0
 46
0.0
 47
0.1
 48
0.1
140
3.5
141
0.0
142
0.0
143
0.0393701
144
1.0
145
0.0
146
0.71
147
1.5
 71
     0
 72
     0
 73
     0
 74
     0
 75
     1
 76
     1
 77
     3
 78
     8
170
     0
171
     2
172
     1
173
     0
174
     0
175
     0
176
   256
177
   256
178
    40
  0
DIMSTYLE
  2
TECHNICAL_OSAKA$SH
 70
     0
  3

  4
"
  5
OPEN30
  6
GENAXEH
  7
OPEN30
 40
1.0
 41
2.5
 42
1.0
 43
10.0
 44
1.0
 45
0.0
 46
0.0
 47
0.1
 48
0.1
140
3.5
141
0.0
142
0.0
143
0.0393701
144
2.0
145
0.0
146
0.71
147
1.5
 71
     0
 72
     0
 73
     0
 74
     0
 75
     1
 76
     1
 77
     3
 78
     8
170
     0
171
     2
172
     1
173
     1
174
     0
175
     0
176
   256
177
   256
178
    40
  0
ENDTAB
  0
ENDSEC
  0
SECTION
  2
BLOCKS
  0
BLOCK
  8
0
  2
$MODEL_SPACE
 70
     0
 10
0.0
 20
0.0
 30
0.0
  3
$MODEL_SPACE
  1

  0
ENDBLK
  5
1C
  8
0
  0
BLOCK
 67
     1
  8
0
  2
$PAPER_SPACE
 70
     0
 10
0.0
 20
0.0
 30
0.0
  3
$PAPER_SPACE
  1

  0
ENDBLK
  5
19
 67
     1
  8
0
  0
BLOCK
  8
0
  2
_OPEN
 70
     0
 10
0.0
 20
0.0
 30
0.0
  3
_OPEN
  1

  0
LINE
  5
4825
  8
0
  6
BYBLOCK
 62
     0
 10
-1.0
 20
0.1666666666666666
 30
0.0
 11
0.0
 21
0.0
 31
0.0
  0
LINE
  5
4826
  8
0
  6
BYBLOCK
 62
     0
 10
-1.0
 20
-0.1666666666666666
 30
0.0
 11
0.0
 21
0.0
 31
0.0
  0
LINE
  5
4827
  8
0
  6
BYBLOCK
 62
     0
 10
0.0
 20
0.0
 30
0.0
 11
-1.0
 21
0.0
 31
0.0
  0
ENDBLK
  5
4828
  8
0
  0
BLOCK
  8
0
  2
GENAXEH
 70
     0
 10
0.0
 20
0.0
 30
0.0
  3
GENAXEH
  1

  0
LINE
  5
4860
  8
0
 10
-1.0
 20
0.0
 30
0.0
 11
1.0
 21
0.0
 31
0.0
  0
ENDBLK
  5
4861
  8
0
  0
BLOCK
  8
0
  2
_OPEN30
 70
     0
 10
0.0
 20
0.0
 30
0.0
  3
_OPEN30
  1

  0
LINE
  5
489C
  8
0
  6
BYBLOCK
 62
     0
 10
-1.0
 20
0.26794919
 30
0.0
 11
0.0
 21
0.0
 31
0.0
  0
LINE
  5
489D
  8
0
  6
BYBLOCK
 62
     0
 10
0.0
 20
0.0
 30
0.0
 11
-1.0
 21
-0.26794919
 31
0.0
  0
LINE
  5
489E
  8
0
  6
BYBLOCK
 62
     0
 10
0.0
 20
0.0
 30
0.0
 11
-1.0
 21
0.0
 31
0.0
  0
ENDBLK
  5
489F
  8
0
  0
ENDSEC
  0
SECTION
  2
ENTITIES
  0
LINE
  5
4480
  8
241
  6
CONTINUOUS
 10
33.12678304292811
 20
5.0094647367967582
 30
0.0
 11
32.11548822228994
 21
4.7928932376606781
 31
0.0
  0
LINE
  5
4481
  8
241
  6
CONTINUOUS
 10
30.30000000000004
 20
8.0844096419023401
 30
0.0
 11
29.96463197823152
 21
8.4951221657723561
 31
0.0
  0
LINE
  5
4482
  8
241
  6
CONTINUOUS
 10
27.170668399679389
 20
8.3929738130890712
 30
0.0
 11
26.780840738782128
 21
8.0343714947725005
 31
0.0
  0
ARC
  5
4483
  8
241
  6
CONTINUOUS
 10
28.846875556296538
 20
2.4010023947179491
 30
0.0
 40
0.9173342708009444
 50
270.52057038058098
 51
74.598329745509147
  0
LINE
  5
4484
  8
241
  6
CONTINUOUS
 10
29.227130488655831
 20
3.7991091641722221
 30
0.0
 11
29.090505065052721
 21
3.2853930475682769
 31
0.0
  0
LINE
  5
4485
  8
241
  6
CONTINUOUS
 10
28.210030479842999
 20
0.9528784278322461
 30
0.0
 11
28.8552100354587
 21
0.9528784278322461
 31
0.0
  0
LINE
  5
4486
  8
241
  6
CONTINUOUS
 10
28.8552100354587
 20
1.4847164908604491
 30
0.0
 11
28.210030479842999
 21
1.4847164908604491
 31
0.0
  0
ARC
  5
4487
  8
241
  6
CONTINUOUS
 10
28.21836281055926
 20
2.401001842287882
 30
0.0
 40
0.9173346712896728
 50
105.401631139107
 51
269.47956404196049
  0
LINE
  5
4488
  8
241
  6
CONTINUOUS
 10
27.974733799206319
 20
3.2853930475682769
 30
0.0
 11
27.83811002664595
 21
3.7991091641722221
 31
0.0
  0
LINE
  5
4489
  8
241
  6
CONTINUOUS
 10
30.30000000000004
 20
6.3309471240104642
 30
0.0
 11
29.039354701877439
 21
6.3309471240103496
 31
0.0
  0
LINE
  5
448A
  8
241
  6
CONTINUOUS
 10
29.039354701877439
 20
6.3309471240103496
 30
0.0
 11
28.672664751538068
 21
6.7355747304935392
 31
0.0
  0
LINE
  5
448B
  8
241
  6
CONTINUOUS
 10
30.30000000000004
 20
5.799109164172477
 30
0.0
 11
30.30000000000004
 21
6.3309471240104642
 31
0.0
  0
LINE
  5
448C
  8
241
  6
CONTINUOUS
 10
26.780840738782128
 20
6.3309471240103496
 30
0.0
 11
26.780840738782128
 21
5.799109164172477
 31
0.0
  0
LINE
  5
448D
  8
241
  6
CONTINUOUS
 10
26.780840738782128
 20
5.799109164172477
 30
0.0
 11
30.30000000000004
 21
5.799109164172477
 31
0.0
  0
LINE
  5
448E
  8
241
  6
CONTINUOUS
 10
28.324549030096559
 20
6.3309471240103496
 30
0.0
 11
26.780840738782128
 21
6.3309471240103496
 31
0.0
  0
LINE
  5
448F
  8
241
  6
CONTINUOUS
 10
28.672664751538068
 20
6.7355747304935392
 30
0.0
 11
30.30000000000004
 21
8.0844096419023401
 31
0.0
  0
LINE
  5
4490
  8
241
  6
CONTINUOUS
 10
29.96463197823152
 20
8.4951221657723561
 30
0.0
 11
28.316262447444391
 21
7.1288514193167307
 31
0.0
  0
LINE
  5
4491
  8
241
  6
CONTINUOUS
 10
26.780840738782128
 20
8.0343714947725005
 30
0.0
 11
28.324549030096559
 21
6.3309471240103496
 31
0.0
  0
LINE
  5
4492
  8
241
  6
CONTINUOUS
 10
28.316262447444391
 20
7.1288514193167307
 30
0.0
 11
27.170668399679389
 21
8.3929738130890712
 31
0.0
  0
LINE
  5
4493
  8
241
  6
CONTINUOUS
 10
32.402808714353199
 20
-3.9791577774757911
 30
0.0
 11
31.299999999999759
 21
-3.7226424899348549
 31
0.0
  0
LINE
  5
4494
  8
241
  6
CONTINUOUS
 10
32.525450617626547
 20
-6.1457851599287494
 30
0.0
 11
34.681196002223231
 21
-4.5091149414026566
 31
0.0
  0
LINE
  5
4495
  8
241
  6
CONTINUOUS
 10
31.299999999999759
 20
-3.7226424899348549
 30
0.0
 11
32.525450617626547
 21
-6.1457851599287494
 31
0.0
  0
LINE
  5
4496
  8
241
  6
CONTINUOUS
 10
34.681196002223231
 20
-4.5091149414026566
 30
0.0
 11
33.413569972948842
 21
-4.2142632211097739
 31
0.0
  0
ARC
  5
4497
  8
241
  6
CONTINUOUS
 10
28.84305280421464
 20
-2.4949693969566051
 30
0.0
 40
1.4479779265172961
 50
270.4810613560486
 51
89.518938643951358
  0
ARC
  5
4498
  8
241
  6
CONTINUOUS
 10
28.84740992371874
 20
-2.495115013071711
 30
0.0
 40
0.9159765255845034
 50
270.48791521565022
 51
89.512084784349753
  0
LINE
  5
4499
  8
241
  6
CONTINUOUS
 10
28.855210035458839
 20
-1.5791716994989711
 30
0.0
 11
28.210030479843141
 21
-1.5791716994989711
 31
0.0
  0
LINE
  5
449A
  8
241
  6
CONTINUOUS
 10
28.210030479843141
 20
-3.4110583266436829
 30
0.0
 11
28.855210035458839
 21
-3.4110583266436829
 31
0.0
  0
LINE
  5
449B
  8
241
  6
CONTINUOUS
 10
28.210030479843141
 20
-3.9428962864817829
 30
0.0
 11
28.855210035458839
 21
-3.9428962864817829
 31
0.0
  0
ARC
  5
449C
  8
241
  6
CONTINUOUS
 10
28.217828140982618
 20
-2.4951150130676458
 30
0.0
 40
0.9159765047226608
 50
90.487761932246002
 51
269.51223806775403
  0
LINE
  5
449D
  8
241
  6
CONTINUOUS
 10
28.855210035458839
 20
-1.0473336364707391
 30
0.0
 11
28.210030479843141
 21
-1.0473336364707391
 31
0.0
  0
ARC
  5
449E
  8
241
  6
CONTINUOUS
 10
28.222187712310731
 20
-2.4952606208082102
 30
0.0
 40
1.4479780213365849
 50
90.481061372952468
 51
269.51893862704748
  0
LINE
  5
449F
  8
241
  6
CONTINUOUS
 10
30.30000000000004
 20
-5.9415452191478551
 30
0.0
 11
29.772125367848219
 21
-5.9415452191478551
 31
0.0
  0
LINE
  5
44A0
  8
241
  6
CONTINUOUS
 10
29.707310389728569
 20
-8.3022021690379688
 30
0.0
 11
29.707310389728569
 21
-8.3052698061306387
 31
0.0
  0
LINE
  5
44A1
  8
241
  6
CONTINUOUS
 10
30.30000000000004
 20
-8.8371077659686534
 30
0.0
 11
30.30000000000004
 21
-5.9415452191478551
 31
0.0
  0
LINE
  5
44A2
  8
241
  6
CONTINUOUS
 10
29.772125367848219
 20
-5.9415452191478551
 30
0.0
 11
29.772125367848219
 21
-8.3052698061306387
 31
0.0
  0
LINE
  5
44A3
  8
241
  6
CONTINUOUS
 10
26.780840738782128
 20
-8.3052698061306955
 30
0.0
 11
26.780840738782128
 21
-8.8371077659686819
 31
0.0
  0
LINE
  5
44A4
  8
241
  6
CONTINUOUS
 10
26.780840738782128
 20
-8.8371077659686819
 30
0.0
 11
30.30000000000004
 21
-8.8371077659686534
 31
0.0
  0
LINE
  5
44A5
  8
241
  6
CONTINUOUS
 10
29.772125367848219
 20
-8.3052698061306387
 30
0.0
 11
26.780840738782128
 21
-8.3052698061306955
 31
0.0
  0
ARC
  5
44A6
  8
241
  6
CONTINUOUS
 10
7.4579377154813917
 20
-0.4049626297166356
 30
0.0
 40
26.233673339440578
 50
351.6507611206502
 51
11.91100768470465
  0
ARC
  5
44A7
  8
241
  6
CONTINUOUS
 10
7.473477778480258
 20
-0.4049641991147439
 30
0.0
 40
25.184249058605449
 50
351.84093304870493
 51
11.91106708337848
  0
ARC
  5
44A8
  8
241
  6
CONTINUOUS
 10
28.842038849391489
 20
2.4012012684752331
 30
0.0
 40
1.4499800189945069
 50
270.5204649316114
 51
74.598336967548775
  0
ARC
  5
44A9
  8
241
  6
CONTINUOUS
 10
28.223202159446771
 20
2.4012009411630402
 30
0.0
 40
1.449980465627662
 50
105.40167839913239
 51
269.4795157258805
  0
ARC
  5
44AC
  8
240
  6
CONTINUOUS
 10
132.0
 20
0.0
 30
0.0
 40
8.4000000000000004
 50
269.49999999999869
 51
90.500000000001322
  0
LINE
  5
44AD
  8
241
  6
CONTINUOUS
 10
45.599999999999959
 20
8.0645166038743792
 30
0.0
 11
45.599999999999987
 21
-8.0645166038744662
 31
0.0
  0
ARC
  5
44AE
  8
240
  6
CONTINUOUS
 10
51.331303929309691
 20
-52.698048340337813
 30
0.0
 40
45.0
 50
89.499999999998664
 51
105.00000000000109
  0
ARC
  5
44AF
  8
240
  6
CONTINUOUS
 10
51.33130392930962
 20
52.698048340337721
 30
0.0
 40
45.0
 50
254.99999999999881
 51
270.49999999999801
  0
LINE
  5
44B0
  8
240
  6
CONTINUOUS
 10
51.723998026735778
 20
7.6997618024499843
 30
0.0
 11
131.92669710181369
 21
8.3996801537390411
 31
0.0
  0
LINE
  5
44B1
  8
240
  6
CONTINUOUS
 10
51.723998026735842
 20
-7.699761802450098
 30
0.0
 11
131.92669710181369
 21
-8.3996801537390411
 31
0.0
  0
LINE
  5
44B2
  8
245
  6
CENTER2
 10
132.0
 20
9.8824298447638057
 30
0.0
 11
132.0
 21
-10.40555856241769
 31
0.0
  0
ARC
  5
44B3
  8
240
  6
CONTINUOUS
 10
41.845737413497062
 20
55.239698228001373
 30
0.0
 40
45.0
 50
232.8549732520809
 51
254.99999999999881
  0
ARC
  5
44B4
  8
240
  6
CONTINUOUS
 10
41.845737413497027
 20
-55.239698228001373
 30
0.0
 40
45.0
 50
105.00000000000109
 51
127.1450267479191
  0
ARC
  5
44B5
  8
240
  6
CONTINUOUS
 10
0.0
 20
0.0
 30
0.0
 40
24.300000000000001
 50
52.85497325208091
 51
307.14502674791908
  0
ARC
  5
44B6
  8
241
  6
CONTINUOUS
 10
0.0
 20
0.0
 30
0.0
 40
24.300000000000001
 50
324.8549358198407
 51
35.368481788770893
  0
CIRCLE
  5
44B7
  8
241
  6
CONTINUOUS
 10
0.0
 20
0.0
 30
0.0
 40
22.5
  0
LINE
  5
44B8
  8
240
  6
CONTINUOUS
 10
39.684446899696468
 20
9.2313861573295526
 30
0.0
 11
30.198880383883932
 21
11.7730360449932
 31
0.0
  0
LINE
  5
44B9
  8
240
  6
CONTINUOUS
 10
39.684446899696667
 20
-9.2313861573296094
 30
0.0
 11
30.198880383883989
 21
-11.773036044993169
 31
0.0
  0
LINE
  5
44BA
  8
245
  6
CENTER2
 10
0.0
 20
26.77408077300834
 30
0.0
 11
0.0
 21
-26.45062651088233
 31
0.0
  0
LINE
  5
44BB
  8
245
  6
CENTER2
 10
-28.258520943418059
 20
0.0
 30
0.0
 11
144.7667785853491
 21
0.0
 31
0.0
  0
LINE
  5
44BC
  8
245
  6
CENTER2
 10
-25.70485681634031
 20
70.0
 30
0.0
 11
142.45207467496999
 21
70.0
 31
0.0
  0
LINE
  5
44BD
  8
245
  6
CENTER2
 10
-0.0000000000000284
 20
83.750023907457958
 30
0.0
 11
-0.0000000000000284
 21
56.348454942197833
 31
0.0
  0
LINE
  5
44BF
  8
241
  6
CONTINUOUS
 10
-24.30000000000004
 20
69.25
 30
0.0
 11
140.40000000000001
 21
69.25
 31
0.0
  0
LINE
  5
44C0
  8
241
  6
CONTINUOUS
 10
-24.30000000000004
 20
70.75
 30
0.0
 11
140.40000000000009
 21
70.75
 31
0.0
  0
LINE
  5
44C1
  8
240
  6
CONTINUOUS
 10
46.747603582565787
 20
72.999999999997513
 30
0.0
 11
137.90551521546271
 21
72.999999999999972
 31
0.0
  0
LINE
  5
44C2
  8
240
  6
CONTINUOUS
 10
46.747603582565567
 20
67.000000000002487
 30
0.0
 11
137.9055152154628
 21
67.000000000000014
 31
0.0
  0
LINE
  5
44C3
  8
240
  6
CONTINUOUS
 10
140.40000000000001
 20
70.75
 30
0.0
 11
140.40000000000001
 21
69.250000000000014
 31
0.0
  0
LINE
  5
44C4
  8
240
  6
CONTINUOUS
 10
140.40000000000001
 20
69.25
 30
0.0
 11
140.36753459799331
 21
69.065879555832751
 31
0.0
  0
ARC
  5
44C5
  8
240
  6
CONTINUOUS
 10
137.9055152154628
 20
69.5
 30
0.0
 40
2.5
 50
270.0
 51
350.00000000000142
  0
LINE
  5
44C6
  8
240
  6
CONTINUOUS
 10
140.40000000000001
 20
70.75
 30
0.0
 11
140.36753459799331
 21
70.934120444167263
 31
0.0
  0
ARC
  5
44C7
  8
240
  6
CONTINUOUS
 10
137.9055152154628
 20
70.500000000000014
 30
0.0
 40
2.5
 50
9.9999999999985381
 51
90.000000000001606
  0
LINE
  5
44D1
  8
240
  6
CONTINUOUS
 10
44.465752789716781
 20
73.174577342981465
 30
0.0
 11
24.192292307318411
 21
76.294961358046834
 31
0.0
  0
LINE
  5
44D2
  8
240
  6
CONTINUOUS
 10
44.465752789716873
 20
66.825422657018848
 30
0.0
 11
24.192292307318439
 21
63.70503864195318
 31
0.0
  0
ARC
  5
44D3
  8
240
  6
CONTINUOUS
 10
46.747603582565397
 20
87.999999999997584
 30
0.0
 40
15.0
 50
261.25000000000028
 51
270.00000000000171
  0
ARC
  5
44D4
  8
240
  6
CONTINUOUS
 10
46.747603582565553
 20
52.00000000000243
 30
0.0
 40
15.0
 50
89.999999999998366
 51
98.749999999999687
  0
LINE
  5
44E1
  8
240
  6
CONTINUOUS
 10
21.795861302717871
 20
80.0
 30
0.0
 11
-21.436590410079869
 21
80.0
 31
0.0
  0
LINE
  5
44E2
  8
240
  6
CONTINUOUS
 10
-21.436590410079869
 20
60.0
 30
0.0
 11
21.795861302717871
 21
60.0
 31
0.0
  0
ARC
  5
44E4
  8
240
  6
CONTINUOUS
 10
21.795861302717871
 20
79.0
 30
0.0
 40
1.0
 50
18.975911916463879
 51
90.0
  0
ARC
  5
44E5
  8
240
  6
CONTINUOUS
 10
21.795861302717871
 20
61.0
 30
0.0
 40
1.0
 50
270.0
 51
341.02408808353613
  0
ARC
  5
44E6
  8
240
  6
CONTINUOUS
 10
-4.3777777777776228
 20
70.0
 30
0.0
 40
28.67777777777761
 50
341.02408808353613
 51
345.80904408683182
  0
ARC
  5
44E7
  8
240
  6
CONTINUOUS
 10
-4.3777777777776228
 20
70.0
 30
0.0
 40
28.67777777777761
 50
14.190955913168191
 51
18.975911916463879
  0
ARC
  5
44EB
  8
240
  6
CONTINUOUS
 10
4.3777777777775659
 20
70.0
 30
0.0
 40
28.67777777777761
 50
161.77463041134371
 51
178.5013924374407
  0
ARC
  5
44EC
  8
240
  6
CONTINUOUS
 10
4.3777777777775659
 20
70.0
 30
0.0
 40
28.67777777777761
 50
181.49860756255919
 51
198.22536958865621
  0
ARC
  5
44ED
  8
240
  6
CONTINUOUS
 10
24.394354695179722
 20
77.275636521002355
 30
0.0
 40
1.0
 50
194.19095591316821
 51
258.35377946504371
  0
ARC
  5
44EE
  8
240
  6
CONTINUOUS
 10
24.394354695179722
 20
62.724363478997631
 30
0.0
 40
1.0
 50
98.749999999999687
 51
165.80904408683179
  0
ARC
  5
4509
  8
240
  6
CONTINUOUS
 10
-21.436590410079869
 20
78.5
 30
0.0
 40
1.5
 50
90.0
 51
161.77463041134371
  0
ARC
  5
450A
  8
240
  6
CONTINUOUS
 10
-21.436590410079869
 20
61.5
 30
0.0
 40
1.5
 50
198.22536958865621
 51
270.0
  0
CIRCLE
  5
4514
  8
241
  6
CONTINUOUS
 10
0.0
 20
0.0
 30
0.0
 40
18.5
  0
ARC
  5
4515
  8
241
  6
CONTINUOUS
 10
132.0
 20
0.0
 30
0.0
 40
4.25
 50
270.0
 51
90.0
  0
ARC
  5
4516
  8
241
  6
CONTINUOUS
 10
128.49999999999989
 20
0.0
 30
0.0
 40
4.25
 50
90.0
 51
270.0
  0
LINE
  5
4517
  8
241
  6
CONTINUOUS
 10
132.0
 20
4.25
 30
0.0
 11
128.49999999999989
 21
4.25
 31
0.0
  0
LINE
  5
4518
  8
241
  6
CONTINUOUS
 10
132.0
 20
-4.25
 30
0.0
 11
128.49999999999989
 21
-4.25
 31
0.0
  0
LINE
  5
4519
  8
241
  6
CONTINUOUS
 10
116.2048093910599
 20
3.7623059655305151
 30
0.0
 11
58.227975142192427
 21
3.2563497981148251
 31
0.0
  0
LINE
  5
451A
  8
241
  6
CONTINUOUS
 10
116.2048093910599
 20
-3.7623059655305719
 30
0.0
 11
58.227975142192427
 21
-3.2563497981149392
 31
0.0
  0
ARC
  5
451B
  8
241
  6
CONTINUOUS
 10
58.256392876360991
 20
-0.0000000000000853
 30
0.0
 40
3.256473794658564
 50
90.500000000001322
 51
269.49999999999869
  0
ARC
  5
451C
  8
241
  6
CONTINUOUS
 10
116.23764253780941
 20
-0.0000000000000568
 30
0.0
 40
3.7624492280684012
 50
269.49999999999869
 51
90.500000000001322
  0
LINE
  5
4617
  8
240
  6
CONTINUOUS
 10
-24.29019107722846
 20
70.75
 30
0.0
 11
-24.29019107722846
 21
69.25
 31
0.0
  0
CIRCLE
  5
4618
  8
246
  6
PHANTOM2
 10
0.0
 20
0.0
 30
0.0
 40
15.0
  0
LINE
  5
4619
  8
246
  6
PHANTOM2
 10
-15.00000000000003
 20
80.0
 30
0.0
 11
-15.00000000000002
 21
60.0
 31
0.0
  0
LINE
  5
461A
  8
246
  6
PHANTOM2
 10
14.99999999999997
 20
80.0
 30
0.0
 11
14.99999999999997
 21
60.0
 31
0.0
  0
TEXT
  5
4713
  8
241
  6
CONTINUOUS
 10
-28.0
 20
105.0
 30
0.0
 40
4.0
  1
MGR30
  7
YOKO
  0
LINE
  5
473B
  8
250
  6
CONTINUOUS
 10
-24.300000000000001
 20
0.5
 30
0.0
 11
-24.300000000000001
 21
42.999999999999957
 31
0.0
  0
LINE
  5
473C
  8
250
  6
CONTINUOUS
 10
140.39999999999989
 20
0.5
 30
0.0
 11
140.39999999999989
 21
42.999999999999957
 31
0.0
  0
LINE
  5
473D
  8
250
  6
CONTINUOUS
 10
-22.07
 20
41.99999999999995
 30
0.0
 11
138.16999999999999
 21
41.99999999999995
 31
0.0
  0
LINE
  5
4741
  8
250
  6
CONTINUOUS
 10
0.0
 20
27.27408077300834
 30
0.0
 11
0.0000000000000006
 21
36.0
 31
0.0
  0
LINE
  5
4742
  8
250
  6
CONTINUOUS
 10
140.39999999999989
 20
0.5
 30
0.0
 11
140.39999999999989
 21
36.0
 31
0.0
  0
LINE
  5
4743
  8
250
  6
CONTINUOUS
 10
2.23
 20
35.0
 30
0.0
 11
138.16999999999999
 21
35.0
 31
0.0
  0
LINE
  5
4747
  8
250
  6
CONTINUOUS
 10
-24.300000000000001
 20
0.5
 30
0.0
 11
-24.300000000000001
 21
36.0
 31
0.0
  0
LINE
  5
4748
  8
250
  6
CONTINUOUS
 10
0.0
 20
27.27408077300834
 30
0.0
 11
0.0000000000000006
 21
36.0
 31
0.0
  0
LINE
  5
4749
  8
250
  6
CONTINUOUS
 10
-22.07
 20
35.0
 30
0.0
 11
-2.2299999999999991
 21
35.0
 31
0.0
  0
LINE
  5
474D
  8
250
  6
CONTINUOUS
 10
-15.00000000000003
 20
80.5
 30
0.0
 11
-15.00000000000003
 21
92.0
 31
0.0
  0
LINE
  5
474E
  8
250
  6
CONTINUOUS
 10
14.99999999999997
 20
80.5
 30
0.0
 11
14.99999999999997
 21
92.0
 31
0.0
  0
LINE
  5
474F
  8
250
  6
CONTINUOUS
 10
-12.77000000000003
 20
91.0
 30
0.0
 11
12.769999999999969
 21
91.0
 31
0.0
  0
TEXT
  5
4753
  8
250
  6
CONTINUOUS
 10
51.850000000000001
 20
42.999999999999957
 30
0.0
 40
2.7999999999999989
  1
164.7
  0
LINE
  5
4754
  8
250
  6
CONTINUOUS
 10
138.16999999999999
 20
42.37166666666662
 30
0.0
 11
140.39999999999989
 21
41.99999999999995
 31
0.0
  0
LINE
  5
4755
  8
250
  6
CONTINUOUS
 10
138.16999999999999
 20
41.628333333333281
 30
0.0
 11
140.39999999999989
 21
41.99999999999995
 31
0.0
  0
LINE
  5
4756
  8
250
  6
CONTINUOUS
 10
140.39999999999989
 20
41.99999999999995
 30
0.0
 11
138.16999999999999
 21
41.99999999999995
 31
0.0
  0
LINE
  5
4757
  8
250
  6
CONTINUOUS
 10
-22.07
 20
41.628333333333281
 30
0.0
 11
-24.300000000000001
 21
41.99999999999995
 31
0.0
  0
LINE
  5
4758
  8
250
  6
CONTINUOUS
 10
-22.07
 20
42.37166666666662
 30
0.0
 11
-24.300000000000001
 21
41.99999999999995
 31
0.0
  0
LINE
  5
4759
  8
250
  6
CONTINUOUS
 10
-24.300000000000001
 20
41.99999999999995
 30
0.0
 11
-22.07
 21
41.99999999999995
 31
0.0
  0
TEXT
  5
475A
  8
250
  6
CONTINUOUS
 10
63.933333333333323
 20
36.0
 30
0.0
 40
2.7999999999999989
  1
140.4
  0
LINE
  5
475B
  8
250
  6
CONTINUOUS
 10
138.16999999999999
 20
35.37166666666667
 30
0.0
 11
140.39999999999989
 21
35.0
 31
0.0
  0
LINE
  5
475C
  8
250
  6
CONTINUOUS
 10
138.16999999999999
 20
34.62833333333333
 30
0.0
 11
140.39999999999989
 21
35.0
 31
0.0
  0
LINE
  5
475D
  8
250
  6
CONTINUOUS
 10
140.39999999999989
 20
35.0
 30
0.0
 11
138.16999999999999
 21
35.0
 31
0.0
  0
LINE
  5
475E
  8
250
  6
CONTINUOUS
 10
2.23
 20
34.62833333333333
 30
0.0
 11
0.0000000000000005
 21
35.0
 31
0.0
  0
LINE
  5
475F
  8
250
  6
CONTINUOUS
 10
2.23
 20
35.37166666666667
 30
0.0
 11
0.0000000000000005
 21
35.0
 31
0.0
  0
LINE
  5
4760
  8
250
  6
CONTINUOUS
 10
0.0000000000000005
 20
35.0
 30
0.0
 11
2.23
 21
35.0
 31
0.0
  0
TEXT
  5
4761
  8
250
  6
CONTINUOUS
 10
-16.816666666666659
 20
36.0
 30
0.0
 40
2.7999999999999989
  1
24.3
  0
LINE
  5
4762
  8
250
  6
CONTINUOUS
 10
-2.2299999999999991
 20
35.37166666666667
 30
0.0
 11
0.0000000000000005
 21
35.0
 31
0.0
  0
LINE
  5
4763
  8
250
  6
CONTINUOUS
 10
-2.2299999999999991
 20
34.62833333333333
 30
0.0
 11
0.0000000000000005
 21
35.0
 31
0.0
  0
LINE
  5
4764
  8
250
  6
CONTINUOUS
 10
0.0000000000000005
 20
35.0
 30
0.0
 11
-2.2299999999999991
 21
35.0
 31
0.0
  0
LINE
  5
4765
  8
250
  6
CONTINUOUS
 10
-22.07
 20
34.62833333333333
 30
0.0
 11
-24.300000000000001
 21
35.0
 31
0.0
  0
LINE
  5
4766
  8
250
  6
CONTINUOUS
 10
-22.07
 20
35.37166666666667
 30
0.0
 11
-24.300000000000001
 21
35.0
 31
0.0
  0
LINE
  5
4767
  8
250
  6
CONTINUOUS
 10
-24.300000000000001
 20
35.0
 30
0.0
 11
-22.07
 21
35.0
 31
0.0
  0
TEXT
  5
4768
  8
250
  6
CONTINUOUS
 10
-3.933333333333362
 20
92.000000000000014
 30
0.0
 40
2.7999999999999989
  1
\U+220530
  0
LINE
  5
4769
  8
250
  6
CONTINUOUS
 10
12.769999999999969
 20
91.37166666666667
 30
0.0
 11
14.99999999999997
 21
91.0
 31
0.0
  0
LINE
  5
476A
  8
250
  6
CONTINUOUS
 10
12.769999999999969
 20
90.62833333333333
 30
0.0
 11
14.99999999999997
 21
91.0
 31
0.0
  0
LINE
  5
476B
  8
250
  6
CONTINUOUS
 10
14.99999999999997
 20
91.0
 30
0.0
 11
12.769999999999969
 21
91.0
 31
0.0
  0
LINE
  5
476C
  8
250
  6
CONTINUOUS
 10
-12.77000000000003
 20
90.62833333333333
 30
0.0
 11
-15.00000000000003
 21
91.0
 31
0.0
  0
LINE
  5
476D
  8
250
  6
CONTINUOUS
 10
-12.77000000000003
 20
91.37166666666667
 30
0.0
 11
-15.00000000000003
 21
91.0
 31
0.0
  0
LINE
  5
476E
  8
250
  6
CONTINUOUS
 10
-15.00000000000003
 20
91.0
 30
0.0
 11
-12.77000000000003
 21
91.0
 31
0.0
  0
VIEWPORT
  5
22
 67
     1
  8
0
 10
261.51769911504419
 20
148.5
 30
0.0
 40
523.0353982300885
 41
297.0
 68
     1
 69
     1
1001
ACAD
1000
MVIEW
1002
{
1070
    16
1010
0.0
1020
0.0
1030
0.0
1010
0.0
1020
0.0
1030
1.0
1040
0.0
1040
297.0
1040
261.51769911504419
1040
148.5
1040
50.0
1040
0.0
1040
0.0
1070
     0
1070
   100
1070
     1
1070
     1
1070
     0
1070
     0
1070
     0
1070
     0
1040
0.0
1040
0.0
1040
0.0
1040
1.0
1040
1.0
1040
10.0
1040
10.0
1070
     0
1002
{
1002
}
1002
}
1001
GENIUS_GENODEF_13
1002
{
1000
HIER
1070
     0
1002
}
1002
{
1000
MANEDIT
1070
     0
1002
}
1002
{
1000
NOSEL
1070
     0
1002
}
1002
{
1000
BEHIND
1070
     0
1002
}
1002
{
1000
OTHER
1070
     0
1002
}
1002
{
1000
REACTOR
1002
}
1001
GENIUS_GENOBJ-N-SDF_13
1002
{
1000
OWNER
1000
GEN
1002
}
1001
GENIUS_GENSCREG_15
1000
PF
1040
1.0
1000
DF
1040
1.0
1000
MIN
1011
0.0
1021
0.0
1031
0.0
1021
0.0
1031
0.0
1000
MAX
1011
523.0353982300885
1021
0.0
1031
0.0
1021
297.0
1031
0.0
1000
FLAGS
1070
     4
  0
ENDSEC
  0
EOF
