  0
SECTION
  2
HEADER
  9
$ACADVER
  1
AC1009
  9
$INSBASE
 10
0.0
 20
0.0
 30
0.0
  9
$EXTMIN
 10
-22.837879390041959
 20
-22.326506207169992
 30
0.0
  9
$EXTMAX
 10
101.5574812978124
 20
102.0
 30
0.0
  9
$LIMMIN
 10
0.0
 20
0.0
  9
$LIMMAX
 10
297.0
 20
210.0
  9
$ORTHOMODE
 70
     0
  9
$REGENMODE
 70
     1
  9
$FILLMODE
 70
     1
  9
$QTEXTMODE
 70
     0
  9
$MIRRTEXT
 70
     1
  9
$DRAGMODE
 70
     2
  9
$LTSCALE
 40
10.0
  9
$OSMODE
 70
    37
  9
$ATTMODE
 70
     1
  9
$TEXTSIZE
 40
3.0
  9
$TRACEWID
 40
1.0
  9
$TEXTSTYLE
  7
YOKO
  9
$CLAYER
  8
0
  9
$CELTYPE
  6
BYLAYER
  9
$CECOLOR
 62
   256
  9
$DIMSCALE
 40
1.0
  9
$DIMASZ
 40
2.2299999999999991
  9
$DIMEXO
 40
0.5
  9
$DIMDLI
 40
7.0
  9
$DIMRND
 40
0.0
  9
$DIMDLE
 40
0.0
  9
$DIMEXE
 40
1.0
  9
$DIMTP
 40
0.0
  9
$DIMTM
 40
0.01
  9
$DIMTXT
 40
2.7999999999999989
  9
$DIMCEN
 40
0.0
  9
$DIMTSZ
 40
0.0
  9
$DIMTOL
 70
     0
  9
$DIMLIM
 70
     0
  9
$DIMTIH
 70
     0
  9
$DIMTOH
 70
     0
  9
$DIMSE1
 70
     0
  9
$DIMSE2
 70
     0
  9
$DIMTAD
 70
     3
  9
$DIMZIN
 70
     9
  9
$DIMBLK
  1
OPEN
  9
$DIMASO
 70
     1
  9
$DIMSHO
 70
     1
  9
$DIMPOST
  1

  9
$DIMAPOST
  1

  9
$DIMALT
 70
     0
  9
$DIMALTD
 70
     2
  9
$DIMALTF
 40
25.399999999999999
  9
$DIMLFAC
 40
1.0
  9
$DIMTOFL
 70
     1
  9
$DIMTVP
 40
0.0
  9
$DIMTIX
 70
     1
  9
$DIMSOXD
 70
     0
  9
$DIMSAH
 70
     0
  9
$DIMBLK1
  1

  9
$DIMBLK2
  1

  9
$DIMSTYLE
  2
BIGT
  9
$DIMCLRD
 70
   256
  9
$DIMCLRE
 70
   256
  9
$DIMCLRT
 70
    40
  9
$DIMTFAC
 40
1.0
  9
$DIMGAP
 40
1.0
  9
$LUNITS
 70
     2
  9
$LUPREC
 70
     6
  9
$SKETCHINC
 40
1.0
  9
$FILLETRAD
 40
0.0
  9
$AUNITS
 70
     0
  9
$AUPREC
 70
     6
  9
$MENU
  1
.
  9
$ELEVATION
 40
0.0
  9
$PELEVATION
 40
0.0
  9
$THICKNESS
 40
0.0
  9
$LIMCHECK
 70
     0
  9
$BLIPMODE
 70
     0
  9
$CHAMFERA
 40
0.2
  9
$CHAMFERB
 40
0.2
  9
$SKPOLY
 70
     0
  9
$TDCREATE
 40
2459494.5280380561
  9
$TDUPDATE
 40
2459494.5348189119
  9
$TDINDWG
 40
0.0067239699
  9
$TDUSRTIMER
 40
0.0067239352
  9
$USRTIMER
 70
     1
  9
$ANGBASE
 50
0.0
  9
$ANGDIR
 70
     0
  9
$PDMODE
 70
     1
  9
$PDSIZE
 40
0.0
  9
$PLINEWID
 40
0.0
  9
$COORDS
 70
     1
  9
$SPLFRAME
 70
     0
  9
$SPLINETYPE
 70
     6
  9
$SPLINESEGS
 70
     4
  9
$ATTDIA
 70
     1
  9
$ATTREQ
 70
     1
  9
$HANDLING
 70
     1
  9
$HANDSEED
  5
46BD
  9
$SURFTAB1
 70
     6
  9
$SURFTAB2
 70
     6
  9
$SURFTYPE
 70
     6
  9
$SURFU
 70
     6
  9
$SURFV
 70
     6
  9
$UCSNAME
  2

  9
$UCSORG
 10
0.0
 20
0.0
 30
0.0
  9
$UCSXDIR
 10
1.0
 20
0.0
 30
0.0
  9
$UCSYDIR
 10
0.0
 20
1.0
 30
0.0
  9
$PUCSNAME
  2

  9
$PUCSORG
 10
0.0
 20
0.0
 30
0.0
  9
$PUCSXDIR
 10
1.0
 20
0.0
 30
0.0
  9
$PUCSYDIR
 10
0.0
 20
1.0
 30
0.0
  9
$USERI1
 70
     1
  9
$USERI2
 70
     0
  9
$USERI3
 70
     0
  9
$USERI4
 70
     0
  9
$USERI5
 70
     0
  9
$USERR1
 40
0.0
  9
$USERR2
 40
0.0
  9
$USERR3
 40
0.0
  9
$USERR4
 40
0.0
  9
$USERR5
 40
0.0
  9
$WORLDVIEW
 70
     1
  9
$SHADEDGE
 70
     3
  9
$SHADEDIF
 70
    70
  9
$TILEMODE
 70
     1
  9
$MAXACTVP
 70
    16
  9
$PLIMCHECK
 70
     0
  9
$PEXTMIN
 10
1.0000000000000000E+020
 20
1.0000000000000000E+020
 30
1.0000000000000000E+020
  9
$PEXTMAX
 10
-1.0000000000000000E+020
 20
-1.0000000000000000E+020
 30
-1.0000000000000000E+020
  9
$PLIMMIN
 10
0.0
 20
0.0
  9
$PLIMMAX
 10
420.0
 20
297.0
  9
$UNITMODE
 70
     0
  9
$VISRETAIN
 70
     1
  9
$PLINEGEN
 70
     0
  9
$PSLTSCALE
 70
     1
  0
ENDSEC
  0
SECTION
  2
TABLES
  0
TABLE
  2
VPORT
 70
     1
  0
VPORT
  2
*ACTIVE
 70
     0
 10
0.0
 20
0.0
 11
1.0
 21
1.0
 12
79.052235060245835
 22
42.312002930159728
 13
0.0
 23
0.0
 14
7.0
 24
7.0
 15
7.0
 25
7.0
 16
0.0
 26
0.0
 36
1.0
 17
0.0
 27
0.0
 37
0.0
 40
249.31054758171979
 41
1.758883248730964
 42
50.0
 43
0.0
 44
0.0
 50
0.0
 51
0.0
 71
     0
 72
  2000
 73
     1
 74
     0
 75
     1
 76
     1
 77
     0
 78
     0
  0
ENDTAB
  0
TABLE
  2
LTYPE
 70
    13
  0
LTYPE
  2
CONTINUOUS
 70
     0
  3
Solid line
 72
    65
 73
     0
 40
0.0
  0
LTYPE
  2
CENTER2
 70
     0
  3
___ _ ___ _ ___ _ ___ _ ___ _ ___ _ ___ _ ___ _
 72
    65
 73
     4
 40
1.125
 49
0.75
 49
-0.125
 49
0.125
 49
-0.125
  0
LTYPE
  2
HIDDEN2
 70
     0
  3
_ _ _ _ _ _ _ _ _ _ _ _ _ _ _ _ _ _ _ _ _ _ _ _
 72
    65
 73
     2
 40
0.1875
 49
0.125
 49
-0.0625
  0
LTYPE
  2
PHANTOM2
 70
     0
  3
___ _ _ ___ _ _ ___ _ _ ___ _ _ ___ _ _ ___ _ _
 72
    65
 73
     6
 40
1.25
 49
0.625
 49
-0.125
 49
0.125
 49
-0.125
 49
0.125
 49
-0.125
  0
LTYPE
  2
AM_ISO02W050
 70
     0
  3
__ __ __ __ __ __ __ __ __ __ __ __ __ __ __
 72
    65
 73
     2
 40
7.5
 49
6.0
 49
-1.5
  0
LTYPE
  2
AMCONSTR
 70
     0
  3
_______________________
 72
    65
 73
     2
 40
9999.0
 49
9999.0
 49
0.0
  0
LTYPE
  2
ACISOWELD
 70
     0
  3
_ _ _ _ _
 72
    65
 73
     2
 40
2.0
 49
2.0
 49
-1.0
  0
LTYPE
  2
ACISOTGB
 70
     0
  3
__ . . __ . .
 72
    65
 73
     6
 40
9.0
 49
4.0
 49
-1.0
 49
1.0
 49
-1.0
 49
1.0
 49
-1.0
  0
LTYPE
  2
ACISOTGL
 70
     0
  3
_ _ _ _ _
 72
    65
 73
     2
 40
3.0
 49
2.0
 49
-1.0
  0
LTYPE
  2
ACJISTGB
 70
     0
  3
__ . . __ . .
 72
    65
 73
     6
 40
9.0
 49
4.0
 49
-1.0
 49
1.0
 49
-1.0
 49
1.0
 49
-1.0
  0
LTYPE
  2
ACJISTGL
 70
     0
  3
_ _ _ _ _
 72
    65
 73
     2
 40
3.0
 49
2.0
 49
-1.0
  0
ENDTAB
  0
TABLE
  2
LAYER
 70
     7
  0
LAYER
  2
0
 70
     0
 62
     7
  6
CONTINUOUS
  0
LAYER
  2
DEFPOINTS
 70
     0
 62
     7
  6
CONTINUOUS
  0
LAYER
  2
245
 70
     0
 62
     2
  6
CENTER2
  0
LAYER
  2
240
 70
     0
 62
     4
  6
CONTINUOUS
  0
LAYER
  2
241
 70
     0
 62
   211
  6
CONTINUOUS
  0
LAYER
  2
246
 70
     0
 62
     3
  6
PHANTOM2
  0
LAYER
  2
250
 70
     0
 62
     3
  6
CONTINUOUS
  0
ENDTAB
  0
TABLE
  2
STYLE
 70
     6
  0
STYLE
  2
STANDARD
 70
     0
 40
0.0
 41
1.0
 50
0.0
 71
     0
 42
3.0
  3
romans.shx
  4
extfont.shx
  0
STYLE
  2
ACISOTS
 70
     0
 40
1.0
 41
1.0
 50
0.0
 71
     0
 42
3.0
  3
amgdt.shx
  4
extfont.shx
  0
STYLE
  2
ACISOGDT
 70
     0
 40
0.0
 41
1.0
 50
0.0
 71
     0
 42
3.0
  3
amgdt.shx
  4
extfont.shx
  0
STYLE
  2
ACJISTS
 70
     0
 40
1.0
 41
1.0
 50
0.0
 71
     0
 42
3.0
  3
amgdt.shx
  4
extfont.shx
  0
STYLE
  2
ACJISGDT
 70
     0
 40
0.0
 41
1.0
 50
0.0
 71
     0
 42
3.0
  3
amgdt.shx
  4
extfont.shx
  0
STYLE
  2
YOKO
 70
     0
 40
0.0
 41
1.0
 50
0.0
 71
     0
 42
3.0
  3
romans.shx
  4
extfont.shx
  0
ENDTAB
  0
TABLE
  2
VIEW
 70
     0
  0
ENDTAB
  0
TABLE
  2
UCS
 70
     0
  0
ENDTAB
  0
TABLE
  2
APPID
 70
    36
  0
APPID
  2
ACAD
 70
     0
  0
APPID
  2
GLOBAL
 70
     0
  0
APPID
  2
DETAIL
 70
     0
  0
APPID
  2
GRPNAME
 70
     0
  0
APPID
  2
GPARA
 70
     0
  0
APPID
  2
MCAD_NO_VIS
 70
     0
  0
APPID
  2
ACAD_TEMP_GRAPHIC
 70
     0
  0
APPID
  2
ACATTRIBSERVICES
 70
     0
  0
APPID
  2
GENIUS_GENSCREG_15
 70
     0
  0
APPID
  2
GENIUS_GENODEF_13
 70
     0
  0
APPID
  2
GENIUS_GENOBJ-N-SDF_13
 70
     0
  0
APPID
  2
GENIUS_GENREC_14
 70
     0
  0
APPID
  2
GENIUS_GENOBJ-N-REC_13
 70
     0
  0
APPID
  2
GENIUS_GENDIMSH_14
 70
     0
  0
APPID
  2
GENIUS_GENOBJ-N-DIM_13
 70
     0
  0
APPID
  2
GENIUS_GENDIM_13
 70
     0
  0
APPID
  2
GENIUS_GENDTOL_13
 70
     0
  0
APPID
  2
GENIUS_GENOLIS_13
 70
     0
  0
APPID
  2
GENIUS_GENOENT_13
 70
     0
  0
APPID
  2
GENIUS_GENOBJ-F-FEM_13
 70
     0
  0
APPID
  2
GENIUS_GENOREF_13
 70
     0
  0
APPID
  2
GENIUS_GEFFEM_13
 70
     0
  0
APPID
  2
GENIUS_GEFFEMP_13
 70
     0
  0
APPID
  2
AD_DRAW
 70
     0
  0
APPID
  2
DESIGNERASSEMBLIES
 70
     0
  0
APPID
  2
ACADM_DIM_EDIT
 70
     0
  0
APPID
  2
AMDT_DM_ADJ
 70
     0
  0
APPID
  2
ITEMNAME
 70
     0
  0
APPID
  2
GENIUS_GENOBJ-N-FIL_13
 70
     0
  0
APPID
  2
GENIUS_GENFIL_13
 70
     0
  0
APPID
  2
GENIUS_GENOBJ-N-CHA_13
 70
     0
  0
APPID
  2
ACAD_NAV_VCDISPLAY
 70
     0
  0
APPID
  2
ACAECLAYERSTANDARD
 70
     0
  0
APPID
  2
ACAD_EXEMPT_FROM_CAD_STANDARDS
 70
     0
  0
APPID
  2
ACAD_DSTYLE_DIMINSPECT
 70
     0
  0
APPID
  2
ACAD_MLEADERVER
 70
     0
  0
ENDTAB
  0
TABLE
  2
DIMSTYLE
 70
    23
  0
DIMSTYLE
  2
BIGT
 70
     0
  3

  4

  5
OPEN
  6

  7

 40
1.0
 41
2.2299999999999991
 42
0.5
 43
7.0
 44
1.0
 45
0.0
 46
0.0
 47
0.0
 48
0.01
140
2.7999999999999989
141
0.0
142
0.0
143
25.399999999999999
144
1.0
145
0.0
146
1.0
147
1.0
 71
     0
 72
     0
 73
     0
 74
     0
 75
     0
 76
     0
 77
     3
 78
     9
170
     0
171
     2
172
     1
173
     0
174
     1
175
     0
176
   256
177
   256
178
    40
  0
DIMSTYLE
  2
AM_ISO
 70
     0
  3

  4
"
  5

  6

  7

 40
1.0
 41
2.5
 42
1.0
 43
10.0
 44
1.0
 45
0.0
 46
0.0
 47
0.1
 48
0.1
140
3.5
141
0.0
142
0.0
143
0.0393701
144
1.0
145
0.0
146
0.71
147
1.5
 71
     0
 72
     0
 73
     0
 74
     0
 75
     0
 76
     0
 77
     1
 78
     8
170
     0
171
     2
172
     1
173
     0
174
     0
175
     0
176
   256
177
   256
178
     2
  0
DIMSTYLE
  2
AM_ISO$3
 70
     0
  3

  4
"
  5

  6

  7

 40
1.0
 41
2.5
 42
1.0
 43
10.0
 44
1.0
 45
0.0
 46
0.0
 47
0.1
 48
0.1
140
3.5
141
0.0
142
0.0
143
0.0393701
144
1.0
145
0.0
146
0.71
147
1.5
 71
     0
 72
     0
 73
     0
 74
     1
 75
     0
 76
     0
 77
     1
 78
     8
170
     0
171
     2
172
     0
173
     0
174
     0
175
     0
176
   256
177
   256
178
     2
  0
DIMSTYLE
  2
AM_ISO$4
 70
     0
  3

  4
"
  5

  6

  7

 40
1.0
 41
2.5
 42
1.0
 43
10.0
 44
1.0
 45
0.0
 46
0.0
 47
0.1
 48
0.1
140
3.5
141
0.0
142
0.0
143
0.0393701
144
1.0
145
0.0
146
0.71
147
1.5
 71
     0
 72
     0
 73
     0
 74
     1
 75
     0
 76
     0
 77
     1
 78
     8
170
     0
171
     2
172
     0
173
     0
174
     0
175
     0
176
   256
177
   256
178
     2
  0
DIMSTYLE
  2
AM_ISO$6
 70
     0
  3

  4
"
  5

  6

  7

 40
1.0
 41
2.5
 42
1.0
 43
10.0
 44
1.0
 45
0.0
 46
0.0
 47
0.1
 48
0.1
140
3.5
141
0.0
142
0.0
143
0.0393701
144
1.0
145
0.0
146
0.71
147
1.5
 71
     0
 72
     0
 73
     0
 74
     0
 75
     0
 76
     0
 77
     0
 78
     8
170
     0
171
     2
172
     1
173
     0
174
     0
175
     0
176
   256
177
   256
178
     2
  0
DIMSTYLE
  2
AM_ISO$7
 70
     0
  3

  4
"
  5

  6

  7

 40
1.0
 41
2.5
 42
1.0
 43
10.0
 44
1.0
 45
0.0
 46
0.0
 47
0.1
 48
0.1
140
5.0
141
0.0
142
0.0
143
0.0393701
144
1.0
145
0.0
146
0.71
147
1.5
 71
     0
 72
     0
 73
     0
 74
     0
 75
     0
 76
     0
 77
     1
 78
     8
170
     0
171
     2
172
     1
173
     0
174
     0
175
     0
176
   256
177
   256
178
     2
  0
DIMSTYLE
  2
AM_ISO$SF
 70
     0
  3

  4
"
  5

  6

  7

 40
1.0
 41
2.5
 42
1.0
 43
10.0
 44
1.0
 45
0.0
 46
0.0
 47
0.1
 48
0.1
140
3.5
141
0.0
142
0.0
143
0.0393701
144
1.0
145
0.0
146
0.71
147
1.5
 71
     0
 72
     0
 73
     0
 74
     0
 75
     1
 76
     1
 77
     1
 78
     8
170
     0
171
     2
172
     1
173
     0
174
     0
175
     0
176
   256
177
   256
178
     2
  0
DIMSTYLE
  2
AM_ISO$SH
 70
     0
  3

  4
"
  5

  6
GENAXEH
  7

 40
1.0
 41
2.5
 42
1.0
 43
10.0
 44
1.0
 45
0.0
 46
0.0
 47
0.1
 48
0.1
140
3.5
141
0.0
142
0.0
143
0.0393701
144
2.0
145
0.0
146
0.71
147
1.5
 71
     0
 72
     0
 73
     0
 74
     0
 75
     1
 76
     1
 77
     1
 78
     8
170
     0
171
     2
172
     1
173
     1
174
     0
175
     0
176
   256
177
   256
178
     2
  0
DIMSTYLE
  2
BIGT$2
 70
     0
  3

  4

  5
OPEN
  6

  7

 40
1.0
 41
2.2299999999999991
 42
0.5
 43
7.0
 44
1.0
 45
0.0
 46
0.0
 47
0.0
 48
0.01
140
2.7999999999999989
141
0.0
142
0.0
143
25.399999999999999
144
1.0
145
0.0
146
1.0
147
1.0
 71
     0
 72
     0
 73
     0
 74
     0
 75
     0
 76
     0
 77
     3
 78
     9
170
     0
171
     2
172
     1
173
     0
174
     0
175
     0
176
   256
177
   256
178
    40
  0
DIMSTYLE
  2
BIGT$3
 70
     0
  3

  4

  5
OPEN
  6

  7

 40
1.0
 41
2.2299999999999991
 42
0.5
 43
2.5
 44
1.0
 45
0.0
 46
0.0
 47
0.0
 48
0.01
140
2.7999999999999989
141
0.0
142
0.0
143
25.399999999999999
144
1.0
145
0.0
146
1.0
147
1.0
 71
     0
 72
     0
 73
     0
 74
     0
 75
     0
 76
     0
 77
     3
 78
     9
170
     0
171
     2
172
     1
173
     0
174
     0
175
     0
176
   256
177
   256
178
    40
  0
DIMSTYLE
  2
BIGT$7
 70
     0
  3

  4

  5
OPEN
  6

  7

 40
0.0
 41
2.2299999999999991
 42
0.5
 43
7.0
 44
1.0
 45
0.0
 46
0.0
 47
0.0
 48
0.01
140
2.7999999999999989
141
0.0
142
0.0
143
25.399999999999999
144
1.0
145
0.0
146
1.0
147
1.0
 71
     0
 72
     0
 73
     0
 74
     0
 75
     0
 76
     0
 77
     3
 78
     9
170
     0
171
     2
172
     0
173
     0
174
     0
175
     0
176
   256
177
   256
178
    40
  0
DIMSTYLE
  2
BIGT$6
 70
     0
  3

  4

  5
OPEN
  6

  7

 40
1.0
 41
2.2299999999999991
 42
0.5
 43
2.5
 44
1.0
 45
0.0
 46
0.0
 47
0.0
 48
0.01
140
2.7999999999999989
141
0.0
142
0.0
143
25.399999999999999
144
1.0
145
0.0
146
1.0
147
1.0
 71
     0
 72
     0
 73
     0
 74
     0
 75
     0
 76
     0
 77
     3
 78
     9
170
     0
171
     2
172
     1
173
     0
174
     0
175
     0
176
   256
177
   256
178
    40
  0
DIMSTYLE
  2
BIGT$0
 70
     0
  3

  4

  5
OPEN
  6

  7

 40
1.0
 41
2.2299999999999991
 42
0.5
 43
7.0
 44
1.0
 45
0.0
 46
0.0
 47
0.0
 48
0.01
140
2.7999999999999989
141
0.0
142
0.0
143
25.399999999999999
144
1.0
145
0.0
146
1.0
147
1.0
 71
     0
 72
     0
 73
     0
 74
     0
 75
     0
 76
     0
 77
     3
 78
     9
170
     0
171
     2
172
     1
173
     0
174
     1
175
     0
176
   256
177
   256
178
    40
  0
DIMSTYLE
  2
BIGT$4
 70
     0
  3

  4

  5
OPEN
  6

  7

 40
1.0
 41
2.2299999999999991
 42
0.5
 43
2.5
 44
1.0
 45
0.0
 46
0.0
 47
0.0
 48
0.01
140
2.7999999999999989
141
0.0
142
0.0
143
25.399999999999999
144
1.0
145
0.0
146
1.0
147
1.0
 71
     0
 72
     0
 73
     0
 74
     0
 75
     0
 76
     0
 77
     3
 78
     9
170
     0
171
     2
172
     1
173
     0
174
     0
175
     0
176
   256
177
   256
178
    40
  0
DIMSTYLE
  2
BIGT$SH
 70
     0
  3

  4

  5
OPEN
  6

  7

 40
1.0
 41
2.2299999999999991
 42
0.5
 43
7.0
 44
1.0
 45
0.0
 46
0.0
 47
0.0
 48
0.0
140
2.7999999999999989
141
0.0
142
0.0
143
25.399999999999999
144
1.0
145
0.0
146
1.0
147
1.0
 71
     0
 72
     0
 73
     0
 74
     0
 75
     0
 76
     0
 77
     3
 78
     9
170
     0
171
     2
172
     1
173
     0
174
     0
175
     0
176
   256
177
   256
178
    40
  0
DIMSTYLE
  2
BIGT$SF
 70
     0
  3

  4

  5
OPEN
  6

  7

 40
1.0
 41
2.2299999999999991
 42
0.5
 43
7.0
 44
1.0
 45
0.0
 46
0.0
 47
0.0
 48
0.0
140
2.7999999999999989
141
0.0
142
0.0
143
25.399999999999999
144
1.0
145
0.0
146
1.0
147
1.0
 71
     0
 72
     0
 73
     0
 74
     0
 75
     0
 76
     0
 77
     3
 78
     9
170
     0
171
     2
172
     1
173
     0
174
     0
175
     0
176
   256
177
   256
178
    40
  0
DIMSTYLE
  2
TECHNICAL_OSAKA
 70
     0
  3

  4
"
  5
OPEN30
  6

  7

 40
1.0
 41
2.5
 42
1.0
 43
10.0
 44
1.0
 45
0.0
 46
0.0
 47
0.1
 48
0.1
140
2.7999999999999989
141
0.0
142
0.0
143
0.0393701
144
1.0
145
0.0
146
0.71
147
1.5
 71
     0
 72
     0
 73
     0
 74
     0
 75
     0
 76
     0
 77
     3
 78
     8
170
     0
171
     2
172
     1
173
     0
174
     0
175
     0
176
   256
177
   256
178
    40
  0
DIMSTYLE
  2
TECHNICAL_OSAKA$3
 70
     0
  3

  4
"
  5
OPEN30
  6

  7

 40
1.0
 41
2.5
 42
1.0
 43
10.0
 44
1.0
 45
0.0
 46
0.0
 47
0.1
 48
0.1
140
2.7999999999999989
141
0.0
142
0.0
143
0.0393701
144
1.0
145
0.0
146
0.71
147
1.5
 71
     0
 72
     0
 73
     0
 74
     1
 75
     0
 76
     0
 77
     3
 78
     8
170
     0
171
     2
172
     0
173
     0
174
     0
175
     0
176
   256
177
   256
178
    40
  0
DIMSTYLE
  2
TECHNICAL_OSAKA$4
 70
     0
  3

  4
"
  5
OPEN30
  6

  7

 40
1.0
 41
2.5
 42
1.0
 43
10.0
 44
1.0
 45
0.0
 46
0.0
 47
0.1
 48
0.1
140
2.7999999999999989
141
0.0
142
0.0
143
0.0393701
144
1.0
145
0.0
146
0.71
147
1.5
 71
     0
 72
     0
 73
     0
 74
     1
 75
     0
 76
     0
 77
     3
 78
     8
170
     0
171
     2
172
     0
173
     0
174
     0
175
     0
176
   256
177
   256
178
    40
  0
DIMSTYLE
  2
TECHNICAL_OSAKA$6
 70
     0
  3

  4
"
  5
OPEN30
  6

  7

 40
1.0
 41
2.5
 42
1.0
 43
10.0
 44
1.0
 45
0.0
 46
0.0
 47
0.1
 48
0.1
140
2.7999999999999989
141
0.0
142
0.0
143
0.0393701
144
1.0
145
0.0
146
0.71
147
1.5
 71
     0
 72
     0
 73
     0
 74
     0
 75
     0
 76
     0
 77
     0
 78
     8
170
     0
171
     2
172
     1
173
     0
174
     0
175
     0
176
   256
177
   256
178
    40
  0
DIMSTYLE
  2
TECHNICAL_OSAKA$7
 70
     0
  3

  4
"
  5
OPEN30
  6

  7

 40
1.0
 41
2.5
 42
1.0
 43
10.0
 44
1.0
 45
0.0
 46
0.0
 47
0.1
 48
0.1
140
2.7999999999999989
141
0.0
142
0.0
143
0.0393701
144
1.0
145
0.0
146
0.71
147
1.5
 71
     0
 72
     0
 73
     0
 74
     0
 75
     0
 76
     0
 77
     3
 78
     8
170
     0
171
     2
172
     1
173
     0
174
     0
175
     0
176
   256
177
   256
178
    40
  0
DIMSTYLE
  2
TECHNICAL_OSAKA$SF
 70
     0
  3

  4
"
  5
OPEN30
  6
OPEN30
  7
OPEN30
 40
1.0
 41
2.5
 42
1.0
 43
10.0
 44
1.0
 45
0.0
 46
0.0
 47
0.1
 48
0.1
140
3.5
141
0.0
142
0.0
143
0.0393701
144
1.0
145
0.0
146
0.71
147
1.5
 71
     0
 72
     0
 73
     0
 74
     0
 75
     1
 76
     1
 77
     3
 78
     8
170
     0
171
     2
172
     1
173
     0
174
     0
175
     0
176
   256
177
   256
178
    40
  0
DIMSTYLE
  2
TECHNICAL_OSAKA$SH
 70
     0
  3

  4
"
  5
OPEN30
  6
GENAXEH
  7
OPEN30
 40
1.0
 41
2.5
 42
1.0
 43
10.0
 44
1.0
 45
0.0
 46
0.0
 47
0.1
 48
0.1
140
3.5
141
0.0
142
0.0
143
0.0393701
144
2.0
145
0.0
146
0.71
147
1.5
 71
     0
 72
     0
 73
     0
 74
     0
 75
     1
 76
     1
 77
     3
 78
     8
170
     0
171
     2
172
     1
173
     1
174
     0
175
     0
176
   256
177
   256
178
    40
  0
ENDTAB
  0
ENDSEC
  0
SECTION
  2
BLOCKS
  0
BLOCK
  8
0
  2
$MODEL_SPACE
 70
     0
 10
0.0
 20
0.0
 30
0.0
  3
$MODEL_SPACE
  1

  0
ENDBLK
  5
1C
  8
0
  0
BLOCK
 67
     1
  8
0
  2
$PAPER_SPACE
 70
     0
 10
0.0
 20
0.0
 30
0.0
  3
$PAPER_SPACE
  1

  0
ENDBLK
  5
19
 67
     1
  8
0
  0
BLOCK
  8
0
  2
_OPEN
 70
     0
 10
0.0
 20
0.0
 30
0.0
  3
_OPEN
  1

  0
LINE
  5
45C4
  8
0
  6
BYBLOCK
 62
     0
 10
-1.0
 20
0.1666666666666666
 30
0.0
 11
0.0
 21
0.0
 31
0.0
  0
LINE
  5
45C5
  8
0
  6
BYBLOCK
 62
     0
 10
-1.0
 20
-0.1666666666666666
 30
0.0
 11
0.0
 21
0.0
 31
0.0
  0
LINE
  5
45C6
  8
0
  6
BYBLOCK
 62
     0
 10
0.0
 20
0.0
 30
0.0
 11
-1.0
 21
0.0
 31
0.0
  0
ENDBLK
  5
45C7
  8
0
  0
BLOCK
  8
0
  2
GENAXEH
 70
     0
 10
0.0
 20
0.0
 30
0.0
  3
GENAXEH
  1

  0
LINE
  5
45FF
  8
0
 10
-1.0
 20
0.0
 30
0.0
 11
1.0
 21
0.0
 31
0.0
  0
ENDBLK
  5
4600
  8
0
  0
BLOCK
  8
0
  2
_OPEN30
 70
     0
 10
0.0
 20
0.0
 30
0.0
  3
_OPEN30
  1

  0
LINE
  5
463B
  8
0
  6
BYBLOCK
 62
     0
 10
-1.0
 20
0.26794919
 30
0.0
 11
0.0
 21
0.0
 31
0.0
  0
LINE
  5
463C
  8
0
  6
BYBLOCK
 62
     0
 10
0.0
 20
0.0
 30
0.0
 11
-1.0
 21
-0.26794919
 31
0.0
  0
LINE
  5
463D
  8
0
  6
BYBLOCK
 62
     0
 10
0.0
 20
0.0
 30
0.0
 11
-1.0
 21
0.0
 31
0.0
  0
ENDBLK
  5
463E
  8
0
  0
ENDSEC
  0
SECTION
  2
ENTITIES
  0
LINE
  5
42C9
  8
245
  6
CENTER2
 10
101.39999999999991
 20
-0.0000000000000284
 30
0.0
 11
-22.399873800151632
 21
0.0
 31
0.0
  0
ARC
  5
42CA
  8
240
  6
CONTINUOUS
 10
45.231303929309888
 20
51.480741739179727
 30
0.0
 40
45.0
 50
254.99999999999881
 51
270.49999999999801
  0
ARC
  5
42CB
  8
240
  6
CONTINUOUS
 10
45.231303929310002
 20
-51.480741739179869
 30
0.0
 40
45.0
 50
89.500000000001918
 51
105.00000000000109
  0
LINE
  5
42CC
  8
245
  6
CENTER2
 10
0.0
 20
22.47349379283003
 30
0.0
 11
0.0
 21
-22.326506207169992
 31
0.0
  0
CIRCLE
  5
42CD
  8
241
  6
CONTINUOUS
 10
0.0
 20
-0.0000000000000284
 30
0.0
 40
19.5
  0
ARC
  5
42CE
  8
240
  6
CONTINUOUS
 10
0.0
 20
0.0734937928300212
 30
0.0
 40
21.399999999999999
 50
52.537709127796496
 51
307.13944000231118
  0
ARC
  5
42CF
  8
241
  6
CONTINUOUS
 10
0.0
 20
0.0734937928300212
 30
0.0
 40
21.399999999999999
 50
328.12934018358209
 51
32.144956890073608
  0
LINE
  5
42D0
  8
240
  6
CONTINUOUS
 10
33.5844468996969
 20
-8.0140795561717084
 30
0.0
 11
28.4425990047319
 21
-9.3918335472312151
 31
0.0
  0
ARC
  5
42D1
  8
240
  6
CONTINUOUS
 10
40.089456034344948
 20
-52.858495730239348
 30
0.0
 40
45.0
 50
105.00000000000109
 51
127.1394400023112
  0
ARC
  5
42D2
  8
240
  6
CONTINUOUS
 10
40.38707975516899
 20
52.778747694596063
 30
0.0
 40
45.0
 50
232.53770912779649
 51
254.99999999999881
  0
LINE
  5
42D3
  8
241
  6
CONTINUOUS
 10
25.14922665783746
 20
7.6183241478751986
 30
0.0
 11
23.729054875292029
 21
6.4411978268693701
 31
0.0
  0
LINE
  5
42D4
  8
241
  6
CONTINUOUS
 10
24.189637459728431
 20
1.472764127509719
 30
0.0
 11
23.633775571694631
 21
1.472764127509719
 31
0.0
  0
LINE
  5
42D5
  8
241
  6
CONTINUOUS
 10
22.406194591707159
 20
5.2955430488947002
 30
0.0
 11
25.43816684533061
 21
5.2955430488947002
 31
0.0
  0
LINE
  5
42D6
  8
241
  6
CONTINUOUS
 10
23.633775571694631
 20
1.0145529097643751
 30
0.0
 11
24.189637459728431
 21
1.0145529097643751
 31
0.0
  0
LINE
  5
42D7
  8
241
  6
CONTINUOUS
 10
24.182917183487351
 20
-1.2724455260560881
 30
0.0
 11
23.627055295453552
 21
-1.2724455260560881
 31
0.0
  0
LINE
  5
42D8
  8
241
  6
CONTINUOUS
 10
23.627055295453552
 20
-2.8507285797660691
 30
0.0
 11
24.182917183487351
 21
-2.8507285797660691
 31
0.0
  0
LINE
  5
42D9
  8
241
  6
CONTINUOUS
 10
23.627055295453552
 20
-3.3089397086067431
 30
0.0
 11
24.182917183487351
 21
-3.3089397086067431
 31
0.0
  0
LINE
  5
42DA
  8
241
  6
CONTINUOUS
 10
24.98337036717351
 20
-7.1742211092351047
 30
0.0
 11
22.406194591707159
 21
-7.1742211092351624
 31
0.0
  0
LINE
  5
42DB
  8
241
  6
CONTINUOUS
 10
22.406194591707159
 20
-7.6324322380757499
 30
0.0
 11
25.43816684533061
 21
-7.6324322380757224
 31
0.0
  0
LINE
  5
42DC
  8
241
  6
CONTINUOUS
 10
24.182917183487351
 20
-0.8142343083107448
 30
0.0
 11
23.627055295453552
 21
-0.8142343083107448
 31
0.0
  0
ARC
  5
42DD
  8
241
  6
CONTINUOUS
 10
23.637529499314951
 20
-2.0617125029363019
 30
0.0
 40
1.247522166140846
 50
90.481061372952468
 51
269.51893862704748
  0
ARC
  5
42DE
  8
241
  6
CONTINUOUS
 10
23.633773460351222
 20
-2.0615870529078961
 30
0.0
 40
0.7891701230733755
 50
90.487761932246002
 51
269.51223806775403
  0
LINE
  5
42DF
  8
241
  6
CONTINUOUS
 10
22.406194591707159
 20
-7.1742211092351624
 30
0.0
 11
22.406194591707159
 21
-7.6324322380757499
 31
0.0
  0
LINE
  5
42E0
  8
241
  6
CONTINUOUS
 10
23.431053002437292
 20
3.0241577850388519
 30
0.0
 11
23.313343215286238
 21
3.4667558308127862
 31
0.0
  0
ARC
  5
42E1
  8
241
  6
CONTINUOUS
 10
23.640954387333291
 20
2.2622003410239979
 30
0.0
 40
0.7903402671451031
 50
105.401631139107
 51
269.47956404196049
  0
ARC
  5
42E2
  8
241
  6
CONTINUOUS
 10
23.64512378418743
 20
2.26237187695645
 30
0.0
 40
1.249247395117234
 50
105.40167839913239
 51
269.4795157258805
  0
LINE
  5
42E3
  8
241
  6
CONTINUOUS
 10
22.742055109462289
 20
7.5303170563797721
 30
0.0
 11
22.406194591707159
 21
7.2213590926970701
 31
0.0
  0
LINE
  5
42E4
  8
241
  6
CONTINUOUS
 10
23.729054875292029
 20
6.4411978268693701
 30
0.0
 11
22.742055109462289
 21
7.5303170563797721
 31
0.0
  0
LINE
  5
42E5
  8
241
  6
CONTINUOUS
 10
22.406194591707159
 20
5.7537541777352308
 30
0.0
 11
22.406194591707159
 21
5.2955430488947002
 31
0.0
  0
LINE
  5
42E6
  8
241
  6
CONTINUOUS
 10
23.736194276158528
 20
5.7537541777352308
 30
0.0
 11
22.406194591707159
 21
5.7537541777352308
 31
0.0
  0
LINE
  5
42E7
  8
241
  6
CONTINUOUS
 10
22.406194591707159
 20
7.2213590926970701
 30
0.0
 11
23.736194276158528
 21
5.7537541777352308
 31
0.0
  0
ARC
  5
42EC
  8
241
  6
CONTINUOUS
 10
5.333466980154582
 20
0.4446749119690594
 30
0.0
 40
23.179590270193589
 50
351.6507611206502
 51
11.91100768470465
  0
ARC
  5
42ED
  8
241
  6
CONTINUOUS
 10
5.3471978934135223
 20
0.4446735252778069
 30
0.0
 40
22.252338316774651
 50
351.84093304870328
 51
11.91106708337848
  0
LINE
  5
42EE
  8
241
  6
CONTINUOUS
 10
39.499999999996469
 20
-6.8472100027170484
 30
0.0
 11
39.499999999996469
 21
6.847210002716877
 31
0.0
  0
ARC
  5
42FC
  8
241
  6
CONTINUOUS
 10
24.172442980679939
 20
-2.0614615956677929
 30
0.0
 40
1.2475220844481949
 50
270.4810613560486
 51
89.518938643951358
  0
ARC
  5
42FD
  8
241
  6
CONTINUOUS
 10
24.176196907246378
 20
-2.0615870529113911
 30
0.0
 40
0.7891701410471366
 50
270.48791521565022
 51
89.512084784349753
  0
LINE
  5
42FF
  8
241
  6
CONTINUOUS
 10
27.482659380554711
 20
-4.6278100710680397
 30
0.0
 11
29.387436271509049
 21
-3.1816784301808521
 31
0.0
  0
LINE
  5
4300
  8
241
  6
CONTINUOUS
 10
25.43816684533061
 20
-5.1377269266844499
 30
0.0
 11
24.98337036717351
 21
-5.1377269266844499
 31
0.0
  0
LINE
  5
4301
  8
241
  6
CONTINUOUS
 10
24.927528275159151
 20
-7.1715781511139189
 30
0.0
 11
24.927528275159151
 21
-7.1742211092351047
 31
0.0
  0
LINE
  5
4302
  8
241
  6
CONTINUOUS
 10
24.98337036717351
 20
-5.1377269266844499
 30
0.0
 11
24.98337036717351
 21
-7.1742211092351047
 31
0.0
  0
LINE
  5
4303
  8
241
  6
CONTINUOUS
 10
25.43816684533061
 20
-7.6324322380757224
 30
0.0
 11
25.43816684533061
 21
-5.1377269266844499
 31
0.0
  0
LINE
  5
4304
  8
241
  6
CONTINUOUS
 10
27.3742952551404
 20
-2.7134180473655358
 30
0.0
 11
26.399873800151848
 21
-2.4867658669291748
 31
0.0
  0
LINE
  5
4305
  8
241
  6
CONTINUOUS
 10
26.399873800151848
 20
-2.4867658669291748
 30
0.0
 11
27.482659380554711
 21
-4.6278100710680397
 31
0.0
  0
LINE
  5
430E
  8
241
  6
CONTINUOUS
 10
29.387436271509049
 20
-3.1816784301808521
 30
0.0
 11
28.267385274676769
 21
-2.9211528843140111
 31
0.0
  0
LINE
  5
4310
  8
241
  6
CONTINUOUS
 10
24.51006981613671
 20
3.4667558308127862
 30
0.0
 11
24.392358606510982
 21
3.0241577850388519
 31
0.0
  0
ARC
  5
4311
  8
241
  6
CONTINUOUS
 10
24.18245679307131
 20
2.262200816976502
 30
0.0
 40
0.7903399220994198
 50
270.52057038058098
 51
74.598329745509147
  0
ARC
  5
4312
  8
241
  6
CONTINUOUS
 10
24.178289672447651
 20
2.2623721589560262
 30
0.0
 40
1.2492470103152871
 50
270.5204649316114
 51
74.598336967548775
  0
LINE
  5
4384
  8
240
  6
CONTINUOUS
 10
33.584446899696793
 20
8.0140795561715947
 30
0.0
 11
28.740222725555672
 21
9.3120855115880374
 31
0.0
  0
LINE
  5
4385
  8
241
  6
CONTINUOUS
 10
28.01398562885845
 20
5.228763143898675
 30
0.0
 11
27.120424163734981
 21
5.0374045587237779
 31
0.0
  0
LINE
  5
4386
  8
241
  6
CONTINUOUS
 10
25.43816684533061
 20
7.2644700355271823
 30
0.0
 11
25.14922665783746
 21
7.6183241478751986
 31
0.0
  0
LINE
  5
4387
  8
241
  6
CONTINUOUS
 10
24.35204334768429
 20
5.7537541777352308
 30
0.0
 11
24.03611739134471
 21
6.1023657593214864
 31
0.0
  0
LINE
  5
4388
  8
241
  6
CONTINUOUS
 10
25.43816684533061
 20
5.7537541777353161
 30
0.0
 11
24.35204334768429
 21
5.7537541777352308
 31
0.0
  0
LINE
  5
4389
  8
241
  6
CONTINUOUS
 10
25.43816684533061
 20
5.2955430488947002
 30
0.0
 11
25.43816684533061
 21
5.7537541777353161
 31
0.0
  0
LINE
  5
438A
  8
241
  6
CONTINUOUS
 10
24.03611739134471
 20
6.1023657593214864
 30
0.0
 11
25.43816684533061
 21
7.2644700355271823
 31
0.0
  0
LINE
  5
43A4
  8
240
  6
CONTINUOUS
 10
45.623998026735528
 20
-6.4824552012921677
 30
0.0
 11
93.439786905061325
 21
-6.8997372691426611
 31
0.0
  0
LINE
  5
43A5
  8
240
  6
CONTINUOUS
 10
45.623998026735407
 20
6.4824552012920256
 30
0.0
 11
93.439786905061325
 21
6.8997372691426326
 31
0.0
  0
ARC
  5
43A6
  8
240
  6
CONTINUOUS
 10
93.499999999999943
 20
-0.0000000000000284
 30
0.0
 40
6.8999999999999773
 50
269.50000000000199
 51
90.499999999998053
  0
LINE
  5
43A9
  8
245
  6
CENTER2
 10
-22.837879390041959
 20
63.0
 30
0.0
 11
101.5574812978124
 21
63.0
 31
0.0
  0
LINE
  5
43AA
  8
241
  6
CONTINUOUS
 10
-21.396187885312369
 20
63.5
 30
0.0
 11
100.40000000000001
 21
63.5
 31
0.0
  0
LINE
  5
43AB
  8
241
  6
CONTINUOUS
 10
-21.396187885312401
 20
62.5
 30
0.0
 11
100.40000000000001
 21
62.5
 31
0.0
  0
LINE
  5
43AC
  8
245
  6
CENTER2
 10
0.0000000000000568
 20
74.0
 30
0.0
 11
0.0000000000000568
 21
52.0
 31
0.0
  0
LINE
  5
43AE
  8
240
  6
CONTINUOUS
 10
40.588371423437621
 20
60.250000000000021
 30
0.0
 11
98.744614846640104
 21
60.249999999999289
 31
0.0
  0
LINE
  5
43AF
  8
240
  6
CONTINUOUS
 10
100.40000000000001
 20
62.5
 30
0.0
 11
100.2218264761583
 21
61.489527733499649
 31
0.0
  0
LINE
  5
43B0
  8
240
  6
CONTINUOUS
 10
100.40000000000001
 20
63.5
 30
0.0
 11
100.2218264761583
 21
64.510472266500315
 31
0.0
  0
ARC
  5
43B1
  8
240
  6
CONTINUOUS
 10
98.744614846640104
 20
61.750000000000007
 30
0.0
 40
1.5
 50
270.0
 51
350.00000000000142
  0
ARC
  5
43B2
  8
240
  6
CONTINUOUS
 10
98.744614846640104
 20
64.249999999999972
 30
0.0
 40
1.5
 50
9.9999999999985381
 51
90.0
  0
LINE
  5
43B3
  8
240
  6
CONTINUOUS
 10
40.58837142343733
 20
65.750000000000071
 30
0.0
 11
98.744614846640104
 21
65.750000000000725
 31
0.0
  0
LINE
  5
43B4
  8
240
  6
CONTINUOUS
 10
38.42302840842305
 20
60.092886836034552
 30
0.0
 11
21.395008446168671
 21
57.608767372475597
 31
0.0
  0
ARC
  5
43B5
  8
240
  6
CONTINUOUS
 10
40.58837142343733
 20
80.749999999999986
 30
0.0
 40
15.0
 50
261.7000000000009
 51
270.0
  0
ARC
  5
43B6
  8
240
  6
CONTINUOUS
 10
40.588371423437621
 20
45.250000000000007
 30
0.0
 40
15.0
 50
90.0
 51
98.299999999999159
  0
LINE
  5
43B9
  8
240
  6
CONTINUOUS
 10
38.423028408422773
 20
65.907113163965448
 30
0.0
 11
31.216969853724549
 21
66.9583634180144
 31
0.0
  0
LINE
  5
43BA
  8
240
  6
CONTINUOUS
 10
31.216969853724521
 20
66.958363418014002
 30
0.0
 11
21.395008446168649
 21
68.391232627524403
 31
0.0
  0
LINE
  5
43BB
  8
240
  6
CONTINUOUS
 10
-18.45757187301734
 20
73.0
 30
0.0
 11
18.457571873017429
 21
73.0
 31
0.0
  0
LINE
  5
43BC
  8
240
  6
CONTINUOUS
 10
-18.45757187301734
 20
53.0
 30
0.0
 11
18.457571873017429
 21
53.0
 31
0.0
  0
ARC
  5
43BE
  8
240
  6
CONTINUOUS
 10
5.8657894736842016
 20
63.0
 30
0.0
 40
27.265789473684151
 50
160.7376095118195
 51
178.94925119786589
  0
ARC
  5
43BF
  8
240
  6
CONTINUOUS
 10
5.8657894736842016
 20
63.0
 30
0.0
 40
27.265789473684151
 50
181.14707943423099
 51
199.26239048818039
  0
ARC
  5
43C0
  8
240
  6
CONTINUOUS
 10
-5.8657894736840879
 20
63.0
 30
0.0
 40
27.265789473684151
 50
340.73760951181953
 51
347.27343001299272
  0
ARC
  5
43C1
  8
240
  6
CONTINUOUS
 10
-5.8657894736840879
 20
63.0
 30
0.0
 40
27.265789473684151
 50
12.726569987005711
 51
19.262390488180451
  0
ARC
  5
43C2
  8
240
  6
CONTINUOUS
 10
21.510493406969431
 20
69.182853258779559
 30
0.0
 40
0.8
 50
192.7265699870056
 51
261.69999999999908
  0
ARC
  5
43C3
  8
240
  6
CONTINUOUS
 10
21.510493406969431
 20
56.817146741220441
 30
0.0
 40
0.8
 50
98.299999999999159
 51
167.27343001299431
  0
ARC
  5
43CD
  8
240
  6
CONTINUOUS
 10
-18.45757187301734
 20
71.5
 30
0.0
 40
1.5
 50
90.0
 51
160.7376095118195
  0
ARC
  5
43CE
  8
240
  6
CONTINUOUS
 10
-18.45757187301734
 20
54.5
 30
0.0
 40
1.5
 50
199.26239048818039
 51
270.0
  0
ARC
  5
43CF
  8
240
  6
CONTINUOUS
 10
18.457571873017461
 20
71.500000000000014
 30
0.0
 40
1.5
 50
19.262390488180451
 51
90.000000000001606
  0
ARC
  5
43D0
  8
240
  6
CONTINUOUS
 10
18.457571873017461
 20
54.5
 30
0.0
 40
1.5
 50
269.99999999999841
 51
340.73760951181953
  0
LINE
  5
43D1
  8
245
  6
CENTER2
 10
93.499999999999943
 20
7.899999999999948
 30
0.0
 11
93.499999999999943
 21
-7.9000000000000048
 31
0.0
  0
CIRCLE
  5
43D2
  8
241
  6
CONTINUOUS
 10
0.0
 20
0.0
 30
0.0
 40
16.0
  0
LINE
  5
43DA
  8
240
  6
CONTINUOUS
 10
-21.396187885312369
 20
63.5
 30
0.0
 11
-21.394535942039031
 21
62.454166827556492
 31
0.0
  0
LINE
  5
43DB
  8
240
  6
CONTINUOUS
 10
100.40000000000001
 20
63.5
 30
0.0
 11
100.40000000000001
 21
62.5
 31
0.0
  0
CIRCLE
  5
43DC
  8
246
  6
PHANTOM2
 10
0.0
 20
-0.0000000000000284
 30
0.0
 40
12.5
  0
LINE
  5
43DD
  8
246
  6
PHANTOM2
 10
-12.49999999999994
 20
73.0
 30
0.0
 11
-12.49999999999994
 21
53.0
 31
0.0
  0
LINE
  5
43DE
  8
246
  6
PHANTOM2
 10
12.50000000000005
 20
73.0
 30
0.0
 11
12.50000000000006
 21
53.0
 31
0.0
  0
LINE
  5
44D7
  8
250
  6
CONTINUOUS
 10
-12.49999999999994
 20
73.5
 30
0.0
 11
-12.49999999999994
 21
85.0
 31
0.0
  0
LINE
  5
44D8
  8
250
  6
CONTINUOUS
 10
12.50000000000005
 20
73.5
 30
0.0
 11
12.50000000000005
 21
85.0
 31
0.0
  0
LINE
  5
44D9
  8
250
  6
CONTINUOUS
 10
-10.269999999999939
 20
84.0
 30
0.0
 11
10.270000000000049
 21
84.0
 31
0.0
  0
LINE
  5
44DD
  8
250
  6
CONTINUOUS
 10
100.39999999999991
 20
0.4999999999999718
 30
0.0
 11
100.39999999999991
 21
43.000000000000142
 31
0.0
  0
LINE
  5
44DE
  8
250
  6
CONTINUOUS
 10
-21.39987380015161
 20
0.4999999999999999
 30
0.0
 11
-21.39987380015161
 21
43.000000000000142
 31
0.0
  0
LINE
  5
44DF
  8
250
  6
CONTINUOUS
 10
98.169999999999931
 20
42.000000000000128
 30
0.0
 11
-19.169873800151599
 21
42.000000000000128
 31
0.0
  0
LINE
  5
44E3
  8
250
  6
CONTINUOUS
 10
0.0
 20
22.97349379283003
 30
0.0
 11
0.0000000000000008
 21
36.0
 31
0.0
  0
LINE
  5
44E4
  8
250
  6
CONTINUOUS
 10
100.39999999999991
 20
0.4999999999999718
 30
0.0
 11
100.39999999999991
 21
36.0
 31
0.0
  0
LINE
  5
44E5
  8
250
  6
CONTINUOUS
 10
2.23
 20
35.0
 30
0.0
 11
98.169999999999931
 21
35.0
 31
0.0
  0
LINE
  5
44E9
  8
250
  6
CONTINUOUS
 10
-21.39987380015161
 20
0.4999999999999999
 30
0.0
 11
-21.39987380015161
 21
36.000000000000007
 31
0.0
  0
LINE
  5
44EA
  8
250
  6
CONTINUOUS
 10
0.0
 20
22.97349379283003
 30
0.0
 11
0.0000000000000008
 21
36.000000000000007
 31
0.0
  0
LINE
  5
44EB
  8
250
  6
CONTINUOUS
 10
-19.169873800151599
 20
35.000000000000021
 30
0.0
 11
-2.2299999999999991
 21
35.000000000000021
 31
0.0
  0
TEXT
  5
44EF
  8
250
  6
CONTINUOUS
 10
-3.9333333333332772
 20
85.000000000000014
 30
0.0
 40
2.7999999999999989
  1
\U+220525
  0
LINE
  5
44F0
  8
250
  6
CONTINUOUS
 10
10.270000000000049
 20
84.371666666666684
 30
0.0
 11
12.50000000000005
 21
84.0
 31
0.0
  0
LINE
  5
44F1
  8
250
  6
CONTINUOUS
 10
10.270000000000049
 20
83.628333333333316
 30
0.0
 11
12.50000000000005
 21
84.0
 31
0.0
  0
LINE
  5
44F2
  8
250
  6
CONTINUOUS
 10
12.50000000000005
 20
84.0
 30
0.0
 11
10.270000000000049
 21
84.0
 31
0.0
  0
LINE
  5
44F3
  8
250
  6
CONTINUOUS
 10
-10.269999999999939
 20
83.628333333333316
 30
0.0
 11
-12.49999999999994
 21
84.0
 31
0.0
  0
LINE
  5
44F4
  8
250
  6
CONTINUOUS
 10
-10.269999999999939
 20
84.371666666666684
 30
0.0
 11
-12.49999999999994
 21
84.0
 31
0.0
  0
LINE
  5
44F5
  8
250
  6
CONTINUOUS
 10
-12.49999999999994
 20
84.0
 30
0.0
 11
-10.269999999999939
 21
84.0
 31
0.0
  0
TEXT
  5
44F6
  8
250
  6
CONTINUOUS
 10
33.300063099924159
 20
43.000000000000142
 30
0.0
 40
2.7999999999999989
  1
121.8
  0
LINE
  5
44F7
  8
250
  6
CONTINUOUS
 10
-19.169873800151599
 20
41.628333333333458
 30
0.0
 11
-21.39987380015161
 21
42.000000000000128
 31
0.0
  0
LINE
  5
44F8
  8
250
  6
CONTINUOUS
 10
-19.169873800151599
 20
42.371666666666798
 30
0.0
 11
-21.39987380015161
 21
42.000000000000128
 31
0.0
  0
LINE
  5
44F9
  8
250
  6
CONTINUOUS
 10
-21.39987380015161
 20
42.000000000000128
 30
0.0
 11
-19.169873800151599
 21
42.000000000000128
 31
0.0
  0
LINE
  5
44FA
  8
250
  6
CONTINUOUS
 10
98.169999999999931
 20
42.371666666666798
 30
0.0
 11
100.39999999999991
 21
42.000000000000128
 31
0.0
  0
LINE
  5
44FB
  8
250
  6
CONTINUOUS
 10
98.169999999999931
 20
41.628333333333458
 30
0.0
 11
100.39999999999991
 21
42.000000000000128
 31
0.0
  0
LINE
  5
44FC
  8
250
  6
CONTINUOUS
 10
100.39999999999991
 20
42.000000000000128
 30
0.0
 11
98.169999999999931
 21
42.000000000000128
 31
0.0
  0
TEXT
  5
44FD
  8
250
  6
CONTINUOUS
 10
43.933333333333287
 20
36.0
 30
0.0
 40
2.7999999999999989
  1
100.4
  0
LINE
  5
44FE
  8
250
  6
CONTINUOUS
 10
98.169999999999931
 20
35.37166666666667
 30
0.0
 11
100.39999999999991
 21
35.0
 31
0.0
  0
LINE
  5
44FF
  8
250
  6
CONTINUOUS
 10
98.169999999999931
 20
34.62833333333333
 30
0.0
 11
100.39999999999991
 21
35.0
 31
0.0
  0
LINE
  5
4500
  8
250
  6
CONTINUOUS
 10
100.39999999999991
 20
35.0
 30
0.0
 11
98.169999999999931
 21
35.0
 31
0.0
  0
LINE
  5
4501
  8
250
  6
CONTINUOUS
 10
2.23
 20
34.62833333333333
 30
0.0
 11
0.0000000000000008
 21
35.0
 31
0.0
  0
LINE
  5
4502
  8
250
  6
CONTINUOUS
 10
2.23
 20
35.37166666666667
 30
0.0
 11
0.0000000000000008
 21
35.0
 31
0.0
  0
LINE
  5
4503
  8
250
  6
CONTINUOUS
 10
0.0000000000000008
 20
35.0
 30
0.0
 11
2.23
 21
35.0
 31
0.0
  0
TEXT
  5
4504
  8
250
  6
CONTINUOUS
 10
-15.433270233409131
 20
36.000000000000007
 30
0.0
 40
2.7999999999999989
  1
21.4
  0
LINE
  5
4505
  8
250
  6
CONTINUOUS
 10
-2.2299999999999991
 20
35.371666666666691
 30
0.0
 11
0.0000000000000008
 21
35.000000000000021
 31
0.0
  0
LINE
  5
4506
  8
250
  6
CONTINUOUS
 10
-2.2299999999999991
 20
34.628333333333337
 30
0.0
 11
0.0000000000000008
 21
35.000000000000021
 31
0.0
  0
LINE
  5
4507
  8
250
  6
CONTINUOUS
 10
0.0000000000000008
 20
35.000000000000021
 30
0.0
 11
-2.2299999999999991
 21
35.000000000000021
 31
0.0
  0
LINE
  5
4508
  8
250
  6
CONTINUOUS
 10
-19.169873800151599
 20
34.628333333333337
 30
0.0
 11
-21.39987380015161
 21
35.000000000000021
 31
0.0
  0
LINE
  5
4509
  8
250
  6
CONTINUOUS
 10
-19.169873800151599
 20
35.371666666666691
 30
0.0
 11
-21.39987380015161
 21
35.000000000000021
 31
0.0
  0
LINE
  5
450A
  8
250
  6
CONTINUOUS
 10
-21.39987380015161
 20
35.000000000000021
 30
0.0
 11
-19.169873800151599
 21
35.000000000000021
 31
0.0
  0
TEXT
  5
451F
  8
241
  6
CONTINUOUS
 10
-21.0
 20
98.0
 30
0.0
 40
4.0
  1
MGR25
  7
YOKO
  0
VIEWPORT
  5
22
 67
     1
  8
0
 10
261.51769911504419
 20
148.5
 30
0.0
 40
523.0353982300885
 41
297.0
 68
     1
 69
     1
1001
ACAD
1000
MVIEW
1002
{
1070
    16
1010
0.0
1020
0.0
1030
0.0
1010
0.0
1020
0.0
1030
1.0
1040
0.0
1040
297.0
1040
261.51769911504419
1040
148.5
1040
50.0
1040
0.0
1040
0.0
1070
     0
1070
   100
1070
     1
1070
     1
1070
     0
1070
     0
1070
     0
1070
     0
1040
0.0
1040
0.0
1040
0.0
1040
1.0
1040
1.0
1040
10.0
1040
10.0
1070
     0
1002
{
1002
}
1002
}
1001
GENIUS_GENODEF_13
1002
{
1000
HIER
1070
     0
1002
}
1002
{
1000
MANEDIT
1070
     0
1002
}
1002
{
1000
NOSEL
1070
     0
1002
}
1002
{
1000
BEHIND
1070
     0
1002
}
1002
{
1000
OTHER
1070
     0
1002
}
1002
{
1000
REACTOR
1002
}
1001
GENIUS_GENOBJ-N-SDF_13
1002
{
1000
OWNER
1000
GEN
1002
}
1001
GENIUS_GENSCREG_15
1000
PF
1040
1.0
1000
DF
1040
1.0
1000
MIN
1011
0.0
1021
0.0
1031
0.0
1021
0.0
1031
0.0
1000
MAX
1011
523.0353982300885
1021
0.0
1031
0.0
1021
297.0
1031
0.0
1000
FLAGS
1070
     4
  0
ENDSEC
  0
EOF
