  0
SECTION
  2
HEADER
  9
$ACADVER
  1
AC1009
  9
$INSBASE
 10
0.0
 20
0.0
 30
0.0
  9
$EXTMIN
 10
-20.238095238095241
 20
-19.4514383227596
 30
0.0
  9
$EXTMAX
 10
164.88902904716971
 20
95.000000000000057
 30
0.0
  9
$LIMMIN
 10
0.0
 20
0.0
  9
$LIMMAX
 10
297.0
 20
210.0
  9
$ORTHOMODE
 70
     0
  9
$REGENMODE
 70
     1
  9
$FILLMODE
 70
     1
  9
$QTEXTMODE
 70
     0
  9
$MIRRTEXT
 70
     1
  9
$DRAGMODE
 70
     2
  9
$LTSCALE
 40
10.0
  9
$OSMODE
 70
    37
  9
$ATTMODE
 70
     1
  9
$TEXTSIZE
 40
4.0
  9
$TRACEWID
 40
1.0
  9
$TEXTSTYLE
  7
YOKO
  9
$CLAYER
  8
240
  9
$CELTYPE
  6
BYLAYER
  9
$CECOLOR
 62
   256
  9
$DIMSCALE
 40
1.0
  9
$DIMASZ
 40
2.2299999999999991
  9
$DIMEXO
 40
0.5
  9
$DIMDLI
 40
7.0
  9
$DIMRND
 40
0.0
  9
$DIMDLE
 40
0.0
  9
$DIMEXE
 40
1.0
  9
$DIMTP
 40
0.0
  9
$DIMTM
 40
0.01
  9
$DIMTXT
 40
2.7999999999999989
  9
$DIMCEN
 40
0.0
  9
$DIMTSZ
 40
0.0
  9
$DIMTOL
 70
     0
  9
$DIMLIM
 70
     0
  9
$DIMTIH
 70
     0
  9
$DIMTOH
 70
     0
  9
$DIMSE1
 70
     0
  9
$DIMSE2
 70
     0
  9
$DIMTAD
 70
     3
  9
$DIMZIN
 70
     9
  9
$DIMBLK
  1
OPEN
  9
$DIMASO
 70
     1
  9
$DIMSHO
 70
     1
  9
$DIMPOST
  1

  9
$DIMAPOST
  1

  9
$DIMALT
 70
     0
  9
$DIMALTD
 70
     2
  9
$DIMALTF
 40
25.399999999999999
  9
$DIMLFAC
 40
1.0
  9
$DIMTOFL
 70
     1
  9
$DIMTVP
 40
0.0
  9
$DIMTIX
 70
     1
  9
$DIMSOXD
 70
     0
  9
$DIMSAH
 70
     0
  9
$DIMBLK1
  1

  9
$DIMBLK2
  1

  9
$DIMSTYLE
  2
BIGT
  9
$DIMCLRD
 70
   256
  9
$DIMCLRE
 70
   256
  9
$DIMCLRT
 70
    40
  9
$DIMTFAC
 40
1.0
  9
$DIMGAP
 40
1.0
  9
$LUNITS
 70
     2
  9
$LUPREC
 70
     6
  9
$SKETCHINC
 40
1.0
  9
$FILLETRAD
 40
0.0
  9
$AUNITS
 70
     0
  9
$AUPREC
 70
     6
  9
$MENU
  1
.
  9
$ELEVATION
 40
0.0
  9
$PELEVATION
 40
0.0
  9
$THICKNESS
 40
0.0
  9
$LIMCHECK
 70
     0
  9
$BLIPMODE
 70
     0
  9
$CHAMFERA
 40
0.2
  9
$CHAMFERB
 40
0.2
  9
$SKPOLY
 70
     0
  9
$TDCREATE
 40
2459494.6333537851
  9
$TDUPDATE
 40
2459494.6431909259
  9
$TDINDWG
 40
0.0095769907
  9
$TDUSRTIMER
 40
0.0095769213
  9
$USRTIMER
 70
     1
  9
$ANGBASE
 50
0.0
  9
$ANGDIR
 70
     0
  9
$PDMODE
 70
     1
  9
$PDSIZE
 40
0.0
  9
$PLINEWID
 40
0.0
  9
$COORDS
 70
     1
  9
$SPLFRAME
 70
     0
  9
$SPLINETYPE
 70
     6
  9
$SPLINESEGS
 70
     4
  9
$ATTDIA
 70
     1
  9
$ATTREQ
 70
     1
  9
$HANDLING
 70
     1
  9
$HANDSEED
  5
461A
  9
$SURFTAB1
 70
     6
  9
$SURFTAB2
 70
     6
  9
$SURFTYPE
 70
     6
  9
$SURFU
 70
     6
  9
$SURFV
 70
     6
  9
$UCSNAME
  2

  9
$UCSORG
 10
0.0
 20
0.0
 30
0.0
  9
$UCSXDIR
 10
1.0
 20
0.0
 30
0.0
  9
$UCSYDIR
 10
0.0
 20
1.0
 30
0.0
  9
$PUCSNAME
  2

  9
$PUCSORG
 10
0.0
 20
0.0
 30
0.0
  9
$PUCSXDIR
 10
1.0
 20
0.0
 30
0.0
  9
$PUCSYDIR
 10
0.0
 20
1.0
 30
0.0
  9
$USERI1
 70
     1
  9
$USERI2
 70
     0
  9
$USERI3
 70
     0
  9
$USERI4
 70
     0
  9
$USERI5
 70
     0
  9
$USERR1
 40
0.0
  9
$USERR2
 40
0.0
  9
$USERR3
 40
0.0
  9
$USERR4
 40
0.0
  9
$USERR5
 40
0.0
  9
$WORLDVIEW
 70
     1
  9
$SHADEDGE
 70
     3
  9
$SHADEDIF
 70
    70
  9
$TILEMODE
 70
     1
  9
$MAXACTVP
 70
    16
  9
$PLIMCHECK
 70
     0
  9
$PEXTMIN
 10
1.0000000000000000E+020
 20
1.0000000000000000E+020
 30
1.0000000000000000E+020
  9
$PEXTMAX
 10
-1.0000000000000000E+020
 20
-1.0000000000000000E+020
 30
-1.0000000000000000E+020
  9
$PLIMMIN
 10
0.0
 20
0.0
  9
$PLIMMAX
 10
420.0
 20
297.0
  9
$UNITMODE
 70
     0
  9
$VISRETAIN
 70
     1
  9
$PLINEGEN
 70
     0
  9
$PSLTSCALE
 70
     1
  0
ENDSEC
  0
SECTION
  2
TABLES
  0
TABLE
  2
VPORT
 70
     1
  0
VPORT
  2
*ACTIVE
 70
     0
 10
0.0
 20
0.0
 11
1.0
 21
1.0
 12
81.008793022062505
 22
37.170359342918111
 13
0.0
 23
0.0
 14
7.0
 24
7.0
 15
7.0
 25
7.0
 16
0.0
 26
0.0
 36
1.0
 17
0.0
 27
0.0
 37
0.0
 40
159.75628375471121
 41
1.758883248730964
 42
50.0
 43
0.0
 44
0.0
 50
0.0
 51
0.0
 71
     0
 72
  2000
 73
     1
 74
     0
 75
     1
 76
     1
 77
     0
 78
     0
  0
ENDTAB
  0
TABLE
  2
LTYPE
 70
    13
  0
LTYPE
  2
CONTINUOUS
 70
     0
  3
Solid line
 72
    65
 73
     0
 40
0.0
  0
LTYPE
  2
CENTER2
 70
     0
  3
___ _ ___ _ ___ _ ___ _ ___ _ ___ _ ___ _ ___ _
 72
    65
 73
     4
 40
1.125
 49
0.75
 49
-0.125
 49
0.125
 49
-0.125
  0
LTYPE
  2
HIDDEN2
 70
     0
  3
_ _ _ _ _ _ _ _ _ _ _ _ _ _ _ _ _ _ _ _ _ _ _ _
 72
    65
 73
     2
 40
0.1875
 49
0.125
 49
-0.0625
  0
LTYPE
  2
PHANTOM2
 70
     0
  3
___ _ _ ___ _ _ ___ _ _ ___ _ _ ___ _ _ ___ _ _
 72
    65
 73
     6
 40
1.25
 49
0.625
 49
-0.125
 49
0.125
 49
-0.125
 49
0.125
 49
-0.125
  0
LTYPE
  2
AM_ISO02W050
 70
     0
  3
__ __ __ __ __ __ __ __ __ __ __ __ __ __ __
 72
    65
 73
     2
 40
7.5
 49
6.0
 49
-1.5
  0
LTYPE
  2
AMCONSTR
 70
     0
  3
_______________________
 72
    65
 73
     2
 40
9999.0
 49
9999.0
 49
0.0
  0
LTYPE
  2
ACISOWELD
 70
     0
  3
_ _ _ _ _
 72
    65
 73
     2
 40
2.0
 49
2.0
 49
-1.0
  0
LTYPE
  2
ACISOTGB
 70
     0
  3
__ . . __ . .
 72
    65
 73
     6
 40
9.0
 49
4.0
 49
-1.0
 49
1.0
 49
-1.0
 49
1.0
 49
-1.0
  0
LTYPE
  2
ACISOTGL
 70
     0
  3
_ _ _ _ _
 72
    65
 73
     2
 40
3.0
 49
2.0
 49
-1.0
  0
LTYPE
  2
ACJISTGB
 70
     0
  3
__ . . __ . .
 72
    65
 73
     6
 40
9.0
 49
4.0
 49
-1.0
 49
1.0
 49
-1.0
 49
1.0
 49
-1.0
  0
LTYPE
  2
ACJISTGL
 70
     0
  3
_ _ _ _ _
 72
    65
 73
     2
 40
3.0
 49
2.0
 49
-1.0
  0
ENDTAB
  0
TABLE
  2
LAYER
 70
     7
  0
LAYER
  2
0
 70
     0
 62
     7
  6
CONTINUOUS
  0
LAYER
  2
DEFPOINTS
 70
     0
 62
     7
  6
CONTINUOUS
  0
LAYER
  2
245
 70
     0
 62
     2
  6
CENTER2
  0
LAYER
  2
240
 70
     0
 62
     4
  6
CONTINUOUS
  0
LAYER
  2
241
 70
     0
 62
   211
  6
CONTINUOUS
  0
LAYER
  2
246
 70
     0
 62
     3
  6
PHANTOM2
  0
LAYER
  2
250
 70
     0
 62
     3
  6
CONTINUOUS
  0
ENDTAB
  0
TABLE
  2
STYLE
 70
     6
  0
STYLE
  2
STANDARD
 70
     0
 40
0.0
 41
1.0
 50
0.0
 71
     0
 42
3.0
  3
romans.shx
  4
extfont.shx
  0
STYLE
  2
ACISOTS
 70
     0
 40
1.0
 41
1.0
 50
0.0
 71
     0
 42
3.0
  3
amgdt.shx
  4
extfont.shx
  0
STYLE
  2
ACISOGDT
 70
     0
 40
0.0
 41
1.0
 50
0.0
 71
     0
 42
3.0
  3
amgdt.shx
  4
extfont.shx
  0
STYLE
  2
ACJISTS
 70
     0
 40
1.0
 41
1.0
 50
0.0
 71
     0
 42
3.0
  3
amgdt.shx
  4
extfont.shx
  0
STYLE
  2
ACJISGDT
 70
     0
 40
0.0
 41
1.0
 50
0.0
 71
     0
 42
3.0
  3
amgdt.shx
  4
extfont.shx
  0
STYLE
  2
YOKO
 70
     0
 40
0.0
 41
1.0
 50
0.0
 71
     0
 42
4.0
  3
romans.shx
  4
extfont.shx
  0
ENDTAB
  0
TABLE
  2
VIEW
 70
     0
  0
ENDTAB
  0
TABLE
  2
UCS
 70
     0
  0
ENDTAB
  0
TABLE
  2
APPID
 70
    39
  0
APPID
  2
ACAD
 70
     0
  0
APPID
  2
GLOBAL
 70
     0
  0
APPID
  2
DETAIL
 70
     0
  0
APPID
  2
GRPNAME
 70
     0
  0
APPID
  2
GPARA
 70
     0
  0
APPID
  2
MCAD_NO_VIS
 70
     0
  0
APPID
  2
ACAD_TEMP_GRAPHIC
 70
     0
  0
APPID
  2
ACATTRIBSERVICES
 70
     0
  0
APPID
  2
GENIUS_GENSCREG_15
 70
     0
  0
APPID
  2
GENIUS_GENODEF_13
 70
     0
  0
APPID
  2
GENIUS_GENOBJ-N-SDF_13
 70
     0
  0
APPID
  2
GENIUS_GENREC_14
 70
     0
  0
APPID
  2
GENIUS_GENOBJ-N-REC_13
 70
     0
  0
APPID
  2
GENIUS_GENDIMSH_14
 70
     0
  0
APPID
  2
GENIUS_GENOBJ-N-DIM_13
 70
     0
  0
APPID
  2
GENIUS_GENDIM_13
 70
     0
  0
APPID
  2
GENIUS_GENDTOL_13
 70
     0
  0
APPID
  2
GENIUS_GENOLIS_13
 70
     0
  0
APPID
  2
GENIUS_GENOENT_13
 70
     0
  0
APPID
  2
GENIUS_GENOBJ-F-FEM_13
 70
     0
  0
APPID
  2
GENIUS_GENOREF_13
 70
     0
  0
APPID
  2
GENIUS_GEFFEM_13
 70
     0
  0
APPID
  2
GENIUS_GEFFEMP_13
 70
     0
  0
APPID
  2
AD_DRAW
 70
     0
  0
APPID
  2
DESIGNERASSEMBLIES
 70
     0
  0
APPID
  2
ACADM_DIM_EDIT
 70
     0
  0
APPID
  2
AMDT_DM_ADJ
 70
     0
  0
APPID
  2
ITEMNAME
 70
     0
  0
APPID
  2
GENIUS_GENOBJ-N-FIL_13
 70
     0
  0
APPID
  2
GENIUS_GENFIL_13
 70
     0
  0
APPID
  2
GENIUS_GENOBJ-N-CHA_13
 70
     0
  0
APPID
  2
ACAD_NAV_VCDISPLAY
 70
     0
  0
APPID
  2
ACAECLAYERSTANDARD
 70
     0
  0
APPID
  2
LAYER_SCALE
 70
     0
  0
APPID
  2
ACAD_PSEXT
 70
     0
  0
APPID
  2
ASK_MEN_XD
 70
     0
  0
APPID
  2
ACAD_EXEMPT_FROM_CAD_STANDARDS
 70
     0
  0
APPID
  2
ACAD_DSTYLE_DIMINSPECT
 70
     0
  0
APPID
  2
ACAD_MLEADERVER
 70
     0
  0
ENDTAB
  0
TABLE
  2
DIMSTYLE
 70
    24
  0
DIMSTYLE
  2
BIGT
 70
     0
  3

  4

  5
OPEN
  6

  7

 40
1.0
 41
2.2299999999999991
 42
0.5
 43
7.0
 44
1.0
 45
0.0
 46
0.0
 47
0.0
 48
0.01
140
2.7999999999999989
141
0.0
142
0.0
143
25.399999999999999
144
1.0
145
0.0
146
1.0
147
1.0
 71
     0
 72
     0
 73
     0
 74
     0
 75
     0
 76
     0
 77
     3
 78
     9
170
     0
171
     2
172
     1
173
     0
174
     1
175
     0
176
   256
177
   256
178
    40
  0
DIMSTYLE
  2
AM_ISO
 70
     0
  3

  4
"
  5

  6

  7

 40
1.0
 41
2.5
 42
1.0
 43
10.0
 44
1.0
 45
0.0
 46
0.0
 47
0.1
 48
0.1
140
3.5
141
0.0
142
0.0
143
0.0393701
144
1.0
145
0.0
146
0.71
147
1.5
 71
     0
 72
     0
 73
     0
 74
     0
 75
     0
 76
     0
 77
     1
 78
     8
170
     0
171
     2
172
     1
173
     0
174
     0
175
     0
176
   256
177
   256
178
     2
  0
DIMSTYLE
  2
AM_ISO$3
 70
     0
  3

  4
"
  5

  6

  7

 40
1.0
 41
2.5
 42
1.0
 43
10.0
 44
1.0
 45
0.0
 46
0.0
 47
0.1
 48
0.1
140
3.5
141
0.0
142
0.0
143
0.0393701
144
1.0
145
0.0
146
0.71
147
1.5
 71
     0
 72
     0
 73
     0
 74
     1
 75
     0
 76
     0
 77
     1
 78
     8
170
     0
171
     2
172
     0
173
     0
174
     0
175
     0
176
   256
177
   256
178
     2
  0
DIMSTYLE
  2
AM_ISO$4
 70
     0
  3

  4
"
  5

  6

  7

 40
1.0
 41
2.5
 42
1.0
 43
10.0
 44
1.0
 45
0.0
 46
0.0
 47
0.1
 48
0.1
140
3.5
141
0.0
142
0.0
143
0.0393701
144
1.0
145
0.0
146
0.71
147
1.5
 71
     0
 72
     0
 73
     0
 74
     1
 75
     0
 76
     0
 77
     1
 78
     8
170
     0
171
     2
172
     0
173
     0
174
     0
175
     0
176
   256
177
   256
178
     2
  0
DIMSTYLE
  2
AM_ISO$6
 70
     0
  3

  4
"
  5

  6

  7

 40
1.0
 41
2.5
 42
1.0
 43
10.0
 44
1.0
 45
0.0
 46
0.0
 47
0.1
 48
0.1
140
3.5
141
0.0
142
0.0
143
0.0393701
144
1.0
145
0.0
146
0.71
147
1.5
 71
     0
 72
     0
 73
     0
 74
     0
 75
     0
 76
     0
 77
     0
 78
     8
170
     0
171
     2
172
     1
173
     0
174
     0
175
     0
176
   256
177
   256
178
     2
  0
DIMSTYLE
  2
AM_ISO$7
 70
     0
  3

  4
"
  5

  6

  7

 40
1.0
 41
2.5
 42
1.0
 43
10.0
 44
1.0
 45
0.0
 46
0.0
 47
0.1
 48
0.1
140
5.0
141
0.0
142
0.0
143
0.0393701
144
1.0
145
0.0
146
0.71
147
1.5
 71
     0
 72
     0
 73
     0
 74
     0
 75
     0
 76
     0
 77
     1
 78
     8
170
     0
171
     2
172
     1
173
     0
174
     0
175
     0
176
   256
177
   256
178
     2
  0
DIMSTYLE
  2
AM_ISO$SF
 70
     0
  3

  4
"
  5

  6

  7

 40
1.0
 41
2.5
 42
1.0
 43
10.0
 44
1.0
 45
0.0
 46
0.0
 47
0.1
 48
0.1
140
3.5
141
0.0
142
0.0
143
0.0393701
144
1.0
145
0.0
146
0.71
147
1.5
 71
     0
 72
     0
 73
     0
 74
     0
 75
     1
 76
     1
 77
     1
 78
     8
170
     0
171
     2
172
     1
173
     0
174
     0
175
     0
176
   256
177
   256
178
     2
  0
DIMSTYLE
  2
AM_ISO$SH
 70
     0
  3

  4
"
  5

  6
GENAXEH
  7

 40
1.0
 41
2.5
 42
1.0
 43
10.0
 44
1.0
 45
0.0
 46
0.0
 47
0.1
 48
0.1
140
3.5
141
0.0
142
0.0
143
0.0393701
144
2.0
145
0.0
146
0.71
147
1.5
 71
     0
 72
     0
 73
     0
 74
     0
 75
     1
 76
     1
 77
     1
 78
     8
170
     0
171
     2
172
     1
173
     1
174
     0
175
     0
176
   256
177
   256
178
     2
  0
DIMSTYLE
  2
BIGT$2
 70
     0
  3

  4

  5
OPEN
  6

  7

 40
1.0
 41
2.2299999999999991
 42
0.5
 43
7.0
 44
1.0
 45
0.0
 46
0.0
 47
0.0
 48
0.01
140
2.7999999999999989
141
0.0
142
0.0
143
25.399999999999999
144
1.0
145
0.0
146
1.0
147
1.0
 71
     0
 72
     0
 73
     0
 74
     0
 75
     0
 76
     0
 77
     3
 78
     9
170
     0
171
     2
172
     1
173
     0
174
     0
175
     0
176
   256
177
   256
178
    40
  0
DIMSTYLE
  2
BIGT$3
 70
     0
  3

  4

  5
OPEN
  6

  7

 40
1.0
 41
2.2299999999999991
 42
0.5
 43
2.5
 44
1.0
 45
0.0
 46
0.0
 47
0.0
 48
0.01
140
2.7999999999999989
141
0.0
142
0.0
143
25.399999999999999
144
1.0
145
0.0
146
1.0
147
1.0
 71
     0
 72
     0
 73
     0
 74
     0
 75
     0
 76
     0
 77
     3
 78
     9
170
     0
171
     2
172
     1
173
     0
174
     0
175
     0
176
   256
177
   256
178
    40
  0
DIMSTYLE
  2
BIGT$7
 70
     0
  3

  4

  5
OPEN
  6

  7

 40
0.0
 41
2.2299999999999991
 42
0.5
 43
7.0
 44
1.0
 45
0.0
 46
0.0
 47
0.0
 48
0.01
140
2.7999999999999989
141
0.0
142
0.0
143
25.399999999999999
144
1.0
145
0.0
146
1.0
147
1.0
 71
     0
 72
     0
 73
     0
 74
     0
 75
     0
 76
     0
 77
     3
 78
     9
170
     0
171
     2
172
     0
173
     0
174
     0
175
     0
176
   256
177
   256
178
    40
  0
DIMSTYLE
  2
BIGT$6
 70
     0
  3

  4

  5
OPEN
  6

  7

 40
1.0
 41
2.2299999999999991
 42
0.5
 43
2.5
 44
1.0
 45
0.0
 46
0.0
 47
0.0
 48
0.01
140
2.7999999999999989
141
0.0
142
0.0
143
25.399999999999999
144
1.0
145
0.0
146
1.0
147
1.0
 71
     0
 72
     0
 73
     0
 74
     0
 75
     0
 76
     0
 77
     3
 78
     9
170
     0
171
     2
172
     1
173
     0
174
     0
175
     0
176
   256
177
   256
178
    40
  0
DIMSTYLE
  2
BIGT$0
 70
     0
  3

  4

  5
OPEN
  6

  7

 40
1.0
 41
2.2299999999999991
 42
0.5
 43
7.0
 44
1.0
 45
0.0
 46
0.0
 47
0.0
 48
0.01
140
2.7999999999999989
141
0.0
142
0.0
143
25.399999999999999
144
1.0
145
0.0
146
1.0
147
1.0
 71
     0
 72
     0
 73
     0
 74
     0
 75
     0
 76
     0
 77
     3
 78
     9
170
     0
171
     2
172
     1
173
     0
174
     1
175
     0
176
   256
177
   256
178
    40
  0
DIMSTYLE
  2
BIGT$4
 70
     0
  3

  4

  5
OPEN
  6

  7

 40
1.0
 41
2.2299999999999991
 42
0.5
 43
2.5
 44
1.0
 45
0.0
 46
0.0
 47
0.0
 48
0.01
140
2.7999999999999989
141
0.0
142
0.0
143
25.399999999999999
144
1.0
145
0.0
146
1.0
147
1.0
 71
     0
 72
     0
 73
     0
 74
     0
 75
     0
 76
     0
 77
     3
 78
     9
170
     0
171
     2
172
     1
173
     0
174
     0
175
     0
176
   256
177
   256
178
    40
  0
DIMSTYLE
  2
BIGT$SH
 70
     0
  3

  4

  5
OPEN
  6

  7

 40
1.0
 41
2.2299999999999991
 42
0.5
 43
7.0
 44
1.0
 45
0.0
 46
0.0
 47
0.0
 48
0.0
140
2.7999999999999989
141
0.0
142
0.0
143
25.399999999999999
144
1.0
145
0.0
146
1.0
147
1.0
 71
     0
 72
     0
 73
     0
 74
     0
 75
     0
 76
     0
 77
     3
 78
     9
170
     0
171
     2
172
     1
173
     0
174
     0
175
     0
176
   256
177
   256
178
    40
  0
DIMSTYLE
  2
BIGT$SF
 70
     0
  3

  4

  5
OPEN
  6

  7

 40
1.0
 41
2.2299999999999991
 42
0.5
 43
7.0
 44
1.0
 45
0.0
 46
0.0
 47
0.0
 48
0.0
140
2.7999999999999989
141
0.0
142
0.0
143
25.399999999999999
144
1.0
145
0.0
146
1.0
147
1.0
 71
     0
 72
     0
 73
     0
 74
     0
 75
     0
 76
     0
 77
     3
 78
     9
170
     0
171
     2
172
     1
173
     0
174
     0
175
     0
176
   256
177
   256
178
    40
  0
DIMSTYLE
  2
TECHNICAL_OSAKA
 70
     0
  3

  4
"
  5
OPEN30
  6

  7

 40
1.0
 41
2.5
 42
1.0
 43
10.0
 44
1.0
 45
0.0
 46
0.0
 47
0.1
 48
0.1
140
2.7999999999999989
141
0.0
142
0.0
143
0.0393701
144
1.0
145
0.0
146
0.71
147
1.5
 71
     0
 72
     0
 73
     0
 74
     0
 75
     0
 76
     0
 77
     3
 78
     8
170
     0
171
     2
172
     1
173
     0
174
     0
175
     0
176
   256
177
   256
178
    40
  0
DIMSTYLE
  2
TECHNICAL_OSAKA$3
 70
     0
  3

  4
"
  5
OPEN30
  6

  7

 40
1.0
 41
2.5
 42
1.0
 43
10.0
 44
1.0
 45
0.0
 46
0.0
 47
0.1
 48
0.1
140
2.7999999999999989
141
0.0
142
0.0
143
0.0393701
144
1.0
145
0.0
146
0.71
147
1.5
 71
     0
 72
     0
 73
     0
 74
     1
 75
     0
 76
     0
 77
     3
 78
     8
170
     0
171
     2
172
     0
173
     0
174
     0
175
     0
176
   256
177
   256
178
    40
  0
DIMSTYLE
  2
TECHNICAL_OSAKA$4
 70
     0
  3

  4
"
  5
OPEN30
  6

  7

 40
1.0
 41
2.5
 42
1.0
 43
10.0
 44
1.0
 45
0.0
 46
0.0
 47
0.1
 48
0.1
140
2.7999999999999989
141
0.0
142
0.0
143
0.0393701
144
1.0
145
0.0
146
0.71
147
1.5
 71
     0
 72
     0
 73
     0
 74
     1
 75
     0
 76
     0
 77
     3
 78
     8
170
     0
171
     2
172
     0
173
     0
174
     0
175
     0
176
   256
177
   256
178
    40
  0
DIMSTYLE
  2
TECHNICAL_OSAKA$6
 70
     0
  3

  4
"
  5
OPEN30
  6

  7

 40
1.0
 41
2.5
 42
1.0
 43
10.0
 44
1.0
 45
0.0
 46
0.0
 47
0.1
 48
0.1
140
2.7999999999999989
141
0.0
142
0.0
143
0.0393701
144
1.0
145
0.0
146
0.71
147
1.5
 71
     0
 72
     0
 73
     0
 74
     0
 75
     0
 76
     0
 77
     0
 78
     8
170
     0
171
     2
172
     1
173
     0
174
     0
175
     0
176
   256
177
   256
178
    40
  0
DIMSTYLE
  2
TECHNICAL_OSAKA$7
 70
     0
  3

  4
"
  5
OPEN30
  6

  7

 40
1.0
 41
2.5
 42
1.0
 43
10.0
 44
1.0
 45
0.0
 46
0.0
 47
0.1
 48
0.1
140
2.7999999999999989
141
0.0
142
0.0
143
0.0393701
144
1.0
145
0.0
146
0.71
147
1.5
 71
     0
 72
     0
 73
     0
 74
     0
 75
     0
 76
     0
 77
     3
 78
     8
170
     0
171
     2
172
     1
173
     0
174
     0
175
     0
176
   256
177
   256
178
    40
  0
DIMSTYLE
  2
TECHNICAL_OSAKA$SF
 70
     0
  3

  4
"
  5
OPEN30
  6
OPEN30
  7
OPEN30
 40
1.0
 41
2.5
 42
1.0
 43
10.0
 44
1.0
 45
0.0
 46
0.0
 47
0.1
 48
0.1
140
3.5
141
0.0
142
0.0
143
0.0393701
144
1.0
145
0.0
146
0.71
147
1.5
 71
     0
 72
     0
 73
     0
 74
     0
 75
     1
 76
     1
 77
     3
 78
     8
170
     0
171
     2
172
     1
173
     0
174
     0
175
     0
176
   256
177
   256
178
    40
  0
DIMSTYLE
  2
TECHNICAL_OSAKA$SH
 70
     0
  3

  4
"
  5
OPEN30
  6
GENAXEH
  7
OPEN30
 40
1.0
 41
2.5
 42
1.0
 43
10.0
 44
1.0
 45
0.0
 46
0.0
 47
0.1
 48
0.1
140
3.5
141
0.0
142
0.0
143
0.0393701
144
2.0
145
0.0
146
0.71
147
1.5
 71
     0
 72
     0
 73
     0
 74
     0
 75
     1
 76
     1
 77
     3
 78
     8
170
     0
171
     2
172
     1
173
     1
174
     0
175
     0
176
   256
177
   256
178
    40
  0
DIMSTYLE
  2
STANDARD
 70
     0
  3

  4

  5

  6

  7

 40
1.0
 41
0.18
 42
0.0625
 43
0.38
 44
0.18
 45
0.0
 46
0.0
 47
0.0
 48
0.0
140
0.18
141
0.09
142
0.0
143
25.399999999999999
144
1.0
145
0.0
146
1.0
147
0.09
 71
     0
 72
     0
 73
     1
 74
     1
 75
     0
 76
     0
 77
     0
 78
     0
170
     0
171
     2
172
     0
173
     0
174
     0
175
     0
176
     0
177
     0
178
     0
  0
ENDTAB
  0
ENDSEC
  0
SECTION
  2
BLOCKS
  0
BLOCK
  8
0
  2
$MODEL_SPACE
 70
     0
 10
0.0
 20
0.0
 30
0.0
  3
$MODEL_SPACE
  1

  0
ENDBLK
  5
1C
  8
0
  0
BLOCK
 67
     1
  8
0
  2
$PAPER_SPACE
 70
     0
 10
0.0
 20
0.0
 30
0.0
  3
$PAPER_SPACE
  1

  0
ENDBLK
  5
19
 67
     1
  8
0
  0
BLOCK
  8
0
  2
_OPEN
 70
     0
 10
0.0
 20
0.0
 30
0.0
  3
_OPEN
  1

  0
LINE
  5
452D
  8
0
  6
BYBLOCK
 62
     0
 10
-1.0
 20
0.1666666666666666
 30
0.0
 11
0.0
 21
0.0
 31
0.0
  0
LINE
  5
452E
  8
0
  6
BYBLOCK
 62
     0
 10
-1.0
 20
-0.1666666666666666
 30
0.0
 11
0.0
 21
0.0
 31
0.0
  0
LINE
  5
452F
  8
0
  6
BYBLOCK
 62
     0
 10
0.0
 20
0.0
 30
0.0
 11
-1.0
 21
0.0
 31
0.0
  0
ENDBLK
  5
4530
  8
0
  0
BLOCK
  8
0
  2
GENAXEH
 70
     0
 10
0.0
 20
0.0
 30
0.0
  3
GENAXEH
  1

  0
LINE
  5
4568
  8
0
 10
-1.0
 20
0.0
 30
0.0
 11
1.0
 21
0.0
 31
0.0
  0
ENDBLK
  5
4569
  8
0
  0
BLOCK
  8
0
  2
_OPEN30
 70
     0
 10
0.0
 20
0.0
 30
0.0
  3
_OPEN30
  1

  0
LINE
  5
45A4
  8
0
  6
BYBLOCK
 62
     0
 10
-1.0
 20
0.26794919
 30
0.0
 11
0.0
 21
0.0
 31
0.0
  0
LINE
  5
45A5
  8
0
  6
BYBLOCK
 62
     0
 10
0.0
 20
0.0
 30
0.0
 11
-1.0
 21
-0.26794919
 31
0.0
  0
LINE
  5
45A6
  8
0
  6
BYBLOCK
 62
     0
 10
0.0
 20
0.0
 30
0.0
 11
-1.0
 21
0.0
 31
0.0
  0
ENDBLK
  5
45A7
  8
0
  0
ENDSEC
  0
SECTION
  2
ENTITIES
  0
LINE
  5
428F
  8
245
  6
CENTER2
 10
-19.702429460436122
 20
56.0
 30
0.0
 11
164.88902904716971
 21
56.0
 31
0.0
  0
LINE
  5
4290
  8
245
  6
CENTER2
 10
0.0
 20
66.752360698857501
 30
0.0
 11
0.0
 21
45.152259406277153
 31
0.0
  0
LINE
  5
4291
  8
240
  6
CONTINUOUS
 10
-15.446736075429889
 20
64.0
 30
0.0
 11
15.446736075429889
 21
63.999999999999979
 31
0.0
  0
LINE
  5
4292
  8
240
  6
CONTINUOUS
 10
-15.446736075429889
 20
48.0
 30
0.0
 11
15.446736075429889
 21
48.000000000000171
 31
0.0
  0
ARC
  5
4293
  8
240
  6
CONTINUOUS
 10
4.0833333333333712
 20
56.0
 30
0.0
 40
22.083333333333339
 50
161.59151982941361
 51
180.0
  0
ARC
  5
4294
  8
240
  6
CONTINUOUS
 10
4.0833333333333712
 20
56.0
 30
0.0
 40
22.083333333333339
 50
180.0
 51
198.40848017058639
  0
ARC
  5
4295
  8
240
  6
CONTINUOUS
 10
-15.446736075429889
 20
62.5
 30
0.0
 40
1.5
 50
90.0
 51
161.59151982941361
  0
ARC
  5
4296
  8
240
  6
CONTINUOUS
 10
-15.446736075429889
 20
49.5
 30
0.0
 40
1.5
 50
198.40848017058639
 51
270.0
  0
ARC
  5
4297
  8
240
  6
CONTINUOUS
 10
15.446736075429889
 20
62.5
 30
0.0
 40
1.5
 50
29.847492638607079
 51
90.0
  0
ARC
  5
4298
  8
240
  6
CONTINUOUS
 10
17.181442499708741
 20
63.495386167055699
 30
0.0
 40
0.5
 50
209.84749263860701
 51
266.00000000000341
1001
ASK_MEN_XD
1005
429F
1070
     1
1005
4297
1070
     1
  0
LINE
  5
4299
  8
240
  6
CONTINUOUS
 10
63.492076949173793
 20
51.999999999999879
 30
0.0
 11
157.85640646055069
 21
51.999999999999879
 31
0.0
  0
ARC
  5
429A
  8
240
  6
CONTINUOUS
 10
63.492076949173793
 20
-48.000000000000107
 30
0.0
 40
100.0
 50
90.0
 51
93.999999999999744
1001
ASK_MEN_XD
1005
42A4
1070
     1
1005
4299
1070
     1
  0
LINE
  5
429B
  8
240
  6
CONTINUOUS
 10
63.492076949178028
 20
60.0
 30
0.0
 11
157.8564064605508
 21
60.000000000000043
 31
0.0
  0
ARC
  5
429D
  8
240
  6
CONTINUOUS
 10
63.492076949178028
 20
160.0
 30
0.0
 40
100.0
 50
266.00000000000023
 51
270.0
1001
ASK_MEN_XD
1005
429F
1070
     1
1005
429B
1070
     1
  0
LINE
  5
429F
  8
240
  6
CONTINUOUS
 10
56.516429574766477
 20
60.243594974017498
 30
0.0
 11
17.146564262836669
 21
62.996604141925722
 31
0.0
  0
ARC
  5
42A2
  8
240
  6
CONTINUOUS
 10
15.446736075429889
 20
49.5
 30
0.0
 40
1.5
 50
270.0
 51
330.15250736139291
  0
ARC
  5
42A3
  8
240
  6
CONTINUOUS
 10
17.181442499708741
 20
48.504613832944301
 30
0.0
 40
0.5
 50
93.999999999996547
 51
150.15250736139291
1001
ASK_MEN_XD
1005
429F
1070
     1
1005
4297
1070
     1
  0
LINE
  5
42A4
  8
240
  6
CONTINUOUS
 10
56.516429574761702
 20
51.756405025982339
 30
0.0
 11
17.146564262836669
 21
49.0033958580742
 31
0.0
  0
ARC
  5
42A5
  8
240
  6
CONTINUOUS
 10
143.99999999999969
 20
56.00000000000022
 30
0.0
 40
16.0
 50
351.78678929826037
 51
8.2132107017363101
  0
ARC
  5
42A6
  8
240
  6
CONTINUOUS
 10
157.85640646055069
 20
53.999999999999879
 30
0.0
 40
2.0
 50
270.0
 51
351.78678929826037
1001
ASK_MEN_XD
1005
42A5
1070
     1
1005
4299
1070
     1
  0
ARC
  5
42A7
  8
240
  6
CONTINUOUS
 10
157.8564064605508
 20
58.0
 30
0.0
 40
2.0
 50
8.2132107017363101
 51
90.0
1001
ASK_MEN_XD
1005
42A5
1070
     1
1005
429B
1070
     1
  0
LINE
  5
42B3
  8
245
  6
CENTER2
 10
-19.873790119424541
 20
0.0
 30
0.0
 11
162.30589794897779
 21
0.0
 31
0.0
  0
LINE
  5
42F4
  8
245
  6
CENTER2
 10
0.0
 20
19.241380387573368
 30
0.0
 11
0.0
 21
-19.4514383227596
 31
0.0
  0
CIRCLE
  5
42F5
  8
241
  6
CONTINUOUS
 10
0.0
 20
0.0
 30
0.0
 40
16.5
  0
ARC
  5
42F6
  8
241
  6
CONTINUOUS
 10
0.0
 20
0.0
 30
0.0
 40
18.0
 50
330.63259639941941
 51
31.184947885029619
  0
ARC
  5
42F7
  8
240
  6
CONTINUOUS
 10
0.0
 20
0.0
 30
0.0
 40
18.0
 50
59.703414914745657
 51
300.29658508525432
  0
LINE
  5
42F8
  8
245
  6
CENTER2
 10
150.0
 20
-13.545427595150301
 30
0.0
 11
150.0
 21
13.545427595150301
 31
0.0
  0
ARC
  5
42F9
  8
240
  6
CONTINUOUS
 10
19.17009420326621
 20
32.81017354781747
 30
0.0
 40
20.0
 50
239.70341491474571
 51
263.00000000000063
1001
ASK_MEN_XD
1005
4303
1070
     1
1005
0
1070
     1
  0
LINE
  5
42FA
  8
241
  6
CONTINUOUS
 10
60.0
 20
7.9227534967669717
 30
0.0
 11
60.0
 21
-7.9227534967669149
 31
0.0
  0
ARC
  5
42FC
  8
241
  6
CONTINUOUS
 10
0.0
 20
0.0
 30
0.0
 40
53.0
 50
355.91476442994087
 51
4.0852355700591483
  0
ARC
  5
42FD
  8
241
  6
CONTINUOUS
 10
51.369147452837858
 20
3.668881296608304
 30
0.0
 40
1.5
 50
4.0852355700591483
 51
83.000000000000654
1001
ASK_MEN_XD
1005
42FC
1070
     1
1005
4308
1070
     1
  0
ARC
  5
42FE
  8
241
  6
CONTINUOUS
 10
51.369147452837858
 20
-3.668881296608276
 30
0.0
 40
1.5
 50
276.99999999999937
 51
355.91476442993923
1001
ASK_MEN_XD
1005
4309
1070
     1
1005
42FC
1070
     1
  0
CIRCLE
  5
42FF
  8
241
  6
CONTINUOUS
 10
150.0
 20
0.0000000000000284
 30
0.0
 40
6.0
  0
ARC
  5
4300
  8
240
  6
CONTINUOUS
 10
150.0
 20
0.0
 30
0.0
 40
10.0
 50
264.26082952273191
 51
95.739170477268033
  0
LINE
  5
4301
  8
240
  6
CONTINUOUS
 10
149.73823051692119
 20
9.9965732497555564
 30
0.0
 11
67.42873715880296
 21
7.8412233122799639
 31
0.0
  0
LINE
  5
4302
  8
240
  6
CONTINUOUS
 10
149.73823051692119
 20
-9.9965732497554995
 30
0.0
 11
67.42873715880296
 21
-7.8412233122799364
 31
0.0
  0
LINE
  5
4303
  8
240
  6
CONTINUOUS
 10
52.624107987499997
 20
8.5523406457035662
 30
0.0
 11
16.73270733516318
 21
12.95925051499105
 31
0.0
  0
ARC
  5
4304
  8
240
  6
CONTINUOUS
 10
64.811042328015105
 20
107.8069558098357
 30
0.0
 40
100.0
 50
263.00000000000063
 51
271.49999999999949
1001
ASK_MEN_XD
1005
4301
1070
     1
1005
4303
1070
     1
  0
ARC
  5
4305
  8
240
  6
CONTINUOUS
 10
19.17009420326621
 20
-32.810173547817442
 30
0.0
 40
20.0
 50
96.999999999999375
 51
120.29658508525431
1001
ASK_MEN_XD
1005
4303
1070
     1
1005
0
1070
     1
  0
LINE
  5
4306
  8
240
  6
CONTINUOUS
 10
52.624107987499997
 20
-8.5523406457035094
 30
0.0
 11
16.73270733516318
 21
-12.95925051499102
 31
0.0
  0
ARC
  5
4307
  8
240
  6
CONTINUOUS
 10
64.811042328015162
 20
-107.8069558098357
 30
0.0
 40
100.0
 50
88.500000000000526
 51
96.999999999999375
1001
ASK_MEN_XD
1005
4301
1070
     1
1005
4303
1070
     1
  0
LINE
  5
4308
  8
241
  6
CONTINUOUS
 10
51.551951467945571
 20
5.1577005240702638
 30
0.0
 11
20.331395569592221
 21
8.9911027711942495
 31
0.0
  0
LINE
  5
4309
  8
241
  6
CONTINUOUS
 10
51.551951467945571
 20
-5.1577005240702638
 30
0.0
 11
20.331395569592271
 21
-8.9911027711942211
 31
0.0
  0
ARC
  5
430A
  8
241
  6
CONTINUOUS
 10
0.0
 20
0.0
 30
0.0
 40
20.0
 50
339.57729638207132
 51
20.42270361792874
  0
ARC
  5
430B
  8
241
  6
CONTINUOUS
 10
20.148591554484511
 20
-7.5022835437322319
 30
0.0
 40
1.5
 50
159.5772963820713
 51
277.00000000000119
1001
ASK_MEN_XD
1005
4309
1070
     1
1005
430A
1070
     1
  0
ARC
  5
430C
  8
241
  6
CONTINUOUS
 10
20.148591554484479
 20
7.5022835437322888
 30
0.0
 40
1.5
 50
82.999999999998849
 51
200.4227036179287
1001
ASK_MEN_XD
1005
430A
1070
     1
1005
4308
1070
     1
  0
LINE
  5
4328
  8
241
  6
CONTINUOUS
 10
69.274959393830329
 20
4.388368569207671
 30
0.0
 11
132.78794643138681
 21
6.05151466639819
 31
0.0
  0
LINE
  5
4329
  8
241
  6
CONTINUOUS
 10
132.78794643138681
 20
-6.0515146663981341
 30
0.0
 11
69.274959393830329
 21
-4.3883685692075849
 31
0.0
  0
ARC
  5
432A
  8
241
  6
CONTINUOUS
 10
132.94641091981589
 20
0.0000000000000568
 30
0.0
 40
6.0535890801841994
 50
268.50000000000051
 51
91.499999999999503
  0
ARC
  5
432B
  8
241
  6
CONTINUOUS
 10
69.389872869000328
 20
0.0000000000000568
 30
0.0
 40
4.3898728690003228
 50
91.499999999999503
 51
268.50000000000051
  0
LINE
  5
4334
  8
241
  6
CONTINUOUS
 10
-17.987260476329109
 20
56.750000000000007
 30
0.0
 11
159.98241220842431
 21
56.750000000000007
 31
0.0
  0
LINE
  5
4335
  8
241
  6
CONTINUOUS
 10
-17.987260476329109
 20
55.25
 30
0.0
 11
159.98241220842431
 21
55.25
 31
0.0
  0
CIRCLE
  5
4350
  8
241
  6
CONTINUOUS
 10
0.0000000000002558
 20
0.0
 30
0.0
 40
13.0
  0
CIRCLE
  5
4358
  8
246
 10
0.0
 20
0.0
 30
0.0
 40
10.0
  0
LINE
  5
4359
  8
246
  6
PHANTOM2
 10
-10.0
 20
64.0
 30
0.0
 11
-10.0
 21
48.000000000000043
 31
0.0
  0
LINE
  5
435A
  8
246
  6
PHANTOM2
 10
10.0
 20
63.999999999999993
 30
0.0
 11
10.0
 21
48.000000000000142
 31
0.0
  0
TEXT
  5
4433
  8
241
  6
CONTINUOUS
 10
23.35062468260929
 20
-6.6429494526437622
 30
0.0
 40
2.0
  1
L O C K
 50
90.0
  7
YOKO
 11
22.35062468260929
 21
-6.6429494526437622
 31
0.0
 73
     2
  0
ARC
  5
4434
  8
241
  6
CONTINUOUS
 10
7.2275865880071697
 20
-0.0000000000000284
 30
0.0
 40
17.786005548126951
 50
353.99999999999829
 51
10.364909740214809
  0
ARC
  5
4435
  8
241
  6
CONTINUOUS
 10
7.2275865880071697
 20
-0.0000000000000284
 30
0.0
 40
18.372067424339988
 50
353.99999999999829
 51
10.364909740214809
  0
LINE
  5
4436
  8
241
  6
CONTINUOUS
 10
24.72335731575749
 20
3.1999999999996191
 30
0.0
 11
25.29985574261076
 21
3.305442337730113
 31
0.0
  0
LINE
  5
4437
  8
241
  6
CONTINUOUS
 10
25.011576095930369
 20
-3.2527156025825539
 30
0.0
 11
25.862943381151521
 21
-1.958654924646879
 31
0.0
  0
LINE
  5
4438
  8
241
  6
CONTINUOUS
 10
25.49900990469547
 20
-1.920403974916354
 30
0.0
 11
25.862943381151521
 21
-1.958654924646879
 31
0.0
  0
LINE
  5
4439
  8
241
  6
CONTINUOUS
 10
25.011576095930369
 20
-3.2527156025825539
 30
0.0
 11
24.551745837054511
 21
-1.820842509492308
 31
0.0
  0
LINE
  5
443A
  8
241
  6
CONTINUOUS
 10
24.551745837054511
 20
-1.820842509492308
 30
0.0
 11
24.916158536760982
 21
-1.859143827616065
 31
0.0
  0
TEXT
  5
443C
  8
241
  6
CONTINUOUS
 10
-21.0
 20
91.0
 30
0.0
 40
4.0
  1
MGR20L
  7
YOKO
  0
LINE
  5
443D
  8
250
  6
CONTINUOUS
 10
-10.0
 20
64.5
 30
0.0
 11
-10.0
 21
78.0
 31
0.0
  0
LINE
  5
443E
  8
250
  6
CONTINUOUS
 10
10.0
 20
64.499999999999986
 30
0.0
 11
10.0
 21
78.0
 31
0.0
  0
LINE
  5
443F
  8
250
  6
CONTINUOUS
 10
-7.7699999999999987
 20
77.0
 30
0.0
 11
7.7699999999999987
 21
77.0
 31
0.0
  0
LINE
  5
4443
  8
250
  6
CONTINUOUS
 10
-18.0
 20
0.5
 30
0.0
 11
-18.0
 21
35.999999999999957
 31
0.0
  0
LINE
  5
4444
  8
250
  6
CONTINUOUS
 10
160.0
 20
0.5
 30
0.0
 11
160.0
 21
35.999999999999957
 31
0.0
  0
LINE
  5
4445
  8
250
  6
CONTINUOUS
 10
-15.769999999999991
 20
34.999999999999957
 30
0.0
 11
157.77000000000001
 21
34.999999999999957
 31
0.0
  0
LINE
  5
4449
  8
250
  6
CONTINUOUS
 10
0.0
 20
19.741380387573368
 30
0.0
 11
0.0000000000000006
 21
29.0
 31
0.0
  0
LINE
  5
444A
  8
250
  6
CONTINUOUS
 10
160.0
 20
0.5
 30
0.0
 11
160.0
 21
29.0
 31
0.0
  0
LINE
  5
444B
  8
250
  6
CONTINUOUS
 10
2.23
 20
28.0
 30
0.0
 11
157.77000000000001
 21
28.0
 31
0.0
  0
LINE
  5
444F
  8
250
  6
CONTINUOUS
 10
-18.0
 20
0.5
 30
0.0
 11
-18.0
 21
29.0
 31
0.0
  0
LINE
  5
4450
  8
250
  6
CONTINUOUS
 10
0.0
 20
19.741380387573368
 30
0.0
 11
0.0000000000000006
 21
29.0
 31
0.0
  0
LINE
  5
4451
  8
250
  6
CONTINUOUS
 10
-15.77
 20
28.0
 30
0.0
 11
-2.2299999999999991
 21
28.0
 31
0.0
  0
TEXT
  5
4455
  8
250
  6
CONTINUOUS
 10
-3.9333333333333331
 20
78.000000000000014
 30
0.0
 40
2.7999999999999989
  1
\U+220520
  0
LINE
  5
4456
  8
250
  6
CONTINUOUS
 10
7.7699999999999987
 20
77.371666666666655
 30
0.0
 11
10.0
 21
77.0
 31
0.0
  0
LINE
  5
4457
  8
250
  6
CONTINUOUS
 10
7.7699999999999987
 20
76.62833333333333
 30
0.0
 11
10.0
 21
77.0
 31
0.0
  0
LINE
  5
4458
  8
250
  6
CONTINUOUS
 10
10.0
 20
77.0
 30
0.0
 11
7.7699999999999987
 21
77.0
 31
0.0
  0
LINE
  5
4459
  8
250
  6
CONTINUOUS
 10
-7.7699999999999987
 20
76.62833333333333
 30
0.0
 11
-10.0
 21
77.0
 31
0.0
  0
LINE
  5
445A
  8
250
  6
CONTINUOUS
 10
-7.7699999999999987
 20
77.371666666666655
 30
0.0
 11
-10.0
 21
77.0
 31
0.0
  0
LINE
  5
445B
  8
250
  6
CONTINUOUS
 10
-10.0
 20
77.0
 30
0.0
 11
-7.7699999999999987
 21
77.0
 31
0.0
  0
TEXT
  5
445C
  8
250
  6
CONTINUOUS
 10
66.800000000000026
 20
35.999999999999957
 30
0.0
 40
2.7999999999999989
  1
178
  0
LINE
  5
445D
  8
250
  6
CONTINUOUS
 10
157.77000000000001
 20
35.371666666666627
 30
0.0
 11
160.0
 21
34.999999999999957
 31
0.0
  0
LINE
  5
445E
  8
250
  6
CONTINUOUS
 10
157.77000000000001
 20
34.628333333333288
 30
0.0
 11
160.0
 21
34.999999999999957
 31
0.0
  0
LINE
  5
445F
  8
250
  6
CONTINUOUS
 10
160.0
 20
34.999999999999957
 30
0.0
 11
157.77000000000001
 21
34.999999999999957
 31
0.0
  0
LINE
  5
4460
  8
250
  6
CONTINUOUS
 10
-15.769999999999991
 20
34.628333333333288
 30
0.0
 11
-18.0
 21
34.999999999999957
 31
0.0
  0
LINE
  5
4461
  8
250
  6
CONTINUOUS
 10
-15.769999999999991
 20
35.371666666666627
 30
0.0
 11
-18.0
 21
34.999999999999957
 31
0.0
  0
LINE
  5
4462
  8
250
  6
CONTINUOUS
 10
-18.0
 20
34.999999999999957
 30
0.0
 11
-15.769999999999991
 21
34.999999999999957
 31
0.0
  0
TEXT
  5
4463
  8
250
  6
CONTINUOUS
 10
75.800000000000026
 20
29.0
 30
0.0
 40
2.7999999999999989
  1
160
  0
LINE
  5
4464
  8
250
  6
CONTINUOUS
 10
157.77000000000001
 20
28.371666666666659
 30
0.0
 11
160.0
 21
28.0
 31
0.0
  0
LINE
  5
4465
  8
250
  6
CONTINUOUS
 10
157.77000000000001
 20
27.62833333333333
 30
0.0
 11
160.0
 21
28.0
 31
0.0
  0
LINE
  5
4466
  8
250
  6
CONTINUOUS
 10
160.0
 20
28.0
 30
0.0
 11
157.77000000000001
 21
28.0
 31
0.0
  0
LINE
  5
4467
  8
250
  6
CONTINUOUS
 10
2.23
 20
27.62833333333333
 30
0.0
 11
0.0000000000000005
 21
28.0
 31
0.0
  0
LINE
  5
4468
  8
250
  6
CONTINUOUS
 10
2.23
 20
28.371666666666659
 30
0.0
 11
0.0000000000000005
 21
28.0
 31
0.0
  0
LINE
  5
4469
  8
250
  6
CONTINUOUS
 10
0.0000000000000005
 20
28.0
 30
0.0
 11
2.23
 21
28.0
 31
0.0
  0
TEXT
  5
446A
  8
250
  6
CONTINUOUS
 10
-11.86666666666666
 20
29.0
 30
0.0
 40
2.7999999999999989
  1
18
  0
LINE
  5
446B
  8
250
  6
CONTINUOUS
 10
-2.2299999999999991
 20
28.371666666666659
 30
0.0
 11
0.0000000000000005
 21
28.0
 31
0.0
  0
LINE
  5
446C
  8
250
  6
CONTINUOUS
 10
-2.2299999999999991
 20
27.62833333333333
 30
0.0
 11
0.0000000000000005
 21
28.0
 31
0.0
  0
LINE
  5
446D
  8
250
  6
CONTINUOUS
 10
0.0000000000000005
 20
28.0
 30
0.0
 11
-2.2299999999999991
 21
28.0
 31
0.0
  0
LINE
  5
446E
  8
250
  6
CONTINUOUS
 10
-15.77
 20
27.62833333333333
 30
0.0
 11
-18.0
 21
28.0
 31
0.0
  0
LINE
  5
446F
  8
250
  6
CONTINUOUS
 10
-15.77
 20
28.371666666666659
 30
0.0
 11
-18.0
 21
28.0
 31
0.0
  0
LINE
  5
4470
  8
250
  6
CONTINUOUS
 10
-18.0
 20
28.0
 30
0.0
 11
-15.77
 21
28.0
 31
0.0
  0
VIEWPORT
  5
22
 67
     1
  8
0
 10
261.51769911504419
 20
148.5
 30
0.0
 40
523.0353982300885
 41
297.0
 68
     1
 69
     1
1001
ACAD
1000
MVIEW
1002
{
1070
    16
1010
0.0
1020
0.0
1030
0.0
1010
0.0
1020
0.0
1030
1.0
1040
0.0
1040
297.0
1040
261.51769911504419
1040
148.5
1040
50.0
1040
0.0
1040
0.0
1070
     0
1070
   100
1070
     1
1070
     1
1070
     0
1070
     0
1070
     0
1070
     0
1040
0.0
1040
0.0
1040
0.0
1040
1.0
1040
1.0
1040
10.0
1040
10.0
1070
     0
1002
{
1002
}
1002
}
1001
GENIUS_GENODEF_13
1002
{
1000
HIER
1070
     0
1002
}
1002
{
1000
MANEDIT
1070
     0
1002
}
1002
{
1000
NOSEL
1070
     0
1002
}
1002
{
1000
BEHIND
1070
     0
1002
}
1002
{
1000
OTHER
1070
     0
1002
}
1002
{
1000
REACTOR
1002
}
1001
GENIUS_GENOBJ-N-SDF_13
1002
{
1000
OWNER
1000
GEN
1002
}
1001
GENIUS_GENSCREG_15
1000
PF
1040
1.0
1000
DF
1040
1.0
1000
MIN
1011
0.0
1021
0.0
1031
0.0
1021
0.0
1031
0.0
1000
MAX
1011
523.0353982300885
1021
0.0
1031
0.0
1021
297.0
1031
0.0
1000
FLAGS
1070
     4
  0
ENDSEC
  0
EOF
