  0
SECTION
  2
HEADER
  9
$ACADVER
  1
AC1009
  9
$INSBASE
 10
0.0
 20
0.0
 30
0.0
  9
$EXTMIN
 10
-19.873790119424541
 20
-19.4514383227596
 30
0.0
  9
$EXTMAX
 10
93.772085641890456
 20
95.000000000000057
 30
0.0
  9
$LIMMIN
 10
0.0
 20
0.0
  9
$LIMMAX
 10
297.0
 20
210.0
  9
$ORTHOMODE
 70
     0
  9
$REGENMODE
 70
     1
  9
$FILLMODE
 70
     1
  9
$QTEXTMODE
 70
     0
  9
$MIRRTEXT
 70
     1
  9
$DRAGMODE
 70
     2
  9
$LTSCALE
 40
10.0
  9
$OSMODE
 70
    37
  9
$ATTMODE
 70
     1
  9
$TEXTSIZE
 40
3.0
  9
$TRACEWID
 40
1.0
  9
$TEXTSTYLE
  7
YOKO
  9
$CLAYER
  8
240
  9
$CELTYPE
  6
BYLAYER
  9
$CECOLOR
 62
   256
  9
$DIMSCALE
 40
1.0
  9
$DIMASZ
 40
2.2299999999999991
  9
$DIMEXO
 40
0.5
  9
$DIMDLI
 40
7.0
  9
$DIMRND
 40
0.0
  9
$DIMDLE
 40
0.0
  9
$DIMEXE
 40
1.0
  9
$DIMTP
 40
0.0
  9
$DIMTM
 40
0.01
  9
$DIMTXT
 40
2.7999999999999989
  9
$DIMCEN
 40
0.0
  9
$DIMTSZ
 40
0.0
  9
$DIMTOL
 70
     0
  9
$DIMLIM
 70
     0
  9
$DIMTIH
 70
     0
  9
$DIMTOH
 70
     0
  9
$DIMSE1
 70
     0
  9
$DIMSE2
 70
     0
  9
$DIMTAD
 70
     3
  9
$DIMZIN
 70
     9
  9
$DIMBLK
  1
OPEN
  9
$DIMASO
 70
     1
  9
$DIMSHO
 70
     1
  9
$DIMPOST
  1

  9
$DIMAPOST
  1

  9
$DIMALT
 70
     0
  9
$DIMALTD
 70
     2
  9
$DIMALTF
 40
25.399999999999999
  9
$DIMLFAC
 40
1.0
  9
$DIMTOFL
 70
     1
  9
$DIMTVP
 40
0.0
  9
$DIMTIX
 70
     1
  9
$DIMSOXD
 70
     0
  9
$DIMSAH
 70
     0
  9
$DIMBLK1
  1

  9
$DIMBLK2
  1

  9
$DIMSTYLE
  2
BIGT
  9
$DIMCLRD
 70
   256
  9
$DIMCLRE
 70
   256
  9
$DIMCLRT
 70
    40
  9
$DIMTFAC
 40
1.0
  9
$DIMGAP
 40
1.0
  9
$LUNITS
 70
     2
  9
$LUPREC
 70
     6
  9
$SKETCHINC
 40
1.0
  9
$FILLETRAD
 40
0.0
  9
$AUNITS
 70
     0
  9
$AUPREC
 70
     6
  9
$MENU
  1
.
  9
$ELEVATION
 40
0.0
  9
$PELEVATION
 40
0.0
  9
$THICKNESS
 40
0.0
  9
$LIMCHECK
 70
     0
  9
$BLIPMODE
 70
     0
  9
$CHAMFERA
 40
0.2
  9
$CHAMFERB
 40
0.2
  9
$SKPOLY
 70
     0
  9
$TDCREATE
 40
2459494.5191262378
  9
$TDUPDATE
 40
2459494.5260872338
  9
$TDINDWG
 40
0.0068877083
  9
$TDUSRTIMER
 40
0.0068876389
  9
$USRTIMER
 70
     1
  9
$ANGBASE
 50
0.0
  9
$ANGDIR
 70
     0
  9
$PDMODE
 70
     1
  9
$PDSIZE
 40
0.0
  9
$PLINEWID
 40
0.0
  9
$COORDS
 70
     1
  9
$SPLFRAME
 70
     0
  9
$SPLINETYPE
 70
     6
  9
$SPLINESEGS
 70
     4
  9
$ATTDIA
 70
     1
  9
$ATTREQ
 70
     1
  9
$HANDLING
 70
     1
  9
$HANDSEED
  5
467C
  9
$SURFTAB1
 70
     6
  9
$SURFTAB2
 70
     6
  9
$SURFTYPE
 70
     6
  9
$SURFU
 70
     6
  9
$SURFV
 70
     6
  9
$UCSNAME
  2

  9
$UCSORG
 10
0.0
 20
0.0
 30
0.0
  9
$UCSXDIR
 10
1.0
 20
0.0
 30
0.0
  9
$UCSYDIR
 10
0.0
 20
1.0
 30
0.0
  9
$PUCSNAME
  2

  9
$PUCSORG
 10
0.0
 20
0.0
 30
0.0
  9
$PUCSXDIR
 10
1.0
 20
0.0
 30
0.0
  9
$PUCSYDIR
 10
0.0
 20
1.0
 30
0.0
  9
$USERI1
 70
     1
  9
$USERI2
 70
     0
  9
$USERI3
 70
     0
  9
$USERI4
 70
     0
  9
$USERI5
 70
     0
  9
$USERR1
 40
0.0
  9
$USERR2
 40
0.0
  9
$USERR3
 40
0.0
  9
$USERR4
 40
0.0
  9
$USERR5
 40
0.0
  9
$WORLDVIEW
 70
     1
  9
$SHADEDGE
 70
     3
  9
$SHADEDIF
 70
    70
  9
$TILEMODE
 70
     1
  9
$MAXACTVP
 70
    16
  9
$PLIMCHECK
 70
     0
  9
$PEXTMIN
 10
1.0000000000000000E+020
 20
1.0000000000000000E+020
 30
1.0000000000000000E+020
  9
$PEXTMAX
 10
-1.0000000000000000E+020
 20
-1.0000000000000000E+020
 30
-1.0000000000000000E+020
  9
$PLIMMIN
 10
0.0
 20
0.0
  9
$PLIMMAX
 10
420.0
 20
297.0
  9
$UNITMODE
 70
     0
  9
$VISRETAIN
 70
     1
  9
$PLINEGEN
 70
     0
  9
$PSLTSCALE
 70
     1
  0
ENDSEC
  0
SECTION
  2
TABLES
  0
TABLE
  2
VPORT
 70
     1
  0
VPORT
  2
*ACTIVE
 70
     0
 10
0.0
 20
0.0
 11
1.0
 21
1.0
 12
54.149369296092679
 22
39.390112235403812
 13
0.0
 23
0.0
 14
7.0
 24
7.0
 15
7.0
 25
7.0
 16
0.0
 26
0.0
 36
1.0
 17
0.0
 27
0.0
 37
0.0
 40
152.2887907579989
 41
1.758883248730964
 42
50.0
 43
0.0
 44
0.0
 50
0.0
 51
0.0
 71
     0
 72
  2000
 73
     1
 74
     0
 75
     1
 76
     1
 77
     0
 78
     0
  0
ENDTAB
  0
TABLE
  2
LTYPE
 70
    13
  0
LTYPE
  2
CONTINUOUS
 70
     0
  3
Solid line
 72
    65
 73
     0
 40
0.0
  0
LTYPE
  2
CENTER2
 70
     0
  3
___ _ ___ _ ___ _ ___ _ ___ _ ___ _ ___ _ ___ _
 72
    65
 73
     4
 40
1.125
 49
0.75
 49
-0.125
 49
0.125
 49
-0.125
  0
LTYPE
  2
HIDDEN2
 70
     0
  3
_ _ _ _ _ _ _ _ _ _ _ _ _ _ _ _ _ _ _ _ _ _ _ _
 72
    65
 73
     2
 40
0.1875
 49
0.125
 49
-0.0625
  0
LTYPE
  2
PHANTOM2
 70
     0
  3
___ _ _ ___ _ _ ___ _ _ ___ _ _ ___ _ _ ___ _ _
 72
    65
 73
     6
 40
1.25
 49
0.625
 49
-0.125
 49
0.125
 49
-0.125
 49
0.125
 49
-0.125
  0
LTYPE
  2
AM_ISO02W050
 70
     0
  3
__ __ __ __ __ __ __ __ __ __ __ __ __ __ __
 72
    65
 73
     2
 40
7.5
 49
6.0
 49
-1.5
  0
LTYPE
  2
AMCONSTR
 70
     0
  3
_______________________
 72
    65
 73
     2
 40
9999.0
 49
9999.0
 49
0.0
  0
LTYPE
  2
ACISOWELD
 70
     0
  3
_ _ _ _ _
 72
    65
 73
     2
 40
2.0
 49
2.0
 49
-1.0
  0
LTYPE
  2
ACISOTGB
 70
     0
  3
__ . . __ . .
 72
    65
 73
     6
 40
9.0
 49
4.0
 49
-1.0
 49
1.0
 49
-1.0
 49
1.0
 49
-1.0
  0
LTYPE
  2
ACISOTGL
 70
     0
  3
_ _ _ _ _
 72
    65
 73
     2
 40
3.0
 49
2.0
 49
-1.0
  0
LTYPE
  2
ACJISTGB
 70
     0
  3
__ . . __ . .
 72
    65
 73
     6
 40
9.0
 49
4.0
 49
-1.0
 49
1.0
 49
-1.0
 49
1.0
 49
-1.0
  0
LTYPE
  2
ACJISTGL
 70
     0
  3
_ _ _ _ _
 72
    65
 73
     2
 40
3.0
 49
2.0
 49
-1.0
  0
ENDTAB
  0
TABLE
  2
LAYER
 70
     7
  0
LAYER
  2
0
 70
     0
 62
     7
  6
CONTINUOUS
  0
LAYER
  2
DEFPOINTS
 70
     0
 62
     7
  6
CONTINUOUS
  0
LAYER
  2
245
 70
     0
 62
     2
  6
CENTER2
  0
LAYER
  2
240
 70
     0
 62
     4
  6
CONTINUOUS
  0
LAYER
  2
241
 70
     0
 62
   211
  6
CONTINUOUS
  0
LAYER
  2
246
 70
     0
 62
     3
  6
PHANTOM2
  0
LAYER
  2
250
 70
     0
 62
     3
  6
CONTINUOUS
  0
ENDTAB
  0
TABLE
  2
STYLE
 70
     6
  0
STYLE
  2
STANDARD
 70
     0
 40
0.0
 41
1.0
 50
0.0
 71
     0
 42
3.0
  3
romans.shx
  4
extfont.shx
  0
STYLE
  2
ACISOTS
 70
     0
 40
1.0
 41
1.0
 50
0.0
 71
     0
 42
3.0
  3
amgdt.shx
  4
extfont.shx
  0
STYLE
  2
ACISOGDT
 70
     0
 40
0.0
 41
1.0
 50
0.0
 71
     0
 42
3.0
  3
amgdt.shx
  4
extfont.shx
  0
STYLE
  2
ACJISTS
 70
     0
 40
1.0
 41
1.0
 50
0.0
 71
     0
 42
3.0
  3
amgdt.shx
  4
extfont.shx
  0
STYLE
  2
ACJISGDT
 70
     0
 40
0.0
 41
1.0
 50
0.0
 71
     0
 42
3.0
  3
amgdt.shx
  4
extfont.shx
  0
STYLE
  2
YOKO
 70
     0
 40
0.0
 41
1.0
 50
0.0
 71
     0
 42
3.0
  3
romans.shx
  4
extfont.shx
  0
ENDTAB
  0
TABLE
  2
VIEW
 70
     0
  0
ENDTAB
  0
TABLE
  2
UCS
 70
     0
  0
ENDTAB
  0
TABLE
  2
APPID
 70
    38
  0
APPID
  2
ACAD
 70
     0
  0
APPID
  2
GLOBAL
 70
     0
  0
APPID
  2
DETAIL
 70
     0
  0
APPID
  2
GRPNAME
 70
     0
  0
APPID
  2
GPARA
 70
     0
  0
APPID
  2
MCAD_NO_VIS
 70
     0
  0
APPID
  2
ACAD_TEMP_GRAPHIC
 70
     0
  0
APPID
  2
ACATTRIBSERVICES
 70
     0
  0
APPID
  2
GENIUS_GENSCREG_15
 70
     0
  0
APPID
  2
GENIUS_GENODEF_13
 70
     0
  0
APPID
  2
GENIUS_GENOBJ-N-SDF_13
 70
     0
  0
APPID
  2
GENIUS_GENREC_14
 70
     0
  0
APPID
  2
GENIUS_GENOBJ-N-REC_13
 70
     0
  0
APPID
  2
GENIUS_GENDIMSH_14
 70
     0
  0
APPID
  2
GENIUS_GENOBJ-N-DIM_13
 70
     0
  0
APPID
  2
GENIUS_GENDIM_13
 70
     0
  0
APPID
  2
GENIUS_GENDTOL_13
 70
     0
  0
APPID
  2
GENIUS_GENOLIS_13
 70
     0
  0
APPID
  2
GENIUS_GENOENT_13
 70
     0
  0
APPID
  2
GENIUS_GENOBJ-F-FEM_13
 70
     0
  0
APPID
  2
GENIUS_GENOREF_13
 70
     0
  0
APPID
  2
GENIUS_GEFFEM_13
 70
     0
  0
APPID
  2
GENIUS_GEFFEMP_13
 70
     0
  0
APPID
  2
AD_DRAW
 70
     0
  0
APPID
  2
DESIGNERASSEMBLIES
 70
     0
  0
APPID
  2
ACADM_DIM_EDIT
 70
     0
  0
APPID
  2
AMDT_DM_ADJ
 70
     0
  0
APPID
  2
ITEMNAME
 70
     0
  0
APPID
  2
GENIUS_GENOBJ-N-FIL_13
 70
     0
  0
APPID
  2
GENIUS_GENFIL_13
 70
     0
  0
APPID
  2
GENIUS_GENOBJ-N-CHA_13
 70
     0
  0
APPID
  2
ACAD_NAV_VCDISPLAY
 70
     0
  0
APPID
  2
ACAECLAYERSTANDARD
 70
     0
  0
APPID
  2
LAYER_SCALE
 70
     0
  0
APPID
  2
ACAD_PSEXT
 70
     0
  0
APPID
  2
ACAD_EXEMPT_FROM_CAD_STANDARDS
 70
     0
  0
APPID
  2
ACAD_DSTYLE_DIMINSPECT
 70
     0
  0
APPID
  2
ACAD_MLEADERVER
 70
     0
  0
ENDTAB
  0
TABLE
  2
DIMSTYLE
 70
    24
  0
DIMSTYLE
  2
BIGT
 70
     0
  3

  4

  5
OPEN
  6

  7

 40
1.0
 41
2.2299999999999991
 42
0.5
 43
7.0
 44
1.0
 45
0.0
 46
0.0
 47
0.0
 48
0.01
140
2.7999999999999989
141
0.0
142
0.0
143
25.399999999999999
144
1.0
145
0.0
146
1.0
147
1.0
 71
     0
 72
     0
 73
     0
 74
     0
 75
     0
 76
     0
 77
     3
 78
     9
170
     0
171
     2
172
     1
173
     0
174
     1
175
     0
176
   256
177
   256
178
    40
  0
DIMSTYLE
  2
AM_ISO
 70
     0
  3

  4
"
  5

  6

  7

 40
1.0
 41
2.5
 42
1.0
 43
10.0
 44
1.0
 45
0.0
 46
0.0
 47
0.1
 48
0.1
140
3.5
141
0.0
142
0.0
143
0.0393701
144
1.0
145
0.0
146
0.71
147
1.5
 71
     0
 72
     0
 73
     0
 74
     0
 75
     0
 76
     0
 77
     1
 78
     8
170
     0
171
     2
172
     1
173
     0
174
     0
175
     0
176
   256
177
   256
178
     2
  0
DIMSTYLE
  2
AM_ISO$3
 70
     0
  3

  4
"
  5

  6

  7

 40
1.0
 41
2.5
 42
1.0
 43
10.0
 44
1.0
 45
0.0
 46
0.0
 47
0.1
 48
0.1
140
3.5
141
0.0
142
0.0
143
0.0393701
144
1.0
145
0.0
146
0.71
147
1.5
 71
     0
 72
     0
 73
     0
 74
     1
 75
     0
 76
     0
 77
     1
 78
     8
170
     0
171
     2
172
     0
173
     0
174
     0
175
     0
176
   256
177
   256
178
     2
  0
DIMSTYLE
  2
AM_ISO$4
 70
     0
  3

  4
"
  5

  6

  7

 40
1.0
 41
2.5
 42
1.0
 43
10.0
 44
1.0
 45
0.0
 46
0.0
 47
0.1
 48
0.1
140
3.5
141
0.0
142
0.0
143
0.0393701
144
1.0
145
0.0
146
0.71
147
1.5
 71
     0
 72
     0
 73
     0
 74
     1
 75
     0
 76
     0
 77
     1
 78
     8
170
     0
171
     2
172
     0
173
     0
174
     0
175
     0
176
   256
177
   256
178
     2
  0
DIMSTYLE
  2
AM_ISO$6
 70
     0
  3

  4
"
  5

  6

  7

 40
1.0
 41
2.5
 42
1.0
 43
10.0
 44
1.0
 45
0.0
 46
0.0
 47
0.1
 48
0.1
140
3.5
141
0.0
142
0.0
143
0.0393701
144
1.0
145
0.0
146
0.71
147
1.5
 71
     0
 72
     0
 73
     0
 74
     0
 75
     0
 76
     0
 77
     0
 78
     8
170
     0
171
     2
172
     1
173
     0
174
     0
175
     0
176
   256
177
   256
178
     2
  0
DIMSTYLE
  2
AM_ISO$7
 70
     0
  3

  4
"
  5

  6

  7

 40
1.0
 41
2.5
 42
1.0
 43
10.0
 44
1.0
 45
0.0
 46
0.0
 47
0.1
 48
0.1
140
5.0
141
0.0
142
0.0
143
0.0393701
144
1.0
145
0.0
146
0.71
147
1.5
 71
     0
 72
     0
 73
     0
 74
     0
 75
     0
 76
     0
 77
     1
 78
     8
170
     0
171
     2
172
     1
173
     0
174
     0
175
     0
176
   256
177
   256
178
     2
  0
DIMSTYLE
  2
AM_ISO$SF
 70
     0
  3

  4
"
  5

  6

  7

 40
1.0
 41
2.5
 42
1.0
 43
10.0
 44
1.0
 45
0.0
 46
0.0
 47
0.1
 48
0.1
140
3.5
141
0.0
142
0.0
143
0.0393701
144
1.0
145
0.0
146
0.71
147
1.5
 71
     0
 72
     0
 73
     0
 74
     0
 75
     1
 76
     1
 77
     1
 78
     8
170
     0
171
     2
172
     1
173
     0
174
     0
175
     0
176
   256
177
   256
178
     2
  0
DIMSTYLE
  2
AM_ISO$SH
 70
     0
  3

  4
"
  5

  6
GENAXEH
  7

 40
1.0
 41
2.5
 42
1.0
 43
10.0
 44
1.0
 45
0.0
 46
0.0
 47
0.1
 48
0.1
140
3.5
141
0.0
142
0.0
143
0.0393701
144
2.0
145
0.0
146
0.71
147
1.5
 71
     0
 72
     0
 73
     0
 74
     0
 75
     1
 76
     1
 77
     1
 78
     8
170
     0
171
     2
172
     1
173
     1
174
     0
175
     0
176
   256
177
   256
178
     2
  0
DIMSTYLE
  2
BIGT$2
 70
     0
  3

  4

  5
OPEN
  6

  7

 40
1.0
 41
2.2299999999999991
 42
0.5
 43
7.0
 44
1.0
 45
0.0
 46
0.0
 47
0.0
 48
0.01
140
2.7999999999999989
141
0.0
142
0.0
143
25.399999999999999
144
1.0
145
0.0
146
1.0
147
1.0
 71
     0
 72
     0
 73
     0
 74
     0
 75
     0
 76
     0
 77
     3
 78
     9
170
     0
171
     2
172
     1
173
     0
174
     0
175
     0
176
   256
177
   256
178
    40
  0
DIMSTYLE
  2
BIGT$3
 70
     0
  3

  4

  5
OPEN
  6

  7

 40
1.0
 41
2.2299999999999991
 42
0.5
 43
2.5
 44
1.0
 45
0.0
 46
0.0
 47
0.0
 48
0.01
140
2.7999999999999989
141
0.0
142
0.0
143
25.399999999999999
144
1.0
145
0.0
146
1.0
147
1.0
 71
     0
 72
     0
 73
     0
 74
     0
 75
     0
 76
     0
 77
     3
 78
     9
170
     0
171
     2
172
     1
173
     0
174
     0
175
     0
176
   256
177
   256
178
    40
  0
DIMSTYLE
  2
BIGT$7
 70
     0
  3

  4

  5
OPEN
  6

  7

 40
0.0
 41
2.2299999999999991
 42
0.5
 43
7.0
 44
1.0
 45
0.0
 46
0.0
 47
0.0
 48
0.01
140
2.7999999999999989
141
0.0
142
0.0
143
25.399999999999999
144
1.0
145
0.0
146
1.0
147
1.0
 71
     0
 72
     0
 73
     0
 74
     0
 75
     0
 76
     0
 77
     3
 78
     9
170
     0
171
     2
172
     0
173
     0
174
     0
175
     0
176
   256
177
   256
178
    40
  0
DIMSTYLE
  2
BIGT$6
 70
     0
  3

  4

  5
OPEN
  6

  7

 40
1.0
 41
2.2299999999999991
 42
0.5
 43
2.5
 44
1.0
 45
0.0
 46
0.0
 47
0.0
 48
0.01
140
2.7999999999999989
141
0.0
142
0.0
143
25.399999999999999
144
1.0
145
0.0
146
1.0
147
1.0
 71
     0
 72
     0
 73
     0
 74
     0
 75
     0
 76
     0
 77
     3
 78
     9
170
     0
171
     2
172
     1
173
     0
174
     0
175
     0
176
   256
177
   256
178
    40
  0
DIMSTYLE
  2
BIGT$0
 70
     0
  3

  4

  5
OPEN
  6

  7

 40
1.0
 41
2.2299999999999991
 42
0.5
 43
7.0
 44
1.0
 45
0.0
 46
0.0
 47
0.0
 48
0.01
140
2.7999999999999989
141
0.0
142
0.0
143
25.399999999999999
144
1.0
145
0.0
146
1.0
147
1.0
 71
     0
 72
     0
 73
     0
 74
     0
 75
     0
 76
     0
 77
     3
 78
     9
170
     0
171
     2
172
     1
173
     0
174
     1
175
     0
176
   256
177
   256
178
    40
  0
DIMSTYLE
  2
BIGT$4
 70
     0
  3

  4

  5
OPEN
  6

  7

 40
1.0
 41
2.2299999999999991
 42
0.5
 43
2.5
 44
1.0
 45
0.0
 46
0.0
 47
0.0
 48
0.01
140
2.7999999999999989
141
0.0
142
0.0
143
25.399999999999999
144
1.0
145
0.0
146
1.0
147
1.0
 71
     0
 72
     0
 73
     0
 74
     0
 75
     0
 76
     0
 77
     3
 78
     9
170
     0
171
     2
172
     1
173
     0
174
     0
175
     0
176
   256
177
   256
178
    40
  0
DIMSTYLE
  2
BIGT$SH
 70
     0
  3

  4

  5
OPEN
  6

  7

 40
1.0
 41
2.2299999999999991
 42
0.5
 43
7.0
 44
1.0
 45
0.0
 46
0.0
 47
0.0
 48
0.0
140
2.7999999999999989
141
0.0
142
0.0
143
25.399999999999999
144
1.0
145
0.0
146
1.0
147
1.0
 71
     0
 72
     0
 73
     0
 74
     0
 75
     0
 76
     0
 77
     3
 78
     9
170
     0
171
     2
172
     1
173
     0
174
     0
175
     0
176
   256
177
   256
178
    40
  0
DIMSTYLE
  2
BIGT$SF
 70
     0
  3

  4

  5
OPEN
  6

  7

 40
1.0
 41
2.2299999999999991
 42
0.5
 43
7.0
 44
1.0
 45
0.0
 46
0.0
 47
0.0
 48
0.0
140
2.7999999999999989
141
0.0
142
0.0
143
25.399999999999999
144
1.0
145
0.0
146
1.0
147
1.0
 71
     0
 72
     0
 73
     0
 74
     0
 75
     0
 76
     0
 77
     3
 78
     9
170
     0
171
     2
172
     1
173
     0
174
     0
175
     0
176
   256
177
   256
178
    40
  0
DIMSTYLE
  2
TECHNICAL_OSAKA
 70
     0
  3

  4
"
  5
OPEN30
  6

  7

 40
1.0
 41
2.5
 42
1.0
 43
10.0
 44
1.0
 45
0.0
 46
0.0
 47
0.1
 48
0.1
140
2.7999999999999989
141
0.0
142
0.0
143
0.0393701
144
1.0
145
0.0
146
0.71
147
1.5
 71
     0
 72
     0
 73
     0
 74
     0
 75
     0
 76
     0
 77
     3
 78
     8
170
     0
171
     2
172
     1
173
     0
174
     0
175
     0
176
   256
177
   256
178
    40
  0
DIMSTYLE
  2
TECHNICAL_OSAKA$3
 70
     0
  3

  4
"
  5
OPEN30
  6

  7

 40
1.0
 41
2.5
 42
1.0
 43
10.0
 44
1.0
 45
0.0
 46
0.0
 47
0.1
 48
0.1
140
2.7999999999999989
141
0.0
142
0.0
143
0.0393701
144
1.0
145
0.0
146
0.71
147
1.5
 71
     0
 72
     0
 73
     0
 74
     1
 75
     0
 76
     0
 77
     3
 78
     8
170
     0
171
     2
172
     0
173
     0
174
     0
175
     0
176
   256
177
   256
178
    40
  0
DIMSTYLE
  2
TECHNICAL_OSAKA$4
 70
     0
  3

  4
"
  5
OPEN30
  6

  7

 40
1.0
 41
2.5
 42
1.0
 43
10.0
 44
1.0
 45
0.0
 46
0.0
 47
0.1
 48
0.1
140
2.7999999999999989
141
0.0
142
0.0
143
0.0393701
144
1.0
145
0.0
146
0.71
147
1.5
 71
     0
 72
     0
 73
     0
 74
     1
 75
     0
 76
     0
 77
     3
 78
     8
170
     0
171
     2
172
     0
173
     0
174
     0
175
     0
176
   256
177
   256
178
    40
  0
DIMSTYLE
  2
TECHNICAL_OSAKA$6
 70
     0
  3

  4
"
  5
OPEN30
  6

  7

 40
1.0
 41
2.5
 42
1.0
 43
10.0
 44
1.0
 45
0.0
 46
0.0
 47
0.1
 48
0.1
140
2.7999999999999989
141
0.0
142
0.0
143
0.0393701
144
1.0
145
0.0
146
0.71
147
1.5
 71
     0
 72
     0
 73
     0
 74
     0
 75
     0
 76
     0
 77
     0
 78
     8
170
     0
171
     2
172
     1
173
     0
174
     0
175
     0
176
   256
177
   256
178
    40
  0
DIMSTYLE
  2
TECHNICAL_OSAKA$7
 70
     0
  3

  4
"
  5
OPEN30
  6

  7

 40
1.0
 41
2.5
 42
1.0
 43
10.0
 44
1.0
 45
0.0
 46
0.0
 47
0.1
 48
0.1
140
2.7999999999999989
141
0.0
142
0.0
143
0.0393701
144
1.0
145
0.0
146
0.71
147
1.5
 71
     0
 72
     0
 73
     0
 74
     0
 75
     0
 76
     0
 77
     3
 78
     8
170
     0
171
     2
172
     1
173
     0
174
     0
175
     0
176
   256
177
   256
178
    40
  0
DIMSTYLE
  2
TECHNICAL_OSAKA$SF
 70
     0
  3

  4
"
  5
OPEN30
  6
OPEN30
  7
OPEN30
 40
1.0
 41
2.5
 42
1.0
 43
10.0
 44
1.0
 45
0.0
 46
0.0
 47
0.1
 48
0.1
140
3.5
141
0.0
142
0.0
143
0.0393701
144
1.0
145
0.0
146
0.71
147
1.5
 71
     0
 72
     0
 73
     0
 74
     0
 75
     1
 76
     1
 77
     3
 78
     8
170
     0
171
     2
172
     1
173
     0
174
     0
175
     0
176
   256
177
   256
178
    40
  0
DIMSTYLE
  2
TECHNICAL_OSAKA$SH
 70
     0
  3

  4
"
  5
OPEN30
  6
GENAXEH
  7
OPEN30
 40
1.0
 41
2.5
 42
1.0
 43
10.0
 44
1.0
 45
0.0
 46
0.0
 47
0.1
 48
0.1
140
3.5
141
0.0
142
0.0
143
0.0393701
144
2.0
145
0.0
146
0.71
147
1.5
 71
     0
 72
     0
 73
     0
 74
     0
 75
     1
 76
     1
 77
     3
 78
     8
170
     0
171
     2
172
     1
173
     1
174
     0
175
     0
176
   256
177
   256
178
    40
  0
DIMSTYLE
  2
STANDARD
 70
     0
  3

  4

  5

  6

  7

 40
1.0
 41
0.18
 42
0.0625
 43
0.38
 44
0.18
 45
0.0
 46
0.0
 47
0.0
 48
0.0
140
0.18
141
0.09
142
0.0
143
25.399999999999999
144
1.0
145
0.0
146
1.0
147
0.09
 71
     0
 72
     0
 73
     1
 74
     1
 75
     0
 76
     0
 77
     0
 78
     0
170
     0
171
     2
172
     0
173
     0
174
     0
175
     0
176
     0
177
     0
178
     0
  0
ENDTAB
  0
ENDSEC
  0
SECTION
  2
BLOCKS
  0
BLOCK
  8
0
  2
$MODEL_SPACE
 70
     0
 10
0.0
 20
0.0
 30
0.0
  3
$MODEL_SPACE
  1

  0
ENDBLK
  5
1C
  8
0
  0
BLOCK
 67
     1
  8
0
  2
$PAPER_SPACE
 70
     0
 10
0.0
 20
0.0
 30
0.0
  3
$PAPER_SPACE
  1

  0
ENDBLK
  5
19
 67
     1
  8
0
  0
BLOCK
  8
0
  2
_OPEN
 70
     0
 10
0.0
 20
0.0
 30
0.0
  3
_OPEN
  1

  0
LINE
  5
4583
  8
0
  6
BYBLOCK
 62
     0
 10
-1.0
 20
0.1666666666666666
 30
0.0
 11
0.0
 21
0.0
 31
0.0
  0
LINE
  5
4584
  8
0
  6
BYBLOCK
 62
     0
 10
-1.0
 20
-0.1666666666666666
 30
0.0
 11
0.0
 21
0.0
 31
0.0
  0
LINE
  5
4585
  8
0
  6
BYBLOCK
 62
     0
 10
0.0
 20
0.0
 30
0.0
 11
-1.0
 21
0.0
 31
0.0
  0
ENDBLK
  5
4586
  8
0
  0
BLOCK
  8
0
  2
GENAXEH
 70
     0
 10
0.0
 20
0.0
 30
0.0
  3
GENAXEH
  1

  0
LINE
  5
45BE
  8
0
 10
-1.0
 20
0.0
 30
0.0
 11
1.0
 21
0.0
 31
0.0
  0
ENDBLK
  5
45BF
  8
0
  0
BLOCK
  8
0
  2
_OPEN30
 70
     0
 10
0.0
 20
0.0
 30
0.0
  3
_OPEN30
  1

  0
LINE
  5
45FA
  8
0
  6
BYBLOCK
 62
     0
 10
-1.0
 20
0.26794919
 30
0.0
 11
0.0
 21
0.0
 31
0.0
  0
LINE
  5
45FB
  8
0
  6
BYBLOCK
 62
     0
 10
0.0
 20
0.0
 30
0.0
 11
-1.0
 21
-0.26794919
 31
0.0
  0
LINE
  5
45FC
  8
0
  6
BYBLOCK
 62
     0
 10
0.0
 20
0.0
 30
0.0
 11
-1.0
 21
0.0
 31
0.0
  0
ENDBLK
  5
45FD
  8
0
  0
ENDSEC
  0
SECTION
  2
ENTITIES
  0
LINE
  5
42BF
  8
245
  6
CENTER2
 10
-18.89593761734255
 20
55.985717872561018
 30
0.0
 11
93.772085641890456
 21
55.985717872561018
 31
0.0
  0
LINE
  5
42C0
  8
241
  6
CONTINUOUS
 10
-18.0
 20
56.485717872561018
 30
0.0
 11
90.300000000000011
 21
56.485717872561018
 31
0.0
  0
LINE
  5
42C1
  8
241
  6
CONTINUOUS
 10
-18.0
 20
55.485717872561018
 30
0.0
 11
90.300000000000011
 21
55.485717872561018
 31
0.0
  0
LINE
  5
42C2
  8
245
  6
CENTER2
 10
0.0
 20
66.738078571418555
 30
0.0
 11
0.0
 21
45.137977278838207
 31
0.0
  0
LINE
  5
42C4
  8
240
  6
CONTINUOUS
 10
34.851761726914141
 20
58.735717872561032
 30
0.0
 11
89.064164662228791
 21
58.735717872561032
 31
0.0
  0
LINE
  5
42C5
  8
240
  6
CONTINUOUS
 10
34.851761726914141
 20
53.235717872561032
 30
0.0
 11
89.064164662228791
 21
53.235717872561032
 31
0.0
  0
LINE
  5
42C6
  8
240
  6
CONTINUOUS
 10
90.300000000000011
 20
56.485717872561018
 30
0.0
 11
90.048972415240996
 21
57.909366050227931
 31
0.0
  0
LINE
  5
42C7
  8
240
  6
CONTINUOUS
 10
90.300000000000011
 20
55.485717872561018
 30
0.0
 11
90.048972415240996
 21
54.06206969489412
 31
0.0
  0
ARC
  5
42C8
  8
240
  6
CONTINUOUS
 10
89.064164662228791
 20
57.735717872561018
 30
0.0
 40
1.0
 50
9.9999999999985398
 51
90.0
  0
ARC
  5
42C9
  8
240
  6
CONTINUOUS
 10
89.064164662228791
 20
54.235717872561018
 30
0.0
 40
1.0
 50
270.0
 51
350.00000000000142
  0
LINE
  5
42CA
  8
240
  6
CONTINUOUS
 10
33.15371352039557
 20
53.139295707709842
 30
0.0
 11
18.072958876970091
 21
51.421060753763363
 31
0.0
  0
ARC
  5
42CB
  8
240
  6
CONTINUOUS
 10
34.851761726914141
 20
38.235717872560997
 30
0.0
 40
15.0
 50
90.0
 51
96.500000000000639
  0
ARC
  5
42CC
  8
240
  6
CONTINUOUS
 10
34.851761726914141
 20
73.735717872561025
 30
0.0
 40
15.0
 50
263.49999999999937
 51
270.0
  0
LINE
  5
42CF
  8
240
  6
CONTINUOUS
 10
33.15371352039557
 20
58.832140037412223
 30
0.0
 11
26.95034223485661
 21
59.538924918351029
 31
0.0
  0
LINE
  5
42D0
  8
240
  6
CONTINUOUS
 10
26.95034223485661
 20
59.53892491835105
 30
0.0
 11
18.072958876970059
 21
60.550374991358687
 31
0.0
  0
LINE
  5
42D1
  8
240
  6
CONTINUOUS
 10
18.233960964130372
 20
60.532031120620267
 30
0.0
 11
18.20473677458855
 21
60.535360796432833
 31
0.0
  0
LINE
  5
42D2
  8
240
  6
CONTINUOUS
 10
-15.446736075429889
 20
63.985717872561018
 30
0.0
 11
15.446736075429889
 21
63.985717872561018
 31
0.0
  0
LINE
  5
42D3
  8
240
  6
CONTINUOUS
 10
-15.446736075429889
 20
47.985717872561018
 30
0.0
 11
15.446736075429889
 21
47.985717872561018
 31
0.0
  0
ARC
  5
42D5
  8
240
  6
CONTINUOUS
 10
4.0833333333333419
 20
55.985717872561018
 30
0.0
 40
22.083333333333339
 50
161.59151982941361
 51
178.702626204349
  0
ARC
  5
42D6
  8
240
  6
CONTINUOUS
 10
4.0833333333333419
 20
55.985717872561018
 30
0.0
 40
22.083333333333339
 50
181.29737379565091
 51
198.40848017058639
  0
ARC
  5
42D7
  8
240
  6
CONTINUOUS
 10
-4.0833333333333419
 20
55.985717872561018
 30
0.0
 40
22.083333333333339
 50
341.59151982941358
 51
346.45491699073222
  0
ARC
  5
42D8
  8
240
  6
CONTINUOUS
 10
-4.0833333333333419
 20
55.985717872561018
 30
0.0
 40
22.083333333333339
 50
13.54508300926781
 51
18.40848017058639
  0
ARC
  5
42D9
  8
240
  6
CONTINUOUS
 10
18.163521447984412
 20
61.345232475899991
 30
0.0
 40
0.8
 50
193.54508300926781
 51
263.49999999999937
  0
ARC
  5
42DA
  8
240
  6
CONTINUOUS
 10
18.163521447984412
 20
50.62620326922206
 30
0.0
 40
0.8
 50
96.500000000000639
 51
166.45491699073219
  0
ARC
  5
42E4
  8
240
  6
CONTINUOUS
 10
-15.446736075429889
 20
62.485717872561032
 30
0.0
 40
1.5
 50
90.0
 51
161.59151982941361
  0
ARC
  5
42E5
  8
240
  6
CONTINUOUS
 10
-15.446736075429889
 20
49.485717872561032
 30
0.0
 40
1.5
 50
198.40848017058639
 51
270.0
  0
ARC
  5
42E6
  8
240
  6
CONTINUOUS
 10
15.446736075429889
 20
49.485717872561032
 30
0.0
 40
1.5
 50
270.0
 51
341.59151982941358
  0
ARC
  5
42E7
  8
240
  6
CONTINUOUS
 10
15.446736075429889
 20
62.485717872561032
 30
0.0
 40
1.5
 50
18.40848017058639
 51
90.0
  0
ARC
  5
42E8
  8
240
  6
CONTINUOUS
 10
84.999999999999943
 20
0.0
 30
0.0
 40
5.2999999999999989
 50
269.49999999999869
 51
90.500000000001322
  0
ARC
  5
4377
  8
240
  6
CONTINUOUS
 10
39.094492381608738
 20
44.90111365502122
 30
0.0
 40
40.0
 50
254.99999999999881
 51
270.49999999999801
  0
LINE
  5
4378
  8
241
  6
CONTINUOUS
 10
24.323728491812322
 20
3.9409541023074719
 30
0.0
 11
23.579312539898471
 21
3.781535428942703
 31
0.0
  0
LINE
  5
4379
  8
241
  6
CONTINUOUS
 10
21.97903018021265
 20
4.206886545611126
 30
0.0
 11
21.97903018021265
 21
4.5827185103507579
 31
0.0
  0
LINE
  5
437A
  8
241
  6
CONTINUOUS
 10
21.97903018021265
 20
5.8218313848761616
 30
0.0
 11
21.742036900209708
 21
6.1120680856115817
 31
0.0
  0
LINE
  5
437B
  8
241
  6
CONTINUOUS
 10
20.577189698326269
 20
5.1465705886613762
 30
0.0
 11
19.76763698814236
 21
6.0398832868891361
 31
0.0
  0
LINE
  5
437C
  8
241
  6
CONTINUOUS
 10
19.492158916307321
 20
5.786471112447571
 30
0.0
 11
20.58304554705154
 21
4.5827185103507011
 31
0.0
  0
LINE
  5
437D
  8
241
  6
CONTINUOUS
 10
20.58304554705154
 20
4.5827185103507011
 30
0.0
 11
19.492158916307321
 21
4.5827185103507011
 31
0.0
  0
LINE
  5
437E
  8
241
  6
CONTINUOUS
 10
19.492158916307321
 20
4.5827185103507011
 30
0.0
 11
19.492158916307321
 21
4.206886545611126
 31
0.0
  0
LINE
  5
437F
  8
241
  6
CONTINUOUS
 10
19.76763698814236
 20
6.0398832868891361
 30
0.0
 11
19.492158916307321
 21
5.786471112447571
 31
0.0
  0
LINE
  5
4380
  8
241
  6
CONTINUOUS
 10
21.088174628312011
 20
4.5827185103507011
 30
0.0
 11
20.829047196850951
 21
4.8686552050138232
 31
0.0
  0
LINE
  5
4381
  8
241
  6
CONTINUOUS
 10
19.492158916307321
 20
4.206886545611126
 30
0.0
 11
21.97903018021265
 21
4.206886545611126
 31
0.0
  0
LINE
  5
4382
  8
241
  6
CONTINUOUS
 10
21.97903018021265
 20
4.5827185103507579
 30
0.0
 11
21.088174628312011
 21
4.5827185103507011
 31
0.0
  0
LINE
  5
4383
  8
241
  6
CONTINUOUS
 10
20.829047196850951
 20
4.8686552050138232
 30
0.0
 11
21.97903018021265
 21
5.8218313848761616
 31
0.0
  0
LINE
  5
4384
  8
241
  6
CONTINUOUS
 10
21.742036900209708
 20
6.1120680856115817
 30
0.0
 11
20.577189698326269
 21
5.1465705886613762
 31
0.0
  0
ARC
  5
4385
  8
241
  6
CONTINUOUS
 10
20.508348099143831
 20
1.7190319100732829
 30
0.0
 40
1.0246523347015499
 50
105.40167839913239
 51
269.4795157258805
  0
ARC
  5
4386
  8
241
  6
CONTINUOUS
 10
20.50492829435774
 20
1.718891213607292
 30
0.0
 40
0.6482495005425888
 50
105.401631139107
 51
269.47956404196049
  0
ARC
  5
4387
  8
241
  6
CONTINUOUS
 10
20.499038385260238
 20
-1.8275471181930241
 30
0.0
 40
0.6472897299961629
 50
90.487761932246002
 51
269.51223806775403
  0
LINE
  5
4388
  8
241
  6
CONTINUOUS
 10
20.499040117017248
 20
0.6955511943914985
 30
0.0
 11
20.954966768192659
 21
0.6955511943914985
 31
0.0
  0
LINE
  5
4389
  8
241
  6
CONTINUOUS
 10
20.493528040892731
 20
-2.4748133931243208
 30
0.0
 11
20.949454692068141
 21
-2.4748133931243208
 31
0.0
  0
LINE
  5
438A
  8
241
  6
CONTINUOUS
 10
20.949454692068141
 20
-0.8044488056062562
 30
0.0
 11
20.493528040892731
 21
-0.8044488056062562
 31
0.0
  0
LINE
  5
438B
  8
241
  6
CONTINUOUS
 10
20.949454692068141
 20
-1.1802808432669281
 30
0.0
 11
20.493528040892731
 21
-1.1802808432669281
 31
0.0
  0
LINE
  5
438C
  8
241
  6
CONTINUOUS
 10
20.954966768192659
 20
1.0713832320521699
 30
0.0
 11
20.499040117017248
 21
1.0713832320521699
 31
0.0
  0
LINE
  5
438D
  8
241
  6
CONTINUOUS
 10
20.33276388166291
 20
2.3438606768254142
 30
0.0
 11
20.236216465440211
 21
2.706886545607829
 31
0.0
  0
LINE
  5
438E
  8
241
  6
CONTINUOUS
 10
21.217790419769639
 20
2.706886545607829
 30
0.0
 11
21.121241836810778
 21
2.3438606768254142
 31
0.0
  0
ARC
  5
438F
  8
241
  6
CONTINUOUS
 10
20.94565913483169
 20
1.719032141373759
 30
0.0
 40
1.0246520190809489
 50
270.5204649316114
 51
74.598336967548775
  0
ARC
  5
4390
  8
241
  6
CONTINUOUS
 10
20.949077072617801
 20
1.7188916039910109
 30
0.0
 40
0.6482492175306999
 50
270.52057038058098
 51
74.598329745509147
  0
ARC
  5
4391
  8
241
  6
CONTINUOUS
 10
20.94394261594368
 20
-1.827547118195894
 30
0.0
 40
0.647289744738524
 50
270.48791521565022
 51
89.512084784349753
  0
ARC
  5
4392
  8
240
  6
CONTINUOUS
 10
35.504741141036362
 20
45.862984600961163
 30
0.0
 40
40.0
 50
232.2548237593154
 51
254.99999999999881
  0
LINE
  5
4393
  8
240
  6
CONTINUOUS
 10
28.741730577508211
 20
6.2640806034584102
 30
0.0
 11
25.15197933693597
 21
7.2259515493983306
 31
0.0
  0
ARC
  5
43A1
  8
240
  6
CONTINUOUS
 10
39.094492381608518
 20
-44.90111365502122
 30
0.0
 40
40.0
 50
89.499999999998664
 51
105.00000000000109
  0
LINE
  5
43A2
  8
241
  6
CONTINUOUS
 10
23.881086602758639
 20
-4.2704455817806197
 30
0.0
 11
25.467934690782869
 21
-3.0656896650792751
 31
0.0
  0
LINE
  5
43A3
  8
241
  6
CONTINUOUS
 10
25.467934690782869
 20
-3.0656896650792751
 30
0.0
 11
24.534832871218871
 21
-2.8486487789243138
 31
0.0
  0
LINE
  5
43A4
  8
241
  6
CONTINUOUS
 10
21.97903018021265
 20
-6.3968418372005544
 30
0.0
 11
21.97903018021265
 21
-4.3506453578638684
 31
0.0
  0
LINE
  5
43A5
  8
241
  6
CONTINUOUS
 10
21.6059989655956
 20
-4.3506453578638684
 30
0.0
 11
21.6059989655956
 21
-6.0210098724609216
 31
0.0
  0
LINE
  5
43A6
  8
241
  6
CONTINUOUS
 10
21.560196404645101
 20
-6.0188420766984896
 30
0.0
 11
21.560196404645101
 21
-6.0210098724609216
 31
0.0
  0
LINE
  5
43A7
  8
241
  6
CONTINUOUS
 10
21.97903018021265
 20
-4.3506453578638684
 30
0.0
 11
21.6059989655956
 21
-4.3506453578638684
 31
0.0
  0
LINE
  5
43A8
  8
241
  6
CONTINUOUS
 10
19.492158916307321
 20
-6.0210098724609793
 30
0.0
 11
19.492158916307321
 21
-6.396841837200582
 31
0.0
  0
LINE
  5
43A9
  8
241
  6
CONTINUOUS
 10
20.493528040892731
 20
-2.8506453578640101
 30
0.0
 11
20.949454692068141
 21
-2.8506453578640101
 31
0.0
  0
LINE
  5
43AA
  8
241
  6
CONTINUOUS
 10
19.492158916307321
 20
-6.396841837200582
 30
0.0
 11
21.97903018021265
 21
-6.3968418372005544
 31
0.0
  0
LINE
  5
43AB
  8
241
  6
CONTINUOUS
 10
21.6059989655956
 20
-6.0210098724609216
 30
0.0
 11
19.492158916307321
 21
-6.0210098724609793
 31
0.0
  0
ARC
  5
43AC
  8
240
  6
CONTINUOUS
 10
35.504741141036391
 20
-45.862984600961141
 30
0.0
 40
40.0
 50
105.00000000000109
 51
127.7451762406846
  0
LINE
  5
43AD
  8
240
  6
CONTINUOUS
 10
28.74173057750798
 20
-6.2640806034584102
 30
0.0
 11
25.151979336935831
 21
-7.2259515493983031
 31
0.0
  0
LINE
  5
43AE
  8
241
  6
CONTINUOUS
 10
34.0
 20
5.2268632226093814
 30
0.0
 11
34.0
 21
-5.2268632226093521
 31
0.0
  0
ARC
  5
43AF
  8
241
  6
CONTINUOUS
 10
5.4288448841781749
 20
-0.0446157037043804
 30
0.0
 40
19.3106545318348
 50
351.6507611206502
 51
11.91100768470465
  0
ARC
  5
43B0
  8
241
  6
CONTINUOUS
 10
5.4402839527405709
 20
-0.0446168589411968
 30
0.0
 40
18.538171415104859
 50
351.84093304870493
 51
11.91106708337848
  0
LINE
  5
43B1
  8
241
  6
CONTINUOUS
 10
23.790809675292341
 20
-2.6755872353949139
 30
0.0
 11
22.97903018021265
 21
-2.4867658669291468
 31
0.0
  0
LINE
  5
43B2
  8
241
  6
CONTINUOUS
 10
22.97903018021265
 20
-2.4867658669291468
 30
0.0
 11
23.881086602758639
 21
-4.2704455817806197
 31
0.0
  0
ARC
  5
43B5
  8
241
  6
CONTINUOUS
 10
0.0000000000000568
 20
0.0000000000000568
 30
0.0
 40
18.0
 50
330.8501128012137
 51
27.738052692215639
  0
ARC
  5
43B6
  8
241
  6
CONTINUOUS
 10
20.50211914741223
 20
-1.8276500142766841
 30
0.0
 40
1.0232372747979159
 50
90.481061372952468
 51
269.51893862704748
  0
ARC
  5
43B7
  8
241
  6
CONTINUOUS
 10
20.940863586413091
 20
-1.827444216194209
 30
0.0
 40
1.02323720779232
 50
270.4810613560486
 51
89.518938643951358
  0
LINE
  5
43B8
  8
245
  6
CENTER2
 10
0.0
 20
19.241380387573368
 30
0.0
 11
0.0
 21
-19.4514383227596
 31
0.0
  0
ARC
  5
43B9
  8
240
  6
CONTINUOUS
 10
0.0
 20
0.0
 30
0.0
 40
18.0
 50
52.254823759315343
 51
307.7451762406846
  0
CIRCLE
  5
43BA
  8
241
  6
CONTINUOUS
 10
0.0
 20
0.0
 30
0.0
 40
16.5
  0
LINE
  5
43BB
  8
240
  6
CONTINUOUS
 10
39.443553801543118
 20
4.9026367324543401
 30
0.0
 11
84.953749361858684
 21
5.299798192240103
 31
0.0
  0
LINE
  5
43BC
  8
240
  6
CONTINUOUS
 10
39.44355380154289
 20
-4.9026367324543401
 30
0.0
 11
84.953749361858684
 21
-5.299798192240103
 31
0.0
  0
LINE
  5
43BD
  8
245
  6
CENTER2
 10
-19.873790119424541
 20
0.0
 30
0.0
 11
91.755193415508984
 21
0.0
 31
0.0
  0
CIRCLE
  5
43C0
  8
241
  6
CONTINUOUS
 10
0.0
 20
0.0
 30
0.0
 40
13.0
  0
LINE
  5
43C8
  8
240
  6
CONTINUOUS
 10
-17.994338897024431
 20
55.48571787256062
 30
0.0
 11
-18.0
 21
56.485717872561018
 31
0.0
  0
LINE
  5
43C9
  8
240
  6
CONTINUOUS
 10
90.300000000000011
 20
55.485717872561018
 30
0.0
 11
90.300000000000011
 21
56.485717872561018
 31
0.0
  0
CIRCLE
  5
43CA
  8
246
  6
PHANTOM2
 10
0.0
 20
0.0
 30
0.0
 40
10.0
  0
LINE
  5
43CB
  8
246
  6
PHANTOM2
 10
-10.0
 20
63.985717872561032
 30
0.0
 11
-10.0
 21
47.985717872561018
 31
0.0
  0
LINE
  5
43CC
  8
246
  6
PHANTOM2
 10
10.0
 20
63.985717872561018
 30
0.0
 11
10.0
 21
47.985717872561018
 31
0.0
  0
LINE
  5
4496
  8
250
  6
CONTINUOUS
 10
-10.0
 20
64.485717872561025
 30
0.0
 11
-10.0
 21
78.0
 31
0.0
  0
LINE
  5
4497
  8
250
  6
CONTINUOUS
 10
10.0
 20
64.485717872561025
 30
0.0
 11
10.0
 21
78.0
 31
0.0
  0
LINE
  5
4498
  8
250
  6
CONTINUOUS
 10
-7.7699999999999987
 20
77.0
 30
0.0
 11
7.7699999999999987
 21
77.0
 31
0.0
  0
LINE
  5
449C
  8
250
  6
CONTINUOUS
 10
90.29999999999994
 20
0.5
 30
0.0
 11
90.29999999999994
 21
35.999999999999979
 31
0.0
  0
LINE
  5
449D
  8
250
  6
CONTINUOUS
 10
-18.0
 20
0.5
 30
0.0
 11
-18.0
 21
35.999999999999979
 31
0.0
  0
LINE
  5
449E
  8
250
  6
CONTINUOUS
 10
88.069999999999936
 20
34.999999999999979
 30
0.0
 11
-15.769999999999991
 21
34.999999999999979
 31
0.0
  0
LINE
  5
44A2
  8
250
  6
CONTINUOUS
 10
0.0
 20
19.741380387573368
 30
0.0
 11
0.0000000000000006
 21
29.0
 31
0.0
  0
LINE
  5
44A3
  8
250
  6
CONTINUOUS
 10
90.29999999999994
 20
0.5
 30
0.0
 11
90.29999999999994
 21
29.0
 31
0.0
  0
LINE
  5
44A4
  8
250
  6
CONTINUOUS
 10
2.23
 20
28.0
 30
0.0
 11
88.069999999999936
 21
28.0
 31
0.0
  0
LINE
  5
44A8
  8
250
  6
CONTINUOUS
 10
-18.0
 20
0.5
 30
0.0
 11
-18.0
 21
29.0
 31
0.0
  0
LINE
  5
44A9
  8
250
  6
CONTINUOUS
 10
0.0
 20
19.741380387573368
 30
0.0
 11
0.0000000000000006
 21
29.0
 31
0.0
  0
LINE
  5
44AA
  8
250
  6
CONTINUOUS
 10
-15.77
 20
28.0
 30
0.0
 11
-2.2299999999999991
 21
28.0
 31
0.0
  0
TEXT
  5
44AE
  8
250
  6
CONTINUOUS
 10
-3.9333333333333331
 20
78.0
 30
0.0
 40
2.7999999999999989
  1
\U+220520
  0
LINE
  5
44AF
  8
250
  6
CONTINUOUS
 10
7.7699999999999987
 20
77.371666666666655
 30
0.0
 11
10.0
 21
77.0
 31
0.0
  0
LINE
  5
44B0
  8
250
  6
CONTINUOUS
 10
7.7699999999999987
 20
76.62833333333333
 30
0.0
 11
10.0
 21
77.0
 31
0.0
  0
LINE
  5
44B1
  8
250
  6
CONTINUOUS
 10
10.0
 20
77.0
 30
0.0
 11
7.7699999999999987
 21
77.0
 31
0.0
  0
LINE
  5
44B2
  8
250
  6
CONTINUOUS
 10
-7.7699999999999987
 20
76.62833333333333
 30
0.0
 11
-10.0
 21
77.0
 31
0.0
  0
LINE
  5
44B3
  8
250
  6
CONTINUOUS
 10
-7.7699999999999987
 20
77.371666666666655
 30
0.0
 11
-10.0
 21
77.0
 31
0.0
  0
LINE
  5
44B4
  8
250
  6
CONTINUOUS
 10
-10.0
 20
77.0
 30
0.0
 11
-7.7699999999999987
 21
77.0
 31
0.0
  0
TEXT
  5
44B5
  8
250
  6
CONTINUOUS
 10
29.949999999999971
 20
35.999999999999979
 30
0.0
 40
2.7999999999999989
  1
108.3
  0
LINE
  5
44B6
  8
250
  6
CONTINUOUS
 10
-15.769999999999991
 20
34.628333333333309
 30
0.0
 11
-18.0
 21
34.999999999999979
 31
0.0
  0
LINE
  5
44B7
  8
250
  6
CONTINUOUS
 10
-15.769999999999991
 20
35.371666666666648
 30
0.0
 11
-18.0
 21
34.999999999999979
 31
0.0
  0
LINE
  5
44B8
  8
250
  6
CONTINUOUS
 10
-18.0
 20
34.999999999999979
 30
0.0
 11
-15.769999999999991
 21
34.999999999999979
 31
0.0
  0
LINE
  5
44B9
  8
250
  6
CONTINUOUS
 10
88.069999999999936
 20
35.371666666666648
 30
0.0
 11
90.29999999999994
 21
34.999999999999979
 31
0.0
  0
LINE
  5
44BA
  8
250
  6
CONTINUOUS
 10
88.069999999999936
 20
34.628333333333309
 30
0.0
 11
90.29999999999994
 21
34.999999999999979
 31
0.0
  0
LINE
  5
44BB
  8
250
  6
CONTINUOUS
 10
90.29999999999994
 20
34.999999999999979
 30
0.0
 11
88.069999999999936
 21
34.999999999999979
 31
0.0
  0
TEXT
  5
44BC
  8
250
  6
CONTINUOUS
 10
40.483333333333313
 20
29.0
 30
0.0
 40
2.7999999999999989
  1
90.3
  0
LINE
  5
44BD
  8
250
  6
CONTINUOUS
 10
88.069999999999936
 20
28.371666666666659
 30
0.0
 11
90.29999999999994
 21
28.0
 31
0.0
  0
LINE
  5
44BE
  8
250
  6
CONTINUOUS
 10
88.069999999999936
 20
27.62833333333333
 30
0.0
 11
90.29999999999994
 21
28.0
 31
0.0
  0
LINE
  5
44BF
  8
250
  6
CONTINUOUS
 10
90.29999999999994
 20
28.0
 30
0.0
 11
88.069999999999936
 21
28.0
 31
0.0
  0
LINE
  5
44C0
  8
250
  6
CONTINUOUS
 10
2.23
 20
27.62833333333333
 30
0.0
 11
0.0000000000000005
 21
28.0
 31
0.0
  0
LINE
  5
44C1
  8
250
  6
CONTINUOUS
 10
2.23
 20
28.371666666666659
 30
0.0
 11
0.0000000000000005
 21
28.0
 31
0.0
  0
LINE
  5
44C2
  8
250
  6
CONTINUOUS
 10
0.0000000000000005
 20
28.0
 30
0.0
 11
2.23
 21
28.0
 31
0.0
  0
TEXT
  5
44C3
  8
250
  6
CONTINUOUS
 10
-11.86666666666666
 20
29.0
 30
0.0
 40
2.7999999999999989
  1
18
  0
LINE
  5
44C4
  8
250
  6
CONTINUOUS
 10
-2.2299999999999991
 20
28.371666666666659
 30
0.0
 11
0.0000000000000005
 21
28.0
 31
0.0
  0
LINE
  5
44C5
  8
250
  6
CONTINUOUS
 10
-2.2299999999999991
 20
27.62833333333333
 30
0.0
 11
0.0000000000000005
 21
28.0
 31
0.0
  0
LINE
  5
44C6
  8
250
  6
CONTINUOUS
 10
0.0000000000000005
 20
28.0
 30
0.0
 11
-2.2299999999999991
 21
28.0
 31
0.0
  0
LINE
  5
44C7
  8
250
  6
CONTINUOUS
 10
-15.77
 20
27.62833333333333
 30
0.0
 11
-18.0
 21
28.0
 31
0.0
  0
LINE
  5
44C8
  8
250
  6
CONTINUOUS
 10
-15.77
 20
28.371666666666659
 30
0.0
 11
-18.0
 21
28.0
 31
0.0
  0
LINE
  5
44C9
  8
250
  6
CONTINUOUS
 10
-18.0
 20
28.0
 30
0.0
 11
-15.77
 21
28.0
 31
0.0
  0
TEXT
  5
44DE
  8
241
  6
CONTINUOUS
 10
-14.0
 20
91.0
 30
0.0
 40
4.0
  1
MGR20
  7
YOKO
  0
VIEWPORT
  5
22
 67
     1
  8
0
 10
261.51769911504419
 20
148.5
 30
0.0
 40
523.0353982300885
 41
297.0
 68
     1
 69
     1
1001
ACAD
1000
MVIEW
1002
{
1070
    16
1010
0.0
1020
0.0
1030
0.0
1010
0.0
1020
0.0
1030
1.0
1040
0.0
1040
297.0
1040
261.51769911504419
1040
148.5
1040
50.0
1040
0.0
1040
0.0
1070
     0
1070
   100
1070
     1
1070
     1
1070
     0
1070
     0
1070
     0
1070
     0
1040
0.0
1040
0.0
1040
0.0
1040
1.0
1040
1.0
1040
10.0
1040
10.0
1070
     0
1002
{
1002
}
1002
}
1001
GENIUS_GENODEF_13
1002
{
1000
HIER
1070
     0
1002
}
1002
{
1000
MANEDIT
1070
     0
1002
}
1002
{
1000
NOSEL
1070
     0
1002
}
1002
{
1000
BEHIND
1070
     0
1002
}
1002
{
1000
OTHER
1070
     0
1002
}
1002
{
1000
REACTOR
1002
}
1001
GENIUS_GENOBJ-N-SDF_13
1002
{
1000
OWNER
1000
GEN
1002
}
1001
GENIUS_GENSCREG_15
1000
PF
1040
1.0
1000
DF
1040
1.0
1000
MIN
1011
0.0
1021
0.0
1031
0.0
1021
0.0
1031
0.0
1000
MAX
1011
523.0353982300885
1021
0.0
1031
0.0
1021
297.0
1031
0.0
1000
FLAGS
1070
     4
  0
ENDSEC
  0
EOF
