  0
SECTION
  2
HEADER
  9
$ACADVER
  1
AC1009
  9
$INSBASE
 10
0.0
 20
0.0
 30
0.0
  9
$EXTMIN
 10
-18.5
 20
-18.5
 30
0.0
  9
$EXTMAX
 10
91.755193415508955
 20
95.000000000000028
 30
0.0
  9
$LIMMIN
 10
0.0
 20
0.0
  9
$LIMMAX
 10
297.0
 20
210.0
  9
$ORTHOMODE
 70
     0
  9
$REGENMODE
 70
     1
  9
$FILLMODE
 70
     1
  9
$QTEXTMODE
 70
     0
  9
$MIRRTEXT
 70
     1
  9
$DRAGMODE
 70
     2
  9
$LTSCALE
 40
10.0
  9
$OSMODE
 70
    37
  9
$ATTMODE
 70
     1
  9
$TEXTSIZE
 40
3.0
  9
$TRACEWID
 40
1.0
  9
$TEXTSTYLE
  7
YOKO
  9
$CLAYER
  8
240
  9
$CELTYPE
  6
BYLAYER
  9
$CECOLOR
 62
   256
  9
$DIMSCALE
 40
1.0
  9
$DIMASZ
 40
2.2299999999999991
  9
$DIMEXO
 40
0.5
  9
$DIMDLI
 40
7.0
  9
$DIMRND
 40
0.0
  9
$DIMDLE
 40
0.0
  9
$DIMEXE
 40
1.0
  9
$DIMTP
 40
0.0
  9
$DIMTM
 40
0.01
  9
$DIMTXT
 40
2.7999999999999989
  9
$DIMCEN
 40
0.0
  9
$DIMTSZ
 40
0.0
  9
$DIMTOL
 70
     0
  9
$DIMLIM
 70
     0
  9
$DIMTIH
 70
     0
  9
$DIMTOH
 70
     0
  9
$DIMSE1
 70
     0
  9
$DIMSE2
 70
     0
  9
$DIMTAD
 70
     3
  9
$DIMZIN
 70
     9
  9
$DIMBLK
  1
OPEN
  9
$DIMASO
 70
     1
  9
$DIMSHO
 70
     1
  9
$DIMPOST
  1

  9
$DIMAPOST
  1

  9
$DIMALT
 70
     0
  9
$DIMALTD
 70
     2
  9
$DIMALTF
 40
25.399999999999999
  9
$DIMLFAC
 40
1.0
  9
$DIMTOFL
 70
     1
  9
$DIMTVP
 40
0.0
  9
$DIMTIX
 70
     1
  9
$DIMSOXD
 70
     0
  9
$DIMSAH
 70
     0
  9
$DIMBLK1
  1

  9
$DIMBLK2
  1

  9
$DIMSTYLE
  2
BIGT
  9
$DIMCLRD
 70
   256
  9
$DIMCLRE
 70
   256
  9
$DIMCLRT
 70
    40
  9
$DIMTFAC
 40
1.0
  9
$DIMGAP
 40
1.0
  9
$LUNITS
 70
     2
  9
$LUPREC
 70
     6
  9
$SKETCHINC
 40
1.0
  9
$FILLETRAD
 40
0.0
  9
$AUNITS
 70
     0
  9
$AUPREC
 70
     6
  9
$MENU
  1
.
  9
$ELEVATION
 40
0.0
  9
$PELEVATION
 40
0.0
  9
$THICKNESS
 40
0.0
  9
$LIMCHECK
 70
     0
  9
$BLIPMODE
 70
     0
  9
$CHAMFERA
 40
0.2
  9
$CHAMFERB
 40
0.2
  9
$SKPOLY
 70
     0
  9
$TDCREATE
 40
2459494.4922385421
  9
$TDUPDATE
 40
2459494.5187071878
  9
$TDINDWG
 40
0.0263940509
  9
$TDUSRTIMER
 40
0.0263939699
  9
$USRTIMER
 70
     1
  9
$ANGBASE
 50
0.0
  9
$ANGDIR
 70
     0
  9
$PDMODE
 70
     1
  9
$PDSIZE
 40
0.0
  9
$PLINEWID
 40
0.0
  9
$COORDS
 70
     1
  9
$SPLFRAME
 70
     0
  9
$SPLINETYPE
 70
     6
  9
$SPLINESEGS
 70
     4
  9
$ATTDIA
 70
     1
  9
$ATTREQ
 70
     1
  9
$HANDLING
 70
     1
  9
$HANDSEED
  5
480A
  9
$SURFTAB1
 70
     6
  9
$SURFTAB2
 70
     6
  9
$SURFTYPE
 70
     6
  9
$SURFU
 70
     6
  9
$SURFV
 70
     6
  9
$UCSNAME
  2

  9
$UCSORG
 10
0.0
 20
0.0
 30
0.0
  9
$UCSXDIR
 10
1.0
 20
0.0
 30
0.0
  9
$UCSYDIR
 10
0.0
 20
1.0
 30
0.0
  9
$PUCSNAME
  2

  9
$PUCSORG
 10
0.0
 20
0.0
 30
0.0
  9
$PUCSXDIR
 10
1.0
 20
0.0
 30
0.0
  9
$PUCSYDIR
 10
0.0
 20
1.0
 30
0.0
  9
$USERI1
 70
     1
  9
$USERI2
 70
     0
  9
$USERI3
 70
     0
  9
$USERI4
 70
     0
  9
$USERI5
 70
     0
  9
$USERR1
 40
0.0
  9
$USERR2
 40
0.0
  9
$USERR3
 40
0.0
  9
$USERR4
 40
0.0
  9
$USERR5
 40
0.0
  9
$WORLDVIEW
 70
     1
  9
$SHADEDGE
 70
     3
  9
$SHADEDIF
 70
    70
  9
$TILEMODE
 70
     1
  9
$MAXACTVP
 70
    16
  9
$PLIMCHECK
 70
     0
  9
$PEXTMIN
 10
1.0000000000000000E+020
 20
1.0000000000000000E+020
 30
1.0000000000000000E+020
  9
$PEXTMAX
 10
-1.0000000000000000E+020
 20
-1.0000000000000000E+020
 30
-1.0000000000000000E+020
  9
$PLIMMIN
 10
0.0
 20
0.0
  9
$PLIMMAX
 10
420.0
 20
297.0
  9
$UNITMODE
 70
     0
  9
$VISRETAIN
 70
     1
  9
$PLINEGEN
 70
     0
  9
$PSLTSCALE
 70
     1
  0
ENDSEC
  0
SECTION
  2
TABLES
  0
TABLE
  2
VPORT
 70
     1
  0
VPORT
  2
*ACTIVE
 70
     0
 10
0.0
 20
0.0
 11
1.0
 21
1.0
 12
48.837310021906141
 22
41.833885392222591
 13
0.0
 23
0.0
 14
7.0
 24
7.0
 15
7.0
 25
7.0
 16
0.0
 26
0.0
 36
1.0
 17
0.0
 27
0.0
 37
0.0
 40
147.1685334413668
 41
1.758883248730964
 42
50.0
 43
0.0
 44
0.0
 50
0.0
 51
0.0
 71
     0
 72
  2000
 73
     1
 74
     0
 75
     1
 76
     1
 77
     0
 78
     0
  0
ENDTAB
  0
TABLE
  2
LTYPE
 70
    13
  0
LTYPE
  2
CONTINUOUS
 70
     0
  3
Solid line
 72
    65
 73
     0
 40
0.0
  0
LTYPE
  2
CENTER2
 70
     0
  3
___ _ ___ _ ___ _ ___ _ ___ _ ___ _ ___ _ ___ _
 72
    65
 73
     4
 40
1.125
 49
0.75
 49
-0.125
 49
0.125
 49
-0.125
  0
LTYPE
  2
HIDDEN2
 70
     0
  3
_ _ _ _ _ _ _ _ _ _ _ _ _ _ _ _ _ _ _ _ _ _ _ _
 72
    65
 73
     2
 40
0.1875
 49
0.125
 49
-0.0625
  0
LTYPE
  2
PHANTOM2
 70
     0
  3
___ _ _ ___ _ _ ___ _ _ ___ _ _ ___ _ _ ___ _ _
 72
    65
 73
     6
 40
1.25
 49
0.625
 49
-0.125
 49
0.125
 49
-0.125
 49
0.125
 49
-0.125
  0
LTYPE
  2
AM_ISO02W050
 70
     0
  3
__ __ __ __ __ __ __ __ __ __ __ __ __ __ __
 72
    65
 73
     2
 40
7.5
 49
6.0
 49
-1.5
  0
LTYPE
  2
AMCONSTR
 70
     0
  3
_______________________
 72
    65
 73
     2
 40
9999.0
 49
9999.0
 49
0.0
  0
LTYPE
  2
ACISOWELD
 70
     0
  3
_ _ _ _ _
 72
    65
 73
     2
 40
2.0
 49
2.0
 49
-1.0
  0
LTYPE
  2
ACISOTGB
 70
     0
  3
__ . . __ . .
 72
    65
 73
     6
 40
9.0
 49
4.0
 49
-1.0
 49
1.0
 49
-1.0
 49
1.0
 49
-1.0
  0
LTYPE
  2
ACISOTGL
 70
     0
  3
_ _ _ _ _
 72
    65
 73
     2
 40
3.0
 49
2.0
 49
-1.0
  0
LTYPE
  2
ACJISTGB
 70
     0
  3
__ . . __ . .
 72
    65
 73
     6
 40
9.0
 49
4.0
 49
-1.0
 49
1.0
 49
-1.0
 49
1.0
 49
-1.0
  0
LTYPE
  2
ACJISTGL
 70
     0
  3
_ _ _ _ _
 72
    65
 73
     2
 40
3.0
 49
2.0
 49
-1.0
  0
ENDTAB
  0
TABLE
  2
LAYER
 70
     7
  0
LAYER
  2
0
 70
     0
 62
     7
  6
CONTINUOUS
  0
LAYER
  2
DEFPOINTS
 70
     0
 62
     7
  6
CONTINUOUS
  0
LAYER
  2
245
 70
     0
 62
     2
  6
CENTER2
  0
LAYER
  2
240
 70
     0
 62
     4
  6
CONTINUOUS
  0
LAYER
  2
241
 70
     0
 62
   211
  6
CONTINUOUS
  0
LAYER
  2
246
 70
     0
 62
     3
  6
PHANTOM2
  0
LAYER
  2
250
 70
     0
 62
     3
  6
CONTINUOUS
  0
ENDTAB
  0
TABLE
  2
STYLE
 70
     6
  0
STYLE
  2
STANDARD
 70
     0
 40
0.0
 41
1.0
 50
0.0
 71
     0
 42
3.0
  3
romans.shx
  4
extfont.shx
  0
STYLE
  2
ACISOTS
 70
     0
 40
1.0
 41
1.0
 50
0.0
 71
     0
 42
3.0
  3
amgdt.shx
  4
extfont.shx
  0
STYLE
  2
ACISOGDT
 70
     0
 40
0.0
 41
1.0
 50
0.0
 71
     0
 42
3.0
  3
amgdt.shx
  4
extfont.shx
  0
STYLE
  2
ACJISTS
 70
     0
 40
1.0
 41
1.0
 50
0.0
 71
     0
 42
3.0
  3
amgdt.shx
  4
extfont.shx
  0
STYLE
  2
ACJISGDT
 70
     0
 40
0.0
 41
1.0
 50
0.0
 71
     0
 42
3.0
  3
amgdt.shx
  4
extfont.shx
  0
STYLE
  2
YOKO
 70
     0
 40
0.0
 41
1.0
 50
0.0
 71
     0
 42
3.0
  3
romans.shx
  4
extfont.shx
  0
ENDTAB
  0
TABLE
  2
VIEW
 70
     0
  0
ENDTAB
  0
TABLE
  2
UCS
 70
     0
  0
ENDTAB
  0
TABLE
  2
APPID
 70
    40
  0
APPID
  2
ACAD
 70
     0
  0
APPID
  2
GLOBAL
 70
     0
  0
APPID
  2
DETAIL
 70
     0
  0
APPID
  2
GRPNAME
 70
     0
  0
APPID
  2
GPARA
 70
     0
  0
APPID
  2
MCAD_NO_VIS
 70
     0
  0
APPID
  2
ACAD_TEMP_GRAPHIC
 70
     0
  0
APPID
  2
ACATTRIBSERVICES
 70
     0
  0
APPID
  2
GENIUS_GENSCREG_15
 70
     0
  0
APPID
  2
GENIUS_GENODEF_13
 70
     0
  0
APPID
  2
GENIUS_GENOBJ-N-SDF_13
 70
     0
  0
APPID
  2
GENIUS_GENREC_14
 70
     0
  0
APPID
  2
GENIUS_GENOBJ-N-REC_13
 70
     0
  0
APPID
  2
GENIUS_GENDIMSH_14
 70
     0
  0
APPID
  2
GENIUS_GENOBJ-N-DIM_13
 70
     0
  0
APPID
  2
GENIUS_GENDIM_13
 70
     0
  0
APPID
  2
GENIUS_GENDTOL_13
 70
     0
  0
APPID
  2
GENIUS_GENOLIS_13
 70
     0
  0
APPID
  2
GENIUS_GENOENT_13
 70
     0
  0
APPID
  2
GENIUS_GENOBJ-F-FEM_13
 70
     0
  0
APPID
  2
GENIUS_GENOREF_13
 70
     0
  0
APPID
  2
GENIUS_GEFFEM_13
 70
     0
  0
APPID
  2
GENIUS_GEFFEMP_13
 70
     0
  0
APPID
  2
AD_DRAW
 70
     0
  0
APPID
  2
DESIGNERASSEMBLIES
 70
     0
  0
APPID
  2
ACADM_DIM_EDIT
 70
     0
  0
APPID
  2
AMDT_DM_ADJ
 70
     0
  0
APPID
  2
ITEMNAME
 70
     0
  0
APPID
  2
GENIUS_GENOBJ-N-FIL_13
 70
     0
  0
APPID
  2
GENIUS_GENFIL_13
 70
     0
  0
APPID
  2
GENIUS_GENOBJ-N-CHA_13
 70
     0
  0
APPID
  2
ACAD_NAV_VCDISPLAY
 70
     0
  0
APPID
  2
ACAECLAYERSTANDARD
 70
     0
  0
APPID
  2
LAYER_SCALE
 70
     0
  0
APPID
  2
GRADE_0
 70
     0
  0
APPID
  2
ACAD_PSEXT
 70
     0
  0
APPID
  2
ASK_MEN_XD
 70
     0
  0
APPID
  2
ACAD_EXEMPT_FROM_CAD_STANDARDS
 70
     0
  0
APPID
  2
ACAD_DSTYLE_DIMINSPECT
 70
     0
  0
APPID
  2
ACAD_MLEADERVER
 70
     0
  0
ENDTAB
  0
TABLE
  2
DIMSTYLE
 70
    24
  0
DIMSTYLE
  2
BIGT
 70
     0
  3

  4

  5
OPEN
  6

  7

 40
1.0
 41
2.2299999999999991
 42
0.5
 43
7.0
 44
1.0
 45
0.0
 46
0.0
 47
0.0
 48
0.01
140
2.7999999999999989
141
0.0
142
0.0
143
25.399999999999999
144
1.0
145
0.0
146
1.0
147
1.0
 71
     0
 72
     0
 73
     0
 74
     0
 75
     0
 76
     0
 77
     3
 78
     9
170
     0
171
     2
172
     1
173
     0
174
     1
175
     0
176
   256
177
   256
178
    40
  0
DIMSTYLE
  2
AM_ISO
 70
     0
  3

  4
"
  5

  6

  7

 40
1.0
 41
2.5
 42
1.0
 43
10.0
 44
1.0
 45
0.0
 46
0.0
 47
0.1
 48
0.1
140
3.5
141
0.0
142
0.0
143
0.0393701
144
1.0
145
0.0
146
0.71
147
1.5
 71
     0
 72
     0
 73
     0
 74
     0
 75
     0
 76
     0
 77
     1
 78
     8
170
     0
171
     2
172
     1
173
     0
174
     0
175
     0
176
   256
177
   256
178
     2
  0
DIMSTYLE
  2
AM_ISO$3
 70
     0
  3

  4
"
  5

  6

  7

 40
1.0
 41
2.5
 42
1.0
 43
10.0
 44
1.0
 45
0.0
 46
0.0
 47
0.1
 48
0.1
140
3.5
141
0.0
142
0.0
143
0.0393701
144
1.0
145
0.0
146
0.71
147
1.5
 71
     0
 72
     0
 73
     0
 74
     1
 75
     0
 76
     0
 77
     1
 78
     8
170
     0
171
     2
172
     0
173
     0
174
     0
175
     0
176
   256
177
   256
178
     2
  0
DIMSTYLE
  2
AM_ISO$4
 70
     0
  3

  4
"
  5

  6

  7

 40
1.0
 41
2.5
 42
1.0
 43
10.0
 44
1.0
 45
0.0
 46
0.0
 47
0.1
 48
0.1
140
3.5
141
0.0
142
0.0
143
0.0393701
144
1.0
145
0.0
146
0.71
147
1.5
 71
     0
 72
     0
 73
     0
 74
     1
 75
     0
 76
     0
 77
     1
 78
     8
170
     0
171
     2
172
     0
173
     0
174
     0
175
     0
176
   256
177
   256
178
     2
  0
DIMSTYLE
  2
AM_ISO$6
 70
     0
  3

  4
"
  5

  6

  7

 40
1.0
 41
2.5
 42
1.0
 43
10.0
 44
1.0
 45
0.0
 46
0.0
 47
0.1
 48
0.1
140
3.5
141
0.0
142
0.0
143
0.0393701
144
1.0
145
0.0
146
0.71
147
1.5
 71
     0
 72
     0
 73
     0
 74
     0
 75
     0
 76
     0
 77
     0
 78
     8
170
     0
171
     2
172
     1
173
     0
174
     0
175
     0
176
   256
177
   256
178
     2
  0
DIMSTYLE
  2
AM_ISO$7
 70
     0
  3

  4
"
  5

  6

  7

 40
1.0
 41
2.5
 42
1.0
 43
10.0
 44
1.0
 45
0.0
 46
0.0
 47
0.1
 48
0.1
140
5.0
141
0.0
142
0.0
143
0.0393701
144
1.0
145
0.0
146
0.71
147
1.5
 71
     0
 72
     0
 73
     0
 74
     0
 75
     0
 76
     0
 77
     1
 78
     8
170
     0
171
     2
172
     1
173
     0
174
     0
175
     0
176
   256
177
   256
178
     2
  0
DIMSTYLE
  2
AM_ISO$SF
 70
     0
  3

  4
"
  5

  6

  7

 40
1.0
 41
2.5
 42
1.0
 43
10.0
 44
1.0
 45
0.0
 46
0.0
 47
0.1
 48
0.1
140
3.5
141
0.0
142
0.0
143
0.0393701
144
1.0
145
0.0
146
0.71
147
1.5
 71
     0
 72
     0
 73
     0
 74
     0
 75
     1
 76
     1
 77
     1
 78
     8
170
     0
171
     2
172
     1
173
     0
174
     0
175
     0
176
   256
177
   256
178
     2
  0
DIMSTYLE
  2
AM_ISO$SH
 70
     0
  3

  4
"
  5

  6
GENAXEH
  7

 40
1.0
 41
2.5
 42
1.0
 43
10.0
 44
1.0
 45
0.0
 46
0.0
 47
0.1
 48
0.1
140
3.5
141
0.0
142
0.0
143
0.0393701
144
2.0
145
0.0
146
0.71
147
1.5
 71
     0
 72
     0
 73
     0
 74
     0
 75
     1
 76
     1
 77
     1
 78
     8
170
     0
171
     2
172
     1
173
     1
174
     0
175
     0
176
   256
177
   256
178
     2
  0
DIMSTYLE
  2
BIGT$2
 70
     0
  3

  4

  5
OPEN
  6

  7

 40
1.0
 41
2.2299999999999991
 42
0.5
 43
7.0
 44
1.0
 45
0.0
 46
0.0
 47
0.0
 48
0.01
140
2.7999999999999989
141
0.0
142
0.0
143
25.399999999999999
144
1.0
145
0.0
146
1.0
147
1.0
 71
     0
 72
     0
 73
     0
 74
     0
 75
     0
 76
     0
 77
     3
 78
     9
170
     0
171
     2
172
     1
173
     0
174
     0
175
     0
176
   256
177
   256
178
    40
  0
DIMSTYLE
  2
BIGT$3
 70
     0
  3

  4

  5
OPEN
  6

  7

 40
1.0
 41
2.2299999999999991
 42
0.5
 43
2.5
 44
1.0
 45
0.0
 46
0.0
 47
0.0
 48
0.01
140
2.7999999999999989
141
0.0
142
0.0
143
25.399999999999999
144
1.0
145
0.0
146
1.0
147
1.0
 71
     0
 72
     0
 73
     0
 74
     0
 75
     0
 76
     0
 77
     3
 78
     9
170
     0
171
     2
172
     1
173
     0
174
     0
175
     0
176
   256
177
   256
178
    40
  0
DIMSTYLE
  2
BIGT$7
 70
     0
  3

  4

  5
OPEN
  6

  7

 40
0.0
 41
2.2299999999999991
 42
0.5
 43
7.0
 44
1.0
 45
0.0
 46
0.0
 47
0.0
 48
0.01
140
2.7999999999999989
141
0.0
142
0.0
143
25.399999999999999
144
1.0
145
0.0
146
1.0
147
1.0
 71
     0
 72
     0
 73
     0
 74
     0
 75
     0
 76
     0
 77
     3
 78
     9
170
     0
171
     2
172
     0
173
     0
174
     0
175
     0
176
   256
177
   256
178
    40
  0
DIMSTYLE
  2
BIGT$6
 70
     0
  3

  4

  5
OPEN
  6

  7

 40
1.0
 41
2.2299999999999991
 42
0.5
 43
2.5
 44
1.0
 45
0.0
 46
0.0
 47
0.0
 48
0.01
140
2.7999999999999989
141
0.0
142
0.0
143
25.399999999999999
144
1.0
145
0.0
146
1.0
147
1.0
 71
     0
 72
     0
 73
     0
 74
     0
 75
     0
 76
     0
 77
     3
 78
     9
170
     0
171
     2
172
     1
173
     0
174
     0
175
     0
176
   256
177
   256
178
    40
  0
DIMSTYLE
  2
BIGT$0
 70
     0
  3

  4

  5
OPEN
  6

  7

 40
1.0
 41
2.2299999999999991
 42
0.5
 43
7.0
 44
1.0
 45
0.0
 46
0.0
 47
0.0
 48
0.01
140
2.7999999999999989
141
0.0
142
0.0
143
25.399999999999999
144
1.0
145
0.0
146
1.0
147
1.0
 71
     0
 72
     0
 73
     0
 74
     0
 75
     0
 76
     0
 77
     3
 78
     9
170
     0
171
     2
172
     1
173
     0
174
     1
175
     0
176
   256
177
   256
178
    40
  0
DIMSTYLE
  2
BIGT$4
 70
     0
  3

  4

  5
OPEN
  6

  7

 40
1.0
 41
2.2299999999999991
 42
0.5
 43
2.5
 44
1.0
 45
0.0
 46
0.0
 47
0.0
 48
0.01
140
2.7999999999999989
141
0.0
142
0.0
143
25.399999999999999
144
1.0
145
0.0
146
1.0
147
1.0
 71
     0
 72
     0
 73
     0
 74
     0
 75
     0
 76
     0
 77
     3
 78
     9
170
     0
171
     2
172
     1
173
     0
174
     0
175
     0
176
   256
177
   256
178
    40
  0
DIMSTYLE
  2
BIGT$SH
 70
     0
  3

  4

  5
OPEN
  6

  7

 40
1.0
 41
2.2299999999999991
 42
0.5
 43
7.0
 44
1.0
 45
0.0
 46
0.0
 47
0.0
 48
0.0
140
2.7999999999999989
141
0.0
142
0.0
143
25.399999999999999
144
1.0
145
0.0
146
1.0
147
1.0
 71
     0
 72
     0
 73
     0
 74
     0
 75
     0
 76
     0
 77
     3
 78
     9
170
     0
171
     2
172
     1
173
     0
174
     0
175
     0
176
   256
177
   256
178
    40
  0
DIMSTYLE
  2
BIGT$SF
 70
     0
  3

  4

  5
OPEN
  6

  7

 40
1.0
 41
2.2299999999999991
 42
0.5
 43
7.0
 44
1.0
 45
0.0
 46
0.0
 47
0.0
 48
0.0
140
2.7999999999999989
141
0.0
142
0.0
143
25.399999999999999
144
1.0
145
0.0
146
1.0
147
1.0
 71
     0
 72
     0
 73
     0
 74
     0
 75
     0
 76
     0
 77
     3
 78
     9
170
     0
171
     2
172
     1
173
     0
174
     0
175
     0
176
   256
177
   256
178
    40
  0
DIMSTYLE
  2
TECHNICAL_OSAKA
 70
     0
  3

  4
"
  5
OPEN30
  6

  7

 40
1.0
 41
2.5
 42
1.0
 43
10.0
 44
1.0
 45
0.0
 46
0.0
 47
0.1
 48
0.1
140
2.7999999999999989
141
0.0
142
0.0
143
0.0393701
144
1.0
145
0.0
146
0.71
147
1.5
 71
     0
 72
     0
 73
     0
 74
     0
 75
     0
 76
     0
 77
     3
 78
     8
170
     0
171
     2
172
     1
173
     0
174
     0
175
     0
176
   256
177
   256
178
    40
  0
DIMSTYLE
  2
TECHNICAL_OSAKA$3
 70
     0
  3

  4
"
  5
OPEN30
  6

  7

 40
1.0
 41
2.5
 42
1.0
 43
10.0
 44
1.0
 45
0.0
 46
0.0
 47
0.1
 48
0.1
140
2.7999999999999989
141
0.0
142
0.0
143
0.0393701
144
1.0
145
0.0
146
0.71
147
1.5
 71
     0
 72
     0
 73
     0
 74
     1
 75
     0
 76
     0
 77
     3
 78
     8
170
     0
171
     2
172
     0
173
     0
174
     0
175
     0
176
   256
177
   256
178
    40
  0
DIMSTYLE
  2
TECHNICAL_OSAKA$4
 70
     0
  3

  4
"
  5
OPEN30
  6

  7

 40
1.0
 41
2.5
 42
1.0
 43
10.0
 44
1.0
 45
0.0
 46
0.0
 47
0.1
 48
0.1
140
2.7999999999999989
141
0.0
142
0.0
143
0.0393701
144
1.0
145
0.0
146
0.71
147
1.5
 71
     0
 72
     0
 73
     0
 74
     1
 75
     0
 76
     0
 77
     3
 78
     8
170
     0
171
     2
172
     0
173
     0
174
     0
175
     0
176
   256
177
   256
178
    40
  0
DIMSTYLE
  2
TECHNICAL_OSAKA$6
 70
     0
  3

  4
"
  5
OPEN30
  6

  7

 40
1.0
 41
2.5
 42
1.0
 43
10.0
 44
1.0
 45
0.0
 46
0.0
 47
0.1
 48
0.1
140
2.7999999999999989
141
0.0
142
0.0
143
0.0393701
144
1.0
145
0.0
146
0.71
147
1.5
 71
     0
 72
     0
 73
     0
 74
     0
 75
     0
 76
     0
 77
     0
 78
     8
170
     0
171
     2
172
     1
173
     0
174
     0
175
     0
176
   256
177
   256
178
    40
  0
DIMSTYLE
  2
TECHNICAL_OSAKA$7
 70
     0
  3

  4
"
  5
OPEN30
  6

  7

 40
1.0
 41
2.5
 42
1.0
 43
10.0
 44
1.0
 45
0.0
 46
0.0
 47
0.1
 48
0.1
140
2.7999999999999989
141
0.0
142
0.0
143
0.0393701
144
1.0
145
0.0
146
0.71
147
1.5
 71
     0
 72
     0
 73
     0
 74
     0
 75
     0
 76
     0
 77
     3
 78
     8
170
     0
171
     2
172
     1
173
     0
174
     0
175
     0
176
   256
177
   256
178
    40
  0
DIMSTYLE
  2
TECHNICAL_OSAKA$SF
 70
     0
  3

  4
"
  5
OPEN30
  6
OPEN30
  7
OPEN30
 40
1.0
 41
2.5
 42
1.0
 43
10.0
 44
1.0
 45
0.0
 46
0.0
 47
0.1
 48
0.1
140
3.5
141
0.0
142
0.0
143
0.0393701
144
1.0
145
0.0
146
0.71
147
1.5
 71
     0
 72
     0
 73
     0
 74
     0
 75
     1
 76
     1
 77
     3
 78
     8
170
     0
171
     2
172
     1
173
     0
174
     0
175
     0
176
   256
177
   256
178
    40
  0
DIMSTYLE
  2
TECHNICAL_OSAKA$SH
 70
     0
  3

  4
"
  5
OPEN30
  6
GENAXEH
  7
OPEN30
 40
1.0
 41
2.5
 42
1.0
 43
10.0
 44
1.0
 45
0.0
 46
0.0
 47
0.1
 48
0.1
140
3.5
141
0.0
142
0.0
143
0.0393701
144
2.0
145
0.0
146
0.71
147
1.5
 71
     0
 72
     0
 73
     0
 74
     0
 75
     1
 76
     1
 77
     3
 78
     8
170
     0
171
     2
172
     1
173
     1
174
     0
175
     0
176
   256
177
   256
178
    40
  0
DIMSTYLE
  2
STANDARD
 70
     0
  3

  4

  5

  6

  7

 40
1.0
 41
0.18
 42
0.0625
 43
0.38
 44
0.18
 45
0.0
 46
0.0
 47
0.0
 48
0.0
140
0.18
141
0.09
142
0.0
143
25.399999999999999
144
1.0
145
0.0
146
1.0
147
0.09
 71
     0
 72
     0
 73
     1
 74
     1
 75
     0
 76
     0
 77
     0
 78
     0
170
     0
171
     2
172
     0
173
     0
174
     0
175
     0
176
     0
177
     0
178
     0
  0
ENDTAB
  0
ENDSEC
  0
SECTION
  2
BLOCKS
  0
BLOCK
  8
0
  2
$MODEL_SPACE
 70
     0
 10
0.0
 20
0.0
 30
0.0
  3
$MODEL_SPACE
  1

  0
ENDBLK
  5
1C
  8
0
  0
BLOCK
 67
     1
  8
0
  2
$PAPER_SPACE
 70
     0
 10
0.0
 20
0.0
 30
0.0
  3
$PAPER_SPACE
  1

  0
ENDBLK
  5
19
 67
     1
  8
0
  0
BLOCK
  8
0
  2
_OPEN
 70
     0
 10
0.0
 20
0.0
 30
0.0
  3
_OPEN
  1

  0
LINE
  5
4711
  8
0
  6
BYBLOCK
 62
     0
 10
-1.0
 20
0.1666666666666666
 30
0.0
 11
0.0
 21
0.0
 31
0.0
  0
LINE
  5
4712
  8
0
  6
BYBLOCK
 62
     0
 10
-1.0
 20
-0.1666666666666666
 30
0.0
 11
0.0
 21
0.0
 31
0.0
  0
LINE
  5
4713
  8
0
  6
BYBLOCK
 62
     0
 10
0.0
 20
0.0
 30
0.0
 11
-1.0
 21
0.0
 31
0.0
  0
ENDBLK
  5
4714
  8
0
  0
BLOCK
  8
0
  2
GENAXEH
 70
     0
 10
0.0
 20
0.0
 30
0.0
  3
GENAXEH
  1

  0
LINE
  5
474C
  8
0
 10
-1.0
 20
0.0
 30
0.0
 11
1.0
 21
0.0
 31
0.0
  0
ENDBLK
  5
474D
  8
0
  0
BLOCK
  8
0
  2
_OPEN30
 70
     0
 10
0.0
 20
0.0
 30
0.0
  3
_OPEN30
  1

  0
LINE
  5
4788
  8
0
  6
BYBLOCK
 62
     0
 10
-1.0
 20
0.26794919
 30
0.0
 11
0.0
 21
0.0
 31
0.0
  0
LINE
  5
4789
  8
0
  6
BYBLOCK
 62
     0
 10
0.0
 20
0.0
 30
0.0
 11
-1.0
 21
-0.26794919
 31
0.0
  0
LINE
  5
478A
  8
0
  6
BYBLOCK
 62
     0
 10
0.0
 20
0.0
 30
0.0
 11
-1.0
 21
0.0
 31
0.0
  0
ENDBLK
  5
478B
  8
0
  0
ENDSEC
  0
SECTION
  2
ENTITIES
  0
LINE
  5
436A
  8
245
  6
CENTER2
 10
91.755193415508955
 20
0.0
 30
0.0
 11
-18.5
 21
0.0
 31
0.0
  0
LINE
  5
436B
  8
245
  6
CENTER2
 10
84.999999999999986
 20
6.5249757490992124
 30
0.0
 11
84.999999999999986
 21
-6.6710648180337548
 31
0.0
  0
LINE
  5
436C
  8
245
  6
CENTER2
 10
-17.888480421402559
 20
56.021736462054037
 30
0.0
 11
91.388163490351332
 21
56.021736462054037
 31
0.0
  0
LINE
  5
436D
  8
241
  6
CONTINUOUS
 10
-16.499999999999972
 20
56.521736462054022
 30
0.0
 11
90.30000000000004
 21
56.521736462054037
 31
0.0
  0
LINE
  5
436E
  8
241
  6
CONTINUOUS
 10
-16.499999999999972
 20
55.521736462054029
 30
0.0
 11
90.30000000000004
 21
55.521736462054029
 31
0.0
  0
LINE
  5
436F
  8
240
  6
CONTINUOUS
 10
89.108246407405801
 20
58.521736462054037
 30
0.0
 11
32.611626201504777
 21
58.521736462053909
 31
0.0
  0
LINE
  5
4370
  8
240
  6
CONTINUOUS
 10
89.108246407405801
 20
53.521736462054037
 30
0.0
 11
32.611626201504833
 21
53.521736462054143
 31
0.0
  0
LINE
  5
4371
  8
240
  6
CONTINUOUS
 10
90.30000000000004
 20
55.521736462054029
 30
0.0
 11
90.093054160418006
 21
54.348088284387103
 31
0.0
  0
LINE
  5
4372
  8
240
  6
CONTINUOUS
 10
90.30000000000004
 20
56.521736462054037
 30
0.0
 11
90.093054160418006
 21
57.69538463972097
 31
0.0
  0
ARC
  5
4373
  8
240
  6
CONTINUOUS
 10
89.108246407405801
 20
57.521736462054029
 30
0.0
 40
1.0
 50
10.00000000000019
 51
90.0
  0
ARC
  5
4374
  8
240
  6
CONTINUOUS
 10
89.108246407405801
 20
54.521736462054037
 30
0.0
 40
1.0
 50
270.0
 51
349.99999999999977
  0
LINE
  5
4375
  8
245
  6
CENTER2
 10
0.0
 20
-18.5
 30
0.0
 11
0.0
 21
18.5
 31
0.0
  0
LINE
  5
4376
  8
245
  6
CENTER2
 10
0.0000000000000284
 20
66.774097160911566
 30
0.0
 11
0.0000000000000284
 21
45.173995868331211
 31
0.0
  0
ARC
  5
437E
  8
240
  6
CONTINUOUS
 10
84.999999999999986
 20
0.0
 30
0.0
 40
5.2999999999999989
 50
268.99998239997558
 51
89.999999999995111
  0
LINE
  5
437F
  8
240
  6
CONTINUOUS
 10
13.946736075429889
 20
64.021736462054022
 30
0.0
 11
-13.94673607542984
 21
64.021736462054051
 31
0.0
  0
LINE
  5
4380
  8
240
  6
CONTINUOUS
 10
13.946736075429889
 20
48.021736462054072
 30
0.0
 11
-13.94673607542984
 21
48.021736462054029
 31
0.0
  0
LINE
  5
4382
  8
240
  6
CONTINUOUS
 10
84.907502245888764
 20
-5.2991927843289943
 30
0.0
 11
34.72177690077163
 21
-4.8612285942587903
 31
0.0
  0
LINE
  5
4383
  8
240
  6
CONTINUOUS
 10
34.72177690077163
 20
4.8612285942588471
 30
0.0
 11
85.000000000000369
 21
5.3000000000000957
 31
0.0
  0
CIRCLE
  5
4385
  8
241
  6
CONTINUOUS
 10
0.0
 20
0.0
 30
0.0
 40
15.5
  0
LINE
  5
4386
  8
241
  6
CONTINUOUS
 10
31.99999999999994
 20
-5.0233418393360116
 30
0.0
 11
31.99999999999994
 21
5.0233418393360401
 31
0.0
  0
LINE
  5
4387
  8
240
  6
CONTINUOUS
 10
29.37086528875372
 20
-5.5419505297605829
 30
0.0
 11
18.509926996472021
 21
-8.4521301742218498
 31
0.0
  0
ARC
  5
4388
  8
240
  6
CONTINUOUS
 10
34.547246190804152
 20
-24.86046705554196
 30
0.0
 40
20.0
 50
89.500000000000313
 51
104.9999999999996
  0
ARC
  5
4389
  8
240
  6
CONTINUOUS
 10
23.686307898522411
 20
-27.770646700003141
 30
0.0
 40
20.0
 50
104.9999999999996
 51
130.4617256769175
  0
ARC
  5
438A
  8
240
  6
CONTINUOUS
 10
0.0
 20
0.0
 30
0.0
 40
16.5
 50
49.538274323082511
 51
310.46170807682353
  0
LINE
  5
438B
  8
240
  6
CONTINUOUS
 10
29.37086528875372
 20
5.5419505297605829
 30
0.0
 11
18.509926996472021
 21
8.4521301742218498
 31
0.0
  0
ARC
  5
438C
  8
240
  6
CONTINUOUS
 10
34.547246190804152
 20
24.86046705554196
 30
0.0
 40
20.0
 50
255.0000000000004
 51
270.4999999999996
  0
ARC
  5
438D
  8
240
  6
CONTINUOUS
 10
23.686307898522411
 20
27.770646700003141
 30
0.0
 40
20.0
 50
229.5382743230825
 51
255.0000000000004
  0
LINE
  5
438E
  8
240
  6
CONTINUOUS
 10
31.392932767453321
 20
53.447197978467351
 30
0.0
 11
16.398420634081081
 21
51.606103390217967
 31
0.0
  0
LINE
  5
438F
  8
240
  6
CONTINUOUS
 10
31.39293276745326
 20
58.596274945640687
 30
0.0
 11
16.398420634081081
 21
60.43736953389007
 31
0.0
  0
ARC
  5
4390
  8
240
  6
CONTINUOUS
 10
32.611626201504812
 20
43.521736462054143
 30
0.0
 40
10.0
 50
90.0
 51
96.999999999999375
  0
ARC
  5
4391
  8
240
  6
CONTINUOUS
 10
32.611626201504748
 20
68.521736462053909
 30
0.0
 40
10.0
 50
263.00000000000063
 51
270.0
  0
ARC
  5
4394
  8
241
  6
CONTINUOUS
 10
0.0
 20
0.0
 30
0.0
 40
16.5
 50
329.83571949984821
 51
30.45107351312285
  0
ARC
  5
4397
  8
241
  6
CONTINUOUS
 10
3.7419736202727729
 20
-0.0446157037043804
 30
0.0
 40
19.3106545318348
 50
351.6507611206502
 51
11.91100768470465
  0
ARC
  5
4398
  8
241
  6
CONTINUOUS
 10
3.7534126888351689
 20
-0.0446168589411968
 30
0.0
 40
18.538171415104859
 50
351.84093304870328
 51
11.91106708337848
  0
LINE
  5
43A3
  8
241
  6
CONTINUOUS
 10
22.103938411386942
 20
-2.6755872353949139
 30
0.0
 11
21.292158916307251
 21
-2.4867658669291468
 31
0.0
  0
LINE
  5
43A4
  8
241
  6
CONTINUOUS
 10
21.292158916307251
 20
-2.4867658669291468
 30
0.0
 11
22.19421533885324
 21
-4.2704455817806197
 31
0.0
  0
LINE
  5
43A5
  8
241
  6
CONTINUOUS
 10
19.463557873847719
 20
-1.0397114475143781
 30
0.0
 11
19.007631222672298
 21
-1.0397114475143781
 31
0.0
  0
ARC
  5
43A6
  8
241
  6
CONTINUOUS
 10
19.458045797723258
 20
-2.0628097601040158
 30
0.0
 40
0.647289744738524
 50
270.48791521565022
 51
89.512084784349753
  0
LINE
  5
43A7
  8
241
  6
CONTINUOUS
 10
20.47903018021265
 20
-3.955571539653874
 30
0.0
 11
20.1059989655956
 21
-3.955571539653874
 31
0.0
  0
ARC
  5
43A8
  8
241
  6
CONTINUOUS
 10
19.01314156703981
 20
-2.0628097601011461
 30
0.0
 40
0.6472897299961629
 50
90.487761932246002
 51
269.51223806775403
  0
LINE
  5
43A9
  8
241
  6
CONTINUOUS
 10
19.007631222672298
 20
-3.0859079997721319
 30
0.0
 11
19.463557873847719
 21
-3.0859079997721319
 31
0.0
  0
LINE
  5
43AA
  8
241
  6
CONTINUOUS
 10
19.007631222672298
 20
-2.7100760350324431
 30
0.0
 11
19.463557873847719
 21
-2.7100760350324431
 31
0.0
  0
LINE
  5
43AB
  8
241
  6
CONTINUOUS
 10
19.463557873847719
 20
-1.415543485175049
 30
0.0
 11
19.007631222672298
 21
-1.415543485175049
 31
0.0
  0
ARC
  5
43AC
  8
241
  6
CONTINUOUS
 10
19.454966768192659
 20
-2.06270685810233
 30
0.0
 40
1.02323720779232
 50
270.4810613560486
 51
89.518938643951358
  0
ARC
  5
43AD
  8
241
  6
CONTINUOUS
 10
19.016222329191798
 20
-2.0629126561848059
 30
0.0
 40
1.0232372747979159
 50
90.481061372952468
 51
269.51893862704748
  0
LINE
  5
43AE
  8
241
  6
CONTINUOUS
 10
20.060196404645101
 20
-5.6237682584884956
 30
0.0
 11
20.060196404645101
 21
-5.6259360542509276
 31
0.0
  0
LINE
  5
43AF
  8
241
  6
CONTINUOUS
 10
17.992158916307321
 20
-5.6259360542509853
 30
0.0
 11
17.992158916307321
 21
-6.001768018990588
 31
0.0
  0
LINE
  5
43B0
  8
241
  6
CONTINUOUS
 10
17.992158916307321
 20
-6.001768018990588
 30
0.0
 11
20.47903018021265
 21
-6.0017680189905596
 31
0.0
  0
LINE
  5
43B1
  8
241
  6
CONTINUOUS
 10
20.1059989655956
 20
-5.6259360542509276
 30
0.0
 11
17.992158916307321
 21
-5.6259360542509853
 31
0.0
  0
LINE
  5
43B2
  8
241
  6
CONTINUOUS
 10
20.47903018021265
 20
-6.0017680189905596
 30
0.0
 11
20.47903018021265
 21
-3.955571539653874
 31
0.0
  0
LINE
  5
43B3
  8
241
  6
CONTINUOUS
 10
20.1059989655956
 20
-3.955571539653874
 30
0.0
 11
20.1059989655956
 21
-5.6259360542509276
 31
0.0
  0
LINE
  5
43BC
  8
241
  6
CONTINUOUS
 10
22.19421533885324
 20
-4.2704455817806197
 30
0.0
 11
23.78106342687747
 21
-3.065689665079304
 31
0.0
  0
LINE
  5
43C0
  8
241
  6
CONTINUOUS
 10
23.78106342687747
 20
-3.065689665079304
 30
0.0
 11
22.847961607313461
 21
-2.8486487789243422
 31
0.0
  0
LINE
  5
43DA
  8
241
  6
CONTINUOUS
 10
19.329047196850951
 20
4.4803522916984662
 30
0.0
 11
20.47903018021265
 21
5.4335284715608054
 31
0.0
  0
LINE
  5
43DB
  8
241
  6
CONTINUOUS
 10
19.077189698326261
 20
4.7582676753460191
 30
0.0
 11
18.26763698814236
 21
5.6515803735737791
 31
0.0
  0
LINE
  5
43DC
  8
241
  6
CONTINUOUS
 10
17.992158916307321
 20
5.3981681991322139
 30
0.0
 11
19.08304554705154
 21
4.1944155970353441
 31
0.0
  0
LINE
  5
43DD
  8
241
  6
CONTINUOUS
 10
20.242036900209708
 20
5.7237651722962246
 30
0.0
 11
19.077189698326261
 21
4.7582676753460191
 31
0.0
  0
LINE
  5
43DE
  8
241
  6
CONTINUOUS
 10
20.47903018021265
 20
4.1944155970354009
 30
0.0
 11
19.588174628312
 21
4.1944155970353441
 31
0.0
  0
LINE
  5
43DF
  8
241
  6
CONTINUOUS
 10
19.588174628312
 20
4.1944155970353441
 30
0.0
 11
19.329047196850951
 21
4.4803522916984662
 31
0.0
  0
LINE
  5
43E0
  8
241
  6
CONTINUOUS
 10
20.47903018021265
 20
3.8185836322957689
 30
0.0
 11
20.47903018021265
 21
4.1944155970354009
 31
0.0
  0
LINE
  5
43E1
  8
241
  6
CONTINUOUS
 10
17.992158916307321
 20
4.1944155970353441
 30
0.0
 11
17.992158916307321
 21
3.8185836322957689
 31
0.0
  0
LINE
  5
43E2
  8
241
  6
CONTINUOUS
 10
19.08304554705154
 20
4.1944155970353441
 30
0.0
 11
17.992158916307321
 21
4.1944155970353441
 31
0.0
  0
LINE
  5
43E3
  8
241
  6
CONTINUOUS
 10
17.992158916307321
 20
3.8185836322957689
 30
0.0
 11
20.47903018021265
 21
3.8185836322957689
 31
0.0
  0
ARC
  5
43E4
  8
241
  6
CONTINUOUS
 10
19.45425024048674
 20
1.7378113096843031
 30
0.0
 40
1.0246520190809489
 50
270.5204649316114
 51
74.598336967548775
  0
ARC
  5
43E5
  8
241
  6
CONTINUOUS
 10
19.457668178272851
 20
1.737670772301555
 30
0.0
 40
0.6482492175306999
 50
270.52057038058098
 51
74.598329745509147
  0
LINE
  5
43E6
  8
241
  6
CONTINUOUS
 10
19.726381525424699
 20
2.725665713918374
 30
0.0
 11
19.629832942465839
 21
2.3626398451359591
 31
0.0
  0
LINE
  5
43E7
  8
241
  6
CONTINUOUS
 10
18.84135498731797
 20
2.3626398451359591
 30
0.0
 11
18.744807571095262
 21
2.725665713918374
 31
0.0
  0
ARC
  5
43E8
  8
241
  6
CONTINUOUS
 10
19.016939204798891
 20
1.7378110783838281
 30
0.0
 40
1.0246523347015499
 50
105.40167839913239
 51
269.4795157258805
  0
ARC
  5
43E9
  8
241
  6
CONTINUOUS
 10
19.0135194000128
 20
1.737670381917837
 30
0.0
 40
0.6482495005425888
 50
105.401631139107
 51
269.47956404196049
  0
LINE
  5
43EA
  8
241
  6
CONTINUOUS
 10
19.463557873847719
 20
1.0901624003627139
 30
0.0
 11
19.007631222672298
 21
1.0901624003627139
 31
0.0
  0
LINE
  5
43EB
  8
241
  6
CONTINUOUS
 10
19.007631222672298
 20
0.714330362702043
 30
0.0
 11
19.463557873847719
 21
0.714330362702043
 31
0.0
  0
LINE
  5
43F4
  8
241
  6
CONTINUOUS
 10
22.636857227906908
 20
3.940954102307443
 30
0.0
 11
21.892441275993072
 21
3.781535428942675
 31
0.0
  0
LINE
  5
4402
  8
241
  6
CONTINUOUS
 10
20.47903018021265
 20
5.4335284715608054
 30
0.0
 11
20.242036900209708
 21
5.7237651722962246
 31
0.0
  0
LINE
  5
4403
  8
241
  6
CONTINUOUS
 10
18.26763698814236
 20
5.6515803735737791
 30
0.0
 11
17.992158916307321
 21
5.3981681991322139
 31
0.0
  0
ARC
  5
4465
  8
240
  6
CONTINUOUS
 10
5.5833333333333988
 20
56.021736462054037
 30
0.0
 40
22.083333333333371
 50
161.59151982941361
 51
198.40848017058639
  0
ARC
  5
4466
  8
240
  6
CONTINUOUS
 10
-13.94673607542984
 20
62.521736462054058
 30
0.0
 40
1.5
 50
90.0
 51
161.59151982941361
  0
ARC
  5
4467
  8
240
  6
CONTINUOUS
 10
-13.94673607542984
 20
49.521736462054022
 30
0.0
 40
1.5
 50
198.40848017058639
 51
270.0
  0
ARC
  5
4471
  8
240
  6
CONTINUOUS
 10
-5.5833333333333419
 20
56.021736462054037
 30
0.0
 40
22.083333333333371
 50
341.59151982941358
 51
347.43768076771408
  0
ARC
  5
4472
  8
240
  6
CONTINUOUS
 10
16.459355305783639
 20
51.109830314397293
 30
0.0
 40
0.5
 50
96.999999999999375
 51
167.437680767714
  0
ARC
  5
4473
  8
240
  6
CONTINUOUS
 10
13.946736075429889
 20
49.521736462054079
 30
0.0
 40
1.5
 50
270.0
 51
341.59151982941358
  0
ARC
  5
4474
  8
240
  6
CONTINUOUS
 10
-5.5833333333333419
 20
56.021736462054037
 30
0.0
 40
22.083333333333371
 50
12.562319232285921
 51
18.40848017058639
  0
ARC
  5
4475
  8
240
  6
CONTINUOUS
 10
13.946736075429889
 20
62.521736462054022
 30
0.0
 40
1.5
 50
18.40848017058639
 51
90.0
  0
ARC
  5
4476
  8
240
  6
CONTINUOUS
 10
16.459355305783639
 20
60.933642609710752
 30
0.0
 40
0.5
 50
192.56231923228589
 51
263.00000000000063
  0
CIRCLE
  5
4482
  8
241
  6
CONTINUOUS
 10
0.0
 20
0.0
 30
0.0
 40
12.0
  0
LINE
  5
4545
  8
240
  6
CONTINUOUS
 10
90.30000000000004
 20
55.521736462054029
 30
0.0
 11
90.30000000000004
 21
56.521736462054037
 31
0.0
  0
LINE
  5
4546
  8
246
  6
PHANTOM2
 10
-8.9999999999999716
 20
64.021736462054037
 30
0.0
 11
-8.9999999999999698
 21
48.021736462054037
 31
0.0
  0
LINE
  5
4547
  8
246
  6
PHANTOM2
 10
9.0000000000000302
 20
64.021736462054022
 30
0.0
 11
9.0000000000000302
 21
48.021736462054058
 31
0.0
  0
CIRCLE
  5
4548
  8
246
  6
PHANTOM2
 10
0.0
 20
0.0
 30
0.0
 40
9.0
  0
LINE
  5
4624
  8
250
  6
CONTINUOUS
 10
90.299999999999969
 20
0.5
 30
0.0
 11
90.299999999999969
 21
35.999999999999979
 31
0.0
  0
LINE
  5
4625
  8
250
  6
CONTINUOUS
 10
-16.5
 20
0.5
 30
0.0
 11
-16.499999999999989
 21
35.999999999999979
 31
0.0
  0
LINE
  5
4626
  8
250
  6
CONTINUOUS
 10
88.069999999999965
 20
34.999999999999979
 30
0.0
 11
-14.269999999999991
 21
34.999999999999979
 31
0.0
  0
LINE
  5
462A
  8
250
  6
CONTINUOUS
 10
0.0
 20
17.0
 30
0.0
 11
0.0000000000000008
 21
29.0
 31
0.0
  0
LINE
  5
462B
  8
250
  6
CONTINUOUS
 10
90.299999999999969
 20
0.5
 30
0.0
 11
90.299999999999969
 21
29.0
 31
0.0
  0
LINE
  5
462C
  8
250
  6
CONTINUOUS
 10
2.23
 20
28.0
 30
0.0
 11
88.069999999999965
 21
28.0
 31
0.0
  0
LINE
  5
4630
  8
250
  6
CONTINUOUS
 10
-16.5
 20
0.5
 30
0.0
 11
-16.5
 21
29.0
 31
0.0
  0
LINE
  5
4631
  8
250
  6
CONTINUOUS
 10
0.0
 20
19.0
 30
0.0
 11
0.0000000000000006
 21
29.0
 31
0.0
  0
LINE
  5
4632
  8
250
  6
CONTINUOUS
 10
-14.27
 20
28.0
 30
0.0
 11
-2.2299999999999991
 21
28.0
 31
0.0
  0
LINE
  5
4636
  8
250
  6
CONTINUOUS
 10
-8.9999999999999716
 20
64.521736462054037
 30
0.0
 11
-8.9999999999999716
 21
78.059549944012332
 31
0.0
  0
LINE
  5
4637
  8
250
  6
CONTINUOUS
 10
9.0000000000000302
 20
64.521736462054022
 30
0.0
 11
9.0000000000000302
 21
78.059549944012332
 31
0.0
  0
LINE
  5
4638
  8
250
  6
CONTINUOUS
 10
-6.7699999999999712
 20
77.059549944012332
 30
0.0
 11
6.7700000000000289
 21
77.059549944012332
 31
0.0
  0
TEXT
  5
463C
  8
250
  6
CONTINUOUS
 10
30.699999999999982
 20
35.999999999999979
 30
0.0
 40
2.7999999999999989
  1
106.8
  0
LINE
  5
463D
  8
250
  6
CONTINUOUS
 10
-14.269999999999991
 20
34.628333333333309
 30
0.0
 11
-16.499999999999989
 21
34.999999999999979
 31
0.0
  0
LINE
  5
463E
  8
250
  6
CONTINUOUS
 10
-14.269999999999991
 20
35.371666666666648
 30
0.0
 11
-16.499999999999989
 21
34.999999999999979
 31
0.0
  0
LINE
  5
463F
  8
250
  6
CONTINUOUS
 10
-16.499999999999989
 20
34.999999999999979
 30
0.0
 11
-14.269999999999991
 21
34.999999999999979
 31
0.0
  0
LINE
  5
4640
  8
250
  6
CONTINUOUS
 10
88.069999999999965
 20
35.371666666666648
 30
0.0
 11
90.299999999999969
 21
34.999999999999979
 31
0.0
  0
LINE
  5
4641
  8
250
  6
CONTINUOUS
 10
88.069999999999965
 20
34.628333333333309
 30
0.0
 11
90.299999999999969
 21
34.999999999999979
 31
0.0
  0
LINE
  5
4642
  8
250
  6
CONTINUOUS
 10
90.299999999999969
 20
34.999999999999979
 30
0.0
 11
88.069999999999965
 21
34.999999999999979
 31
0.0
  0
TEXT
  5
4643
  8
250
  6
CONTINUOUS
 10
40.48333333333332
 20
29.0
 30
0.0
 40
2.7999999999999989
  1
90.3
  0
LINE
  5
4644
  8
250
  6
CONTINUOUS
 10
88.069999999999965
 20
28.371666666666659
 30
0.0
 11
90.299999999999969
 21
28.0
 31
0.0
  0
LINE
  5
4645
  8
250
  6
CONTINUOUS
 10
88.069999999999965
 20
27.62833333333333
 30
0.0
 11
90.299999999999969
 21
28.0
 31
0.0
  0
LINE
  5
4646
  8
250
  6
CONTINUOUS
 10
90.299999999999969
 20
28.0
 30
0.0
 11
88.069999999999965
 21
28.0
 31
0.0
  0
LINE
  5
4647
  8
250
  6
CONTINUOUS
 10
2.23
 20
27.62833333333333
 30
0.0
 11
0.0000000000000007
 21
28.0
 31
0.0
  0
LINE
  5
4648
  8
250
  6
CONTINUOUS
 10
2.23
 20
28.371666666666659
 30
0.0
 11
0.0000000000000007
 21
28.0
 31
0.0
  0
LINE
  5
4649
  8
250
  6
CONTINUOUS
 10
0.0000000000000007
 20
28.0
 30
0.0
 11
2.23
 21
28.0
 31
0.0
  0
TEXT
  5
464A
  8
250
  6
CONTINUOUS
 10
-13.11666666666666
 20
29.0
 30
0.0
 40
2.7999999999999989
  1
16.5
  0
LINE
  5
464B
  8
250
  6
CONTINUOUS
 10
-2.2299999999999991
 20
28.371666666666659
 30
0.0
 11
0.0000000000000006
 21
28.0
 31
0.0
  0
LINE
  5
464C
  8
250
  6
CONTINUOUS
 10
-2.2299999999999991
 20
27.62833333333333
 30
0.0
 11
0.0000000000000006
 21
28.0
 31
0.0
  0
LINE
  5
464D
  8
250
  6
CONTINUOUS
 10
0.0000000000000006
 20
28.0
 30
0.0
 11
-2.2299999999999991
 21
28.0
 31
0.0
  0
LINE
  5
464E
  8
250
  6
CONTINUOUS
 10
-14.27
 20
27.62833333333333
 30
0.0
 11
-16.5
 21
28.0
 31
0.0
  0
LINE
  5
464F
  8
250
  6
CONTINUOUS
 10
-14.27
 20
28.371666666666659
 30
0.0
 11
-16.5
 21
28.0
 31
0.0
  0
LINE
  5
4650
  8
250
  6
CONTINUOUS
 10
-16.5
 20
28.0
 30
0.0
 11
-14.27
 21
28.0
 31
0.0
  0
TEXT
  5
4651
  8
250
  6
CONTINUOUS
 10
-3.9333333333333029
 20
78.059549944012332
 30
0.0
 40
2.7999999999999989
  1
\U+220518
  0
LINE
  5
4652
  8
250
  6
CONTINUOUS
 10
6.7700000000000289
 20
77.431216610679002
 30
0.0
 11
9.0000000000000302
 21
77.059549944012332
 31
0.0
  0
LINE
  5
4653
  8
250
  6
CONTINUOUS
 10
6.7700000000000289
 20
76.687883277345676
 30
0.0
 11
9.0000000000000302
 21
77.059549944012332
 31
0.0
  0
LINE
  5
4654
  8
250
  6
CONTINUOUS
 10
9.0000000000000302
 20
77.059549944012332
 30
0.0
 11
6.7700000000000289
 21
77.059549944012332
 31
0.0
  0
LINE
  5
4655
  8
250
  6
CONTINUOUS
 10
-6.7699999999999712
 20
76.687883277345676
 30
0.0
 11
-8.9999999999999716
 21
77.059549944012332
 31
0.0
  0
LINE
  5
4656
  8
250
  6
CONTINUOUS
 10
-6.7699999999999712
 20
77.431216610679002
 30
0.0
 11
-8.9999999999999716
 21
77.059549944012332
 31
0.0
  0
LINE
  5
4657
  8
250
  6
CONTINUOUS
 10
-8.9999999999999716
 20
77.059549944012332
 30
0.0
 11
-6.7699999999999712
 21
77.059549944012332
 31
0.0
  0
TEXT
  5
466C
  8
241
  6
CONTINUOUS
 10
-14.0
 20
91.0
 30
0.0
 40
4.0
  1
MGR18
  7
YOKO
  0
VIEWPORT
  5
22
 67
     1
  8
0
 10
261.51769911504419
 20
148.5
 30
0.0
 40
523.0353982300885
 41
297.0
 68
     1
 69
     1
1001
ACAD
1000
MVIEW
1002
{
1070
    16
1010
0.0
1020
0.0
1030
0.0
1010
0.0
1020
0.0
1030
1.0
1040
0.0
1040
297.0
1040
261.51769911504419
1040
148.5
1040
50.0
1040
0.0
1040
0.0
1070
     0
1070
   100
1070
     1
1070
     1
1070
     0
1070
     0
1070
     0
1070
     0
1040
0.0
1040
0.0
1040
0.0
1040
1.0
1040
1.0
1040
10.0
1040
10.0
1070
     0
1002
{
1002
}
1002
}
1001
GENIUS_GENODEF_13
1002
{
1000
HIER
1070
     0
1002
}
1002
{
1000
MANEDIT
1070
     0
1002
}
1002
{
1000
NOSEL
1070
     0
1002
}
1002
{
1000
BEHIND
1070
     0
1002
}
1002
{
1000
OTHER
1070
     0
1002
}
1002
{
1000
REACTOR
1002
}
1001
GENIUS_GENOBJ-N-SDF_13
1002
{
1000
OWNER
1000
GEN
1002
}
1001
GENIUS_GENSCREG_15
1000
PF
1040
1.0
1000
DF
1040
1.0
1000
MIN
1011
0.0
1021
0.0
1031
0.0
1021
0.0
1031
0.0
1000
MAX
1011
523.0353982300885
1021
0.0
1031
0.0
1021
297.0
1031
0.0
1000
FLAGS
1070
     4
  0
ENDSEC
  0
EOF
