  0
SECTION
  2
HEADER
  9
$ACADVER
  1
AC1009
  9
$INSBASE
 10
0.0
 20
0.0
 30
0.0
  9
$EXTMIN
 10
-16.888480421402559
 20
-16.5
 30
0.0
  9
$EXTMAX
 10
91.970806521938513
 20
95.000000000000028
 30
0.0
  9
$LIMMIN
 10
0.0
 20
0.0
  9
$LIMMAX
 10
297.0
 20
210.0
  9
$ORTHOMODE
 70
     0
  9
$REGENMODE
 70
     1
  9
$FILLMODE
 70
     1
  9
$QTEXTMODE
 70
     0
  9
$MIRRTEXT
 70
     1
  9
$DRAGMODE
 70
     2
  9
$LTSCALE
 40
10.0
  9
$OSMODE
 70
    37
  9
$ATTMODE
 70
     1
  9
$TEXTSIZE
 40
3.0
  9
$TRACEWID
 40
1.0
  9
$TEXTSTYLE
  7
YOKO
  9
$CLAYER
  8
240
  9
$CELTYPE
  6
BYLAYER
  9
$CECOLOR
 62
   256
  9
$DIMSCALE
 40
1.0
  9
$DIMASZ
 40
2.2299999999999991
  9
$DIMEXO
 40
0.5
  9
$DIMDLI
 40
7.0
  9
$DIMRND
 40
0.0
  9
$DIMDLE
 40
0.0
  9
$DIMEXE
 40
1.0
  9
$DIMTP
 40
0.0
  9
$DIMTM
 40
0.01
  9
$DIMTXT
 40
2.7999999999999989
  9
$DIMCEN
 40
0.0
  9
$DIMTSZ
 40
0.0
  9
$DIMTOL
 70
     0
  9
$DIMLIM
 70
     0
  9
$DIMTIH
 70
     0
  9
$DIMTOH
 70
     0
  9
$DIMSE1
 70
     0
  9
$DIMSE2
 70
     0
  9
$DIMTAD
 70
     3
  9
$DIMZIN
 70
     9
  9
$DIMBLK
  1
OPEN
  9
$DIMASO
 70
     1
  9
$DIMSHO
 70
     1
  9
$DIMPOST
  1

  9
$DIMAPOST
  1

  9
$DIMALT
 70
     0
  9
$DIMALTD
 70
     2
  9
$DIMALTF
 40
25.399999999999999
  9
$DIMLFAC
 40
1.0
  9
$DIMTOFL
 70
     1
  9
$DIMTVP
 40
0.0
  9
$DIMTIX
 70
     1
  9
$DIMSOXD
 70
     0
  9
$DIMSAH
 70
     0
  9
$DIMBLK1
  1

  9
$DIMBLK2
  1

  9
$DIMSTYLE
  2
BIGT
  9
$DIMCLRD
 70
   256
  9
$DIMCLRE
 70
   256
  9
$DIMCLRT
 70
    40
  9
$DIMTFAC
 40
1.0
  9
$DIMGAP
 40
1.0
  9
$LUNITS
 70
     2
  9
$LUPREC
 70
     6
  9
$SKETCHINC
 40
1.0
  9
$FILLETRAD
 40
0.0
  9
$AUNITS
 70
     0
  9
$AUPREC
 70
     6
  9
$MENU
  1
.
  9
$ELEVATION
 40
0.0
  9
$PELEVATION
 40
0.0
  9
$THICKNESS
 40
0.0
  9
$LIMCHECK
 70
     0
  9
$BLIPMODE
 70
     0
  9
$CHAMFERA
 40
0.2
  9
$CHAMFERB
 40
0.2
  9
$SKPOLY
 70
     0
  9
$TDCREATE
 40
2459494.484110706
  9
$TDUPDATE
 40
2459494.4920133222
  9
$TDINDWG
 40
0.0076305093
  9
$TDUSRTIMER
 40
0.0076304745
  9
$USRTIMER
 70
     1
  9
$ANGBASE
 50
0.0
  9
$ANGDIR
 70
     0
  9
$PDMODE
 70
     1
  9
$PDSIZE
 40
0.0
  9
$PLINEWID
 40
0.0
  9
$COORDS
 70
     1
  9
$SPLFRAME
 70
     0
  9
$SPLINETYPE
 70
     6
  9
$SPLINESEGS
 70
     4
  9
$ATTDIA
 70
     1
  9
$ATTREQ
 70
     1
  9
$HANDLING
 70
     1
  9
$HANDSEED
  5
47DD
  9
$SURFTAB1
 70
     6
  9
$SURFTAB2
 70
     6
  9
$SURFTYPE
 70
     6
  9
$SURFU
 70
     6
  9
$SURFV
 70
     6
  9
$UCSNAME
  2

  9
$UCSORG
 10
0.0
 20
0.0
 30
0.0
  9
$UCSXDIR
 10
1.0
 20
0.0
 30
0.0
  9
$UCSYDIR
 10
0.0
 20
1.0
 30
0.0
  9
$PUCSNAME
  2

  9
$PUCSORG
 10
0.0
 20
0.0
 30
0.0
  9
$PUCSXDIR
 10
1.0
 20
0.0
 30
0.0
  9
$PUCSYDIR
 10
0.0
 20
1.0
 30
0.0
  9
$USERI1
 70
     1
  9
$USERI2
 70
     0
  9
$USERI3
 70
     0
  9
$USERI4
 70
     0
  9
$USERI5
 70
     0
  9
$USERR1
 40
0.0
  9
$USERR2
 40
0.0
  9
$USERR3
 40
0.0
  9
$USERR4
 40
0.0
  9
$USERR5
 40
0.0
  9
$WORLDVIEW
 70
     1
  9
$SHADEDGE
 70
     3
  9
$SHADEDIF
 70
    70
  9
$TILEMODE
 70
     1
  9
$MAXACTVP
 70
    16
  9
$PLIMCHECK
 70
     0
  9
$PEXTMIN
 10
1.0000000000000000E+020
 20
1.0000000000000000E+020
 30
1.0000000000000000E+020
  9
$PEXTMAX
 10
-1.0000000000000000E+020
 20
-1.0000000000000000E+020
 30
-1.0000000000000000E+020
  9
$PLIMMIN
 10
0.0
 20
0.0
  9
$PLIMMAX
 10
420.0
 20
297.0
  9
$UNITMODE
 70
     0
  9
$VISRETAIN
 70
     1
  9
$PLINEGEN
 70
     0
  9
$PSLTSCALE
 70
     1
  0
ENDSEC
  0
SECTION
  2
TABLES
  0
TABLE
  2
VPORT
 70
     1
  0
VPORT
  2
*ACTIVE
 70
     0
 10
0.0
 20
0.0
 11
1.0
 21
1.0
 12
50.935642414619053
 22
34.205985454995648
 13
0.0
 23
0.0
 14
7.0
 24
7.0
 15
7.0
 25
7.0
 16
0.0
 26
0.0
 36
1.0
 17
0.0
 27
0.0
 37
0.0
 40
151.88392847565049
 41
1.758883248730964
 42
50.0
 43
0.0
 44
0.0
 50
0.0
 51
0.0
 71
     0
 72
  2000
 73
     1
 74
     0
 75
     1
 76
     1
 77
     0
 78
     0
  0
ENDTAB
  0
TABLE
  2
LTYPE
 70
    13
  0
LTYPE
  2
CONTINUOUS
 70
     0
  3
Solid line
 72
    65
 73
     0
 40
0.0
  0
LTYPE
  2
CENTER2
 70
     0
  3
___ _ ___ _ ___ _ ___ _ ___ _ ___ _ ___ _ ___ _
 72
    65
 73
     4
 40
1.125
 49
0.75
 49
-0.125
 49
0.125
 49
-0.125
  0
LTYPE
  2
HIDDEN2
 70
     0
  3
_ _ _ _ _ _ _ _ _ _ _ _ _ _ _ _ _ _ _ _ _ _ _ _
 72
    65
 73
     2
 40
0.1875
 49
0.125
 49
-0.0625
  0
LTYPE
  2
PHANTOM2
 70
     0
  3
___ _ _ ___ _ _ ___ _ _ ___ _ _ ___ _ _ ___ _ _
 72
    65
 73
     6
 40
1.25
 49
0.625
 49
-0.125
 49
0.125
 49
-0.125
 49
0.125
 49
-0.125
  0
LTYPE
  2
AM_ISO02W050
 70
     0
  3
__ __ __ __ __ __ __ __ __ __ __ __ __ __ __
 72
    65
 73
     2
 40
7.5
 49
6.0
 49
-1.5
  0
LTYPE
  2
AMCONSTR
 70
     0
  3
_______________________
 72
    65
 73
     2
 40
9999.0
 49
9999.0
 49
0.0
  0
LTYPE
  2
ACISOWELD
 70
     0
  3
_ _ _ _ _
 72
    65
 73
     2
 40
2.0
 49
2.0
 49
-1.0
  0
LTYPE
  2
ACISOTGB
 70
     0
  3
__ . . __ . .
 72
    65
 73
     6
 40
9.0
 49
4.0
 49
-1.0
 49
1.0
 49
-1.0
 49
1.0
 49
-1.0
  0
LTYPE
  2
ACISOTGL
 70
     0
  3
_ _ _ _ _
 72
    65
 73
     2
 40
3.0
 49
2.0
 49
-1.0
  0
LTYPE
  2
ACJISTGB
 70
     0
  3
__ . . __ . .
 72
    65
 73
     6
 40
9.0
 49
4.0
 49
-1.0
 49
1.0
 49
-1.0
 49
1.0
 49
-1.0
  0
LTYPE
  2
ACJISTGL
 70
     0
  3
_ _ _ _ _
 72
    65
 73
     2
 40
3.0
 49
2.0
 49
-1.0
  0
ENDTAB
  0
TABLE
  2
LAYER
 70
     7
  0
LAYER
  2
0
 70
     0
 62
     7
  6
CONTINUOUS
  0
LAYER
  2
DEFPOINTS
 70
     0
 62
     7
  6
CONTINUOUS
  0
LAYER
  2
245
 70
     0
 62
     2
  6
CENTER2
  0
LAYER
  2
240
 70
     0
 62
     4
  6
CONTINUOUS
  0
LAYER
  2
241
 70
     0
 62
   211
  6
CONTINUOUS
  0
LAYER
  2
246
 70
     0
 62
     3
  6
PHANTOM2
  0
LAYER
  2
250
 70
     0
 62
     3
  6
CONTINUOUS
  0
ENDTAB
  0
TABLE
  2
STYLE
 70
     6
  0
STYLE
  2
STANDARD
 70
     0
 40
0.0
 41
1.0
 50
0.0
 71
     0
 42
3.0
  3
romans.shx
  4
extfont.shx
  0
STYLE
  2
ACISOTS
 70
     0
 40
1.0
 41
1.0
 50
0.0
 71
     0
 42
3.0
  3
amgdt.shx
  4
extfont.shx
  0
STYLE
  2
ACISOGDT
 70
     0
 40
0.0
 41
1.0
 50
0.0
 71
     0
 42
3.0
  3
amgdt.shx
  4
extfont.shx
  0
STYLE
  2
ACJISTS
 70
     0
 40
1.0
 41
1.0
 50
0.0
 71
     0
 42
3.0
  3
amgdt.shx
  4
extfont.shx
  0
STYLE
  2
ACJISGDT
 70
     0
 40
0.0
 41
1.0
 50
0.0
 71
     0
 42
3.0
  3
amgdt.shx
  4
extfont.shx
  0
STYLE
  2
YOKO
 70
     0
 40
0.0
 41
1.0
 50
0.0
 71
     0
 42
3.0
  3
romans.shx
  4
extfont.shx
  0
ENDTAB
  0
TABLE
  2
VIEW
 70
     0
  0
ENDTAB
  0
TABLE
  2
UCS
 70
     0
  0
ENDTAB
  0
TABLE
  2
APPID
 70
    38
  0
APPID
  2
ACAD
 70
     0
  0
APPID
  2
GLOBAL
 70
     0
  0
APPID
  2
DETAIL
 70
     0
  0
APPID
  2
GRPNAME
 70
     0
  0
APPID
  2
GPARA
 70
     0
  0
APPID
  2
MCAD_NO_VIS
 70
     0
  0
APPID
  2
ACAD_TEMP_GRAPHIC
 70
     0
  0
APPID
  2
ACATTRIBSERVICES
 70
     0
  0
APPID
  2
GENIUS_GENSCREG_15
 70
     0
  0
APPID
  2
GENIUS_GENODEF_13
 70
     0
  0
APPID
  2
GENIUS_GENOBJ-N-SDF_13
 70
     0
  0
APPID
  2
GENIUS_GENREC_14
 70
     0
  0
APPID
  2
GENIUS_GENOBJ-N-REC_13
 70
     0
  0
APPID
  2
GENIUS_GENDIMSH_14
 70
     0
  0
APPID
  2
GENIUS_GENOBJ-N-DIM_13
 70
     0
  0
APPID
  2
GENIUS_GENDIM_13
 70
     0
  0
APPID
  2
GENIUS_GENDTOL_13
 70
     0
  0
APPID
  2
GENIUS_GENOLIS_13
 70
     0
  0
APPID
  2
GENIUS_GENOENT_13
 70
     0
  0
APPID
  2
GENIUS_GENOBJ-F-FEM_13
 70
     0
  0
APPID
  2
GENIUS_GENOREF_13
 70
     0
  0
APPID
  2
GENIUS_GEFFEM_13
 70
     0
  0
APPID
  2
GENIUS_GEFFEMP_13
 70
     0
  0
APPID
  2
AD_DRAW
 70
     0
  0
APPID
  2
DESIGNERASSEMBLIES
 70
     0
  0
APPID
  2
ACADM_DIM_EDIT
 70
     0
  0
APPID
  2
AMDT_DM_ADJ
 70
     0
  0
APPID
  2
ITEMNAME
 70
     0
  0
APPID
  2
GENIUS_GENOBJ-N-FIL_13
 70
     0
  0
APPID
  2
GENIUS_GENFIL_13
 70
     0
  0
APPID
  2
GENIUS_GENOBJ-N-CHA_13
 70
     0
  0
APPID
  2
ACAD_NAV_VCDISPLAY
 70
     0
  0
APPID
  2
ACAECLAYERSTANDARD
 70
     0
  0
APPID
  2
GRADE_0
 70
     0
  0
APPID
  2
ASK_MEN_XD
 70
     0
  0
APPID
  2
ACAD_EXEMPT_FROM_CAD_STANDARDS
 70
     0
  0
APPID
  2
ACAD_DSTYLE_DIMINSPECT
 70
     0
  0
APPID
  2
ACAD_MLEADERVER
 70
     0
  0
ENDTAB
  0
TABLE
  2
DIMSTYLE
 70
    23
  0
DIMSTYLE
  2
BIGT
 70
     0
  3

  4

  5
OPEN
  6

  7

 40
1.0
 41
2.2299999999999991
 42
0.5
 43
7.0
 44
1.0
 45
0.0
 46
0.0
 47
0.0
 48
0.01
140
2.7999999999999989
141
0.0
142
0.0
143
25.399999999999999
144
1.0
145
0.0
146
1.0
147
1.0
 71
     0
 72
     0
 73
     0
 74
     0
 75
     0
 76
     0
 77
     3
 78
     9
170
     0
171
     2
172
     1
173
     0
174
     1
175
     0
176
   256
177
   256
178
    40
  0
DIMSTYLE
  2
AM_ISO
 70
     0
  3

  4
"
  5

  6

  7

 40
1.0
 41
2.5
 42
1.0
 43
10.0
 44
1.0
 45
0.0
 46
0.0
 47
0.1
 48
0.1
140
3.5
141
0.0
142
0.0
143
0.0393701
144
1.0
145
0.0
146
0.71
147
1.5
 71
     0
 72
     0
 73
     0
 74
     0
 75
     0
 76
     0
 77
     1
 78
     8
170
     0
171
     2
172
     1
173
     0
174
     0
175
     0
176
   256
177
   256
178
     2
  0
DIMSTYLE
  2
AM_ISO$3
 70
     0
  3

  4
"
  5

  6

  7

 40
1.0
 41
2.5
 42
1.0
 43
10.0
 44
1.0
 45
0.0
 46
0.0
 47
0.1
 48
0.1
140
3.5
141
0.0
142
0.0
143
0.0393701
144
1.0
145
0.0
146
0.71
147
1.5
 71
     0
 72
     0
 73
     0
 74
     1
 75
     0
 76
     0
 77
     1
 78
     8
170
     0
171
     2
172
     0
173
     0
174
     0
175
     0
176
   256
177
   256
178
     2
  0
DIMSTYLE
  2
AM_ISO$4
 70
     0
  3

  4
"
  5

  6

  7

 40
1.0
 41
2.5
 42
1.0
 43
10.0
 44
1.0
 45
0.0
 46
0.0
 47
0.1
 48
0.1
140
3.5
141
0.0
142
0.0
143
0.0393701
144
1.0
145
0.0
146
0.71
147
1.5
 71
     0
 72
     0
 73
     0
 74
     1
 75
     0
 76
     0
 77
     1
 78
     8
170
     0
171
     2
172
     0
173
     0
174
     0
175
     0
176
   256
177
   256
178
     2
  0
DIMSTYLE
  2
AM_ISO$6
 70
     0
  3

  4
"
  5

  6

  7

 40
1.0
 41
2.5
 42
1.0
 43
10.0
 44
1.0
 45
0.0
 46
0.0
 47
0.1
 48
0.1
140
3.5
141
0.0
142
0.0
143
0.0393701
144
1.0
145
0.0
146
0.71
147
1.5
 71
     0
 72
     0
 73
     0
 74
     0
 75
     0
 76
     0
 77
     0
 78
     8
170
     0
171
     2
172
     1
173
     0
174
     0
175
     0
176
   256
177
   256
178
     2
  0
DIMSTYLE
  2
AM_ISO$7
 70
     0
  3

  4
"
  5

  6

  7

 40
1.0
 41
2.5
 42
1.0
 43
10.0
 44
1.0
 45
0.0
 46
0.0
 47
0.1
 48
0.1
140
5.0
141
0.0
142
0.0
143
0.0393701
144
1.0
145
0.0
146
0.71
147
1.5
 71
     0
 72
     0
 73
     0
 74
     0
 75
     0
 76
     0
 77
     1
 78
     8
170
     0
171
     2
172
     1
173
     0
174
     0
175
     0
176
   256
177
   256
178
     2
  0
DIMSTYLE
  2
AM_ISO$SF
 70
     0
  3

  4
"
  5

  6

  7

 40
1.0
 41
2.5
 42
1.0
 43
10.0
 44
1.0
 45
0.0
 46
0.0
 47
0.1
 48
0.1
140
3.5
141
0.0
142
0.0
143
0.0393701
144
1.0
145
0.0
146
0.71
147
1.5
 71
     0
 72
     0
 73
     0
 74
     0
 75
     1
 76
     1
 77
     1
 78
     8
170
     0
171
     2
172
     1
173
     0
174
     0
175
     0
176
   256
177
   256
178
     2
  0
DIMSTYLE
  2
AM_ISO$SH
 70
     0
  3

  4
"
  5

  6
GENAXEH
  7

 40
1.0
 41
2.5
 42
1.0
 43
10.0
 44
1.0
 45
0.0
 46
0.0
 47
0.1
 48
0.1
140
3.5
141
0.0
142
0.0
143
0.0393701
144
2.0
145
0.0
146
0.71
147
1.5
 71
     0
 72
     0
 73
     0
 74
     0
 75
     1
 76
     1
 77
     1
 78
     8
170
     0
171
     2
172
     1
173
     1
174
     0
175
     0
176
   256
177
   256
178
     2
  0
DIMSTYLE
  2
BIGT$2
 70
     0
  3

  4

  5
OPEN
  6

  7

 40
1.0
 41
2.2299999999999991
 42
0.5
 43
7.0
 44
1.0
 45
0.0
 46
0.0
 47
0.0
 48
0.01
140
2.7999999999999989
141
0.0
142
0.0
143
25.399999999999999
144
1.0
145
0.0
146
1.0
147
1.0
 71
     0
 72
     0
 73
     0
 74
     0
 75
     0
 76
     0
 77
     3
 78
     9
170
     0
171
     2
172
     1
173
     0
174
     0
175
     0
176
   256
177
   256
178
    40
  0
DIMSTYLE
  2
BIGT$3
 70
     0
  3

  4

  5
OPEN
  6

  7

 40
1.0
 41
2.2299999999999991
 42
0.5
 43
2.5
 44
1.0
 45
0.0
 46
0.0
 47
0.0
 48
0.01
140
2.7999999999999989
141
0.0
142
0.0
143
25.399999999999999
144
1.0
145
0.0
146
1.0
147
1.0
 71
     0
 72
     0
 73
     0
 74
     0
 75
     0
 76
     0
 77
     3
 78
     9
170
     0
171
     2
172
     1
173
     0
174
     0
175
     0
176
   256
177
   256
178
    40
  0
DIMSTYLE
  2
BIGT$7
 70
     0
  3

  4

  5
OPEN
  6

  7

 40
0.0
 41
2.2299999999999991
 42
0.5
 43
7.0
 44
1.0
 45
0.0
 46
0.0
 47
0.0
 48
0.01
140
2.7999999999999989
141
0.0
142
0.0
143
25.399999999999999
144
1.0
145
0.0
146
1.0
147
1.0
 71
     0
 72
     0
 73
     0
 74
     0
 75
     0
 76
     0
 77
     3
 78
     9
170
     0
171
     2
172
     0
173
     0
174
     0
175
     0
176
   256
177
   256
178
    40
  0
DIMSTYLE
  2
BIGT$6
 70
     0
  3

  4

  5
OPEN
  6

  7

 40
1.0
 41
2.2299999999999991
 42
0.5
 43
2.5
 44
1.0
 45
0.0
 46
0.0
 47
0.0
 48
0.01
140
2.7999999999999989
141
0.0
142
0.0
143
25.399999999999999
144
1.0
145
0.0
146
1.0
147
1.0
 71
     0
 72
     0
 73
     0
 74
     0
 75
     0
 76
     0
 77
     3
 78
     9
170
     0
171
     2
172
     1
173
     0
174
     0
175
     0
176
   256
177
   256
178
    40
  0
DIMSTYLE
  2
BIGT$0
 70
     0
  3

  4

  5
OPEN
  6

  7

 40
1.0
 41
2.2299999999999991
 42
0.5
 43
7.0
 44
1.0
 45
0.0
 46
0.0
 47
0.0
 48
0.01
140
2.7999999999999989
141
0.0
142
0.0
143
25.399999999999999
144
1.0
145
0.0
146
1.0
147
1.0
 71
     0
 72
     0
 73
     0
 74
     0
 75
     0
 76
     0
 77
     3
 78
     9
170
     0
171
     2
172
     1
173
     0
174
     1
175
     0
176
   256
177
   256
178
    40
  0
DIMSTYLE
  2
BIGT$4
 70
     0
  3

  4

  5
OPEN
  6

  7

 40
1.0
 41
2.2299999999999991
 42
0.5
 43
2.5
 44
1.0
 45
0.0
 46
0.0
 47
0.0
 48
0.01
140
2.7999999999999989
141
0.0
142
0.0
143
25.399999999999999
144
1.0
145
0.0
146
1.0
147
1.0
 71
     0
 72
     0
 73
     0
 74
     0
 75
     0
 76
     0
 77
     3
 78
     9
170
     0
171
     2
172
     1
173
     0
174
     0
175
     0
176
   256
177
   256
178
    40
  0
DIMSTYLE
  2
BIGT$SH
 70
     0
  3

  4

  5
OPEN
  6

  7

 40
1.0
 41
2.2299999999999991
 42
0.5
 43
7.0
 44
1.0
 45
0.0
 46
0.0
 47
0.0
 48
0.0
140
2.7999999999999989
141
0.0
142
0.0
143
25.399999999999999
144
1.0
145
0.0
146
1.0
147
1.0
 71
     0
 72
     0
 73
     0
 74
     0
 75
     0
 76
     0
 77
     3
 78
     9
170
     0
171
     2
172
     1
173
     0
174
     0
175
     0
176
   256
177
   256
178
    40
  0
DIMSTYLE
  2
BIGT$SF
 70
     0
  3

  4

  5
OPEN
  6

  7

 40
1.0
 41
2.2299999999999991
 42
0.5
 43
7.0
 44
1.0
 45
0.0
 46
0.0
 47
0.0
 48
0.0
140
2.7999999999999989
141
0.0
142
0.0
143
25.399999999999999
144
1.0
145
0.0
146
1.0
147
1.0
 71
     0
 72
     0
 73
     0
 74
     0
 75
     0
 76
     0
 77
     3
 78
     9
170
     0
171
     2
172
     1
173
     0
174
     0
175
     0
176
   256
177
   256
178
    40
  0
DIMSTYLE
  2
TECHNICAL_OSAKA
 70
     0
  3

  4
"
  5
OPEN30
  6

  7

 40
1.0
 41
2.5
 42
1.0
 43
10.0
 44
1.0
 45
0.0
 46
0.0
 47
0.1
 48
0.1
140
2.7999999999999989
141
0.0
142
0.0
143
0.0393701
144
1.0
145
0.0
146
0.71
147
1.5
 71
     0
 72
     0
 73
     0
 74
     0
 75
     0
 76
     0
 77
     3
 78
     8
170
     0
171
     2
172
     1
173
     0
174
     0
175
     0
176
   256
177
   256
178
    40
  0
DIMSTYLE
  2
TECHNICAL_OSAKA$3
 70
     0
  3

  4
"
  5
OPEN30
  6

  7

 40
1.0
 41
2.5
 42
1.0
 43
10.0
 44
1.0
 45
0.0
 46
0.0
 47
0.1
 48
0.1
140
2.7999999999999989
141
0.0
142
0.0
143
0.0393701
144
1.0
145
0.0
146
0.71
147
1.5
 71
     0
 72
     0
 73
     0
 74
     1
 75
     0
 76
     0
 77
     3
 78
     8
170
     0
171
     2
172
     0
173
     0
174
     0
175
     0
176
   256
177
   256
178
    40
  0
DIMSTYLE
  2
TECHNICAL_OSAKA$4
 70
     0
  3

  4
"
  5
OPEN30
  6

  7

 40
1.0
 41
2.5
 42
1.0
 43
10.0
 44
1.0
 45
0.0
 46
0.0
 47
0.1
 48
0.1
140
2.7999999999999989
141
0.0
142
0.0
143
0.0393701
144
1.0
145
0.0
146
0.71
147
1.5
 71
     0
 72
     0
 73
     0
 74
     1
 75
     0
 76
     0
 77
     3
 78
     8
170
     0
171
     2
172
     0
173
     0
174
     0
175
     0
176
   256
177
   256
178
    40
  0
DIMSTYLE
  2
TECHNICAL_OSAKA$6
 70
     0
  3

  4
"
  5
OPEN30
  6

  7

 40
1.0
 41
2.5
 42
1.0
 43
10.0
 44
1.0
 45
0.0
 46
0.0
 47
0.1
 48
0.1
140
2.7999999999999989
141
0.0
142
0.0
143
0.0393701
144
1.0
145
0.0
146
0.71
147
1.5
 71
     0
 72
     0
 73
     0
 74
     0
 75
     0
 76
     0
 77
     0
 78
     8
170
     0
171
     2
172
     1
173
     0
174
     0
175
     0
176
   256
177
   256
178
    40
  0
DIMSTYLE
  2
TECHNICAL_OSAKA$7
 70
     0
  3

  4
"
  5
OPEN30
  6

  7

 40
1.0
 41
2.5
 42
1.0
 43
10.0
 44
1.0
 45
0.0
 46
0.0
 47
0.1
 48
0.1
140
2.7999999999999989
141
0.0
142
0.0
143
0.0393701
144
1.0
145
0.0
146
0.71
147
1.5
 71
     0
 72
     0
 73
     0
 74
     0
 75
     0
 76
     0
 77
     3
 78
     8
170
     0
171
     2
172
     1
173
     0
174
     0
175
     0
176
   256
177
   256
178
    40
  0
DIMSTYLE
  2
TECHNICAL_OSAKA$SF
 70
     0
  3

  4
"
  5
OPEN30
  6
OPEN30
  7
OPEN30
 40
1.0
 41
2.5
 42
1.0
 43
10.0
 44
1.0
 45
0.0
 46
0.0
 47
0.1
 48
0.1
140
3.5
141
0.0
142
0.0
143
0.0393701
144
1.0
145
0.0
146
0.71
147
1.5
 71
     0
 72
     0
 73
     0
 74
     0
 75
     1
 76
     1
 77
     3
 78
     8
170
     0
171
     2
172
     1
173
     0
174
     0
175
     0
176
   256
177
   256
178
    40
  0
DIMSTYLE
  2
TECHNICAL_OSAKA$SH
 70
     0
  3

  4
"
  5
OPEN30
  6
GENAXEH
  7
OPEN30
 40
1.0
 41
2.5
 42
1.0
 43
10.0
 44
1.0
 45
0.0
 46
0.0
 47
0.1
 48
0.1
140
3.5
141
0.0
142
0.0
143
0.0393701
144
2.0
145
0.0
146
0.71
147
1.5
 71
     0
 72
     0
 73
     0
 74
     0
 75
     1
 76
     1
 77
     3
 78
     8
170
     0
171
     2
172
     1
173
     1
174
     0
175
     0
176
   256
177
   256
178
    40
  0
ENDTAB
  0
ENDSEC
  0
SECTION
  2
BLOCKS
  0
BLOCK
  8
0
  2
$MODEL_SPACE
 70
     0
 10
0.0
 20
0.0
 30
0.0
  3
$MODEL_SPACE
  1

  0
ENDBLK
  5
1C
  8
0
  0
BLOCK
 67
     1
  8
0
  2
$PAPER_SPACE
 70
     0
 10
0.0
 20
0.0
 30
0.0
  3
$PAPER_SPACE
  1

  0
ENDBLK
  5
19
 67
     1
  8
0
  0
BLOCK
  8
0
  2
_OPEN
 70
     0
 10
0.0
 20
0.0
 30
0.0
  3
_OPEN
  1

  0
LINE
  5
46E4
  8
0
  6
BYBLOCK
 62
     0
 10
-1.0
 20
0.1666666666666666
 30
0.0
 11
0.0
 21
0.0
 31
0.0
  0
LINE
  5
46E5
  8
0
  6
BYBLOCK
 62
     0
 10
-1.0
 20
-0.1666666666666666
 30
0.0
 11
0.0
 21
0.0
 31
0.0
  0
LINE
  5
46E6
  8
0
  6
BYBLOCK
 62
     0
 10
0.0
 20
0.0
 30
0.0
 11
-1.0
 21
0.0
 31
0.0
  0
ENDBLK
  5
46E7
  8
0
  0
BLOCK
  8
0
  2
GENAXEH
 70
     0
 10
0.0
 20
0.0
 30
0.0
  3
GENAXEH
  1

  0
LINE
  5
471F
  8
0
 10
-1.0
 20
0.0
 30
0.0
 11
1.0
 21
0.0
 31
0.0
  0
ENDBLK
  5
4720
  8
0
  0
BLOCK
  8
0
  2
_OPEN30
 70
     0
 10
0.0
 20
0.0
 30
0.0
  3
_OPEN30
  1

  0
LINE
  5
475B
  8
0
  6
BYBLOCK
 62
     0
 10
-1.0
 20
0.26794919
 30
0.0
 11
0.0
 21
0.0
 31
0.0
  0
LINE
  5
475C
  8
0
  6
BYBLOCK
 62
     0
 10
0.0
 20
0.0
 30
0.0
 11
-1.0
 21
-0.26794919
 31
0.0
  0
LINE
  5
475D
  8
0
  6
BYBLOCK
 62
     0
 10
0.0
 20
0.0
 30
0.0
 11
-1.0
 21
0.0
 31
0.0
  0
ENDBLK
  5
475E
  8
0
  0
ENDSEC
  0
SECTION
  2
ENTITIES
  0
LINE
  5
434D
  8
245
  6
CENTER2
 10
91.299999999999955
 20
0.0
 30
0.0
 11
-16.5
 21
0.0
 31
0.0
  0
CIRCLE
  5
434E
  8
241
  6
CONTINUOUS
 10
0.0
 20
0.0
 30
0.0
 40
14.0
  0
ARC
  5
434F
  8
240
  6
CONTINUOUS
 10
30.41364725116452
 20
46.424778522699853
 30
0.0
 40
40.0
 50
236.77052283348519
 51
255.0000000000004
1001
ASK_MEN_XD
1005
43DB
1070
     1
1005
4353
1070
     1
  0
ARC
  5
4350
  8
240
  6
CONTINUOUS
 10
30.413647251164349
 20
-46.424778522699931
 30
0.0
 40
40.0
 50
104.9999999999996
 51
123.2294771665148
1001
ASK_MEN_XD
1005
4353
1070
     1
1005
4376
1070
     1
  0
ARC
  5
4351
  8
240
  6
CONTINUOUS
 10
0.0
 20
0.0
 30
0.0
 40
15.5
 50
56.770522833485217
 51
303.22947716651481
  0
LINE
  5
4352
  8
245
  6
CENTER2
 10
0.0
 20
-16.5
 30
0.0
 11
0.0
 21
16.5
 31
0.0
  0
ARC
  5
4353
  8
241
  6
CONTINUOUS
 10
0.0
 20
0.0
 30
0.0
 40
15.5
 50
324.23285384179212
 51
38.385411771829169
  0
LINE
  5
4356
  8
240
  6
CONTINUOUS
 10
36.543553801542942
 20
4.8773288158611763
 30
0.0
 11
84.953749361858684
 21
5.299798192240103
 31
0.0
  0
LINE
  5
4357
  8
240
  6
CONTINUOUS
 10
36.543553801542828
 20
-4.877328815861147
 30
0.0
 11
84.953749361858684
 21
-5.299798192240103
 31
0.0
  0
ARC
  5
435E
  8
241
  6
CONTINUOUS
 10
18.453500218524312
 20
1.765425211195065
 30
0.0
 40
1.0246520190809489
 50
270.5204649316114
 51
74.598336967548775
  0
ARC
  5
435F
  8
241
  6
CONTINUOUS
 10
18.456918156310419
 20
1.7652846738123169
 30
0.0
 40
0.6482492175306999
 50
270.52057038058098
 51
74.598329745509147
  0
ARC
  5
4360
  8
241
  6
CONTINUOUS
 10
18.016189182836449
 20
1.7654249798945889
 30
0.0
 40
1.0246523347015499
 50
105.40167839913239
 51
269.4795157258805
  0
ARC
  5
4361
  8
241
  6
CONTINUOUS
 10
18.012769378050361
 20
1.7652842834285991
 30
0.0
 40
0.6482495005425888
 50
105.401631139107
 51
269.47956404196049
  0
ARC
  5
4362
  8
241
  6
CONTINUOUS
 10
2.7498147039653982
 20
-0.0446157037043804
 30
0.0
 40
19.3106545318348
 50
351.6507611206502
 51
11.91100768470465
  0
ARC
  5
4363
  8
241
  6
CONTINUOUS
 10
2.7612537725277941
 20
-0.0446168589411968
 30
0.0
 40
18.538171415104859
 50
351.84093304870328
 51
11.91106708337848
  0
LINE
  5
436A
  8
241
  6
CONTINUOUS
 10
31.099999999997209
 20
5.2015553060164734
 30
0.0
 11
31.099999999997181
 21
-5.2015553060165871
 31
0.0
  0
LINE
  5
4376
  8
240
  6
CONTINUOUS
 10
25.841730577507921
 20
-6.238772686865274
 30
0.0
 11
20.060885447063701
 21
-7.7877454711372129
 31
0.0
  0
ARC
  5
4377
  8
241
  6
CONTINUOUS
 10
18.009960231104849
 20
-1.7812569444553781
 30
0.0
 40
1.0232372747979159
 50
90.481061372952468
 51
269.51893862704748
  0
ARC
  5
4378
  8
241
  6
CONTINUOUS
 10
18.00687946895286
 20
-1.7811540483717181
 30
0.0
 40
0.6472897299961629
 50
90.487761932246002
 51
269.51223806775403
  0
LINE
  5
4379
  8
241
  6
CONTINUOUS
 10
16.99999999999994
 20
-6.3504487673792758
 30
0.0
 11
19.486871263905272
 21
-6.3504487673792482
 31
0.0
  0
LINE
  5
437A
  8
241
  6
CONTINUOUS
 10
19.113840049288228
 20
-5.9746168026396163
 30
0.0
 11
16.99999999999994
 21
-5.9746168026396731
 31
0.0
  0
LINE
  5
437B
  8
241
  6
CONTINUOUS
 10
16.99999999999994
 20
-5.9746168026396731
 30
0.0
 11
16.99999999999994
 21
-6.3504487673792758
 31
0.0
  0
LINE
  5
437C
  8
241
  6
CONTINUOUS
 10
19.486871263905272
 20
-6.3504487673792482
 30
0.0
 11
19.486871263905272
 21
-4.3042522880425622
 31
0.0
  0
LINE
  5
437D
  8
241
  6
CONTINUOUS
 10
19.113840049288228
 20
-4.3042522880425622
 30
0.0
 11
19.113840049288228
 21
-5.9746168026396163
 31
0.0
  0
LINE
  5
437E
  8
241
  6
CONTINUOUS
 10
19.068037488337719
 20
-5.9724490068771843
 30
0.0
 11
19.068037488337719
 21
-5.9746168026396163
 31
0.0
  0
LINE
  5
437F
  8
241
  6
CONTINUOUS
 10
21.202056422545869
 20
-4.2704455817806197
 30
0.0
 11
22.788904510570092
 21
-3.065689665079304
 31
0.0
  0
LINE
  5
4380
  8
241
  6
CONTINUOUS
 10
18.00688120070987
 20
0.7419442642128047
 30
0.0
 11
18.462807851885291
 21
0.7419442642128047
 31
0.0
  0
ARC
  5
4381
  8
241
  6
CONTINUOUS
 10
18.448704670105709
 20
-1.781051146372902
 30
0.0
 40
1.02323720779232
 50
270.4810613560486
 51
89.518938643951358
  0
ARC
  5
4382
  8
241
  6
CONTINUOUS
 10
18.451783699636309
 20
-1.781154048374588
 30
0.0
 40
0.647289744738524
 50
270.48791521565022
 51
89.512084784349753
  0
LINE
  5
4383
  8
241
  6
CONTINUOUS
 10
19.486871263905272
 20
-4.3042522880425622
 30
0.0
 11
19.113840049288228
 21
-4.3042522880425622
 31
0.0
  0
LINE
  5
4384
  8
241
  6
CONTINUOUS
 10
18.001369124585349
 20
-2.8042522880427039
 30
0.0
 11
18.45729577576077
 21
-2.8042522880427039
 31
0.0
  0
LINE
  5
4385
  8
241
  6
CONTINUOUS
 10
18.001369124585349
 20
-2.428420323303015
 30
0.0
 11
18.45729577576077
 21
-2.428420323303015
 31
0.0
  0
LINE
  5
4386
  8
241
  6
CONTINUOUS
 10
18.45729577576077
 20
-0.75805573578495
 30
0.0
 11
18.001369124585349
 21
-0.75805573578495
 31
0.0
  0
LINE
  5
4387
  8
241
  6
CONTINUOUS
 10
18.45729577576077
 20
-1.133887773445621
 30
0.0
 11
18.001369124585349
 21
-1.133887773445621
 31
0.0
  0
LINE
  5
4388
  8
241
  6
CONTINUOUS
 10
21.11177949507956
 20
-2.6755872353949139
 30
0.0
 11
20.299999999999869
 21
-2.4867658669291468
 31
0.0
  0
LINE
  5
4389
  8
241
  6
CONTINUOUS
 10
20.299999999999869
 20
-2.4867658669291468
 30
0.0
 11
21.202056422545869
 21
-4.2704455817806197
 31
0.0
  0
LINE
  5
43AA
  8
241
  6
CONTINUOUS
 10
22.788904510570092
 20
-3.065689665079304
 30
0.0
 11
21.85580269100609
 21
-2.8486487789243422
 31
0.0
  0
ARC
  5
43AC
  8
240
  6
CONTINUOUS
 10
36.194492381608491
 20
-44.875805738428078
 30
0.0
 40
40.0
 50
89.500000000000313
 51
104.9999999999996
1001
ASK_MEN_XD
1005
4376
1070
     1
1005
0
1070
     1
  0
LINE
  5
43DB
  8
240
  6
CONTINUOUS
 10
25.841730577507981
 20
6.2387726868651612
 30
0.0
 11
20.060885447063718
 21
7.7877454711370708
 31
0.0
  0
LINE
  5
43DC
  8
241
  6
CONTINUOUS
 10
18.08503078201889
 20
5.1929636584826824
 30
0.0
 11
17.275478071834979
 21
6.0862763567104423
 31
0.0
  0
LINE
  5
43DD
  8
241
  6
CONTINUOUS
 10
16.99999999999994
 20
5.832864182268878
 30
0.0
 11
18.090886630744158
 21
4.6291115801720082
 31
0.0
  0
LINE
  5
43DE
  8
241
  6
CONTINUOUS
 10
18.090886630744158
 20
4.6291115801720082
 30
0.0
 11
16.99999999999994
 21
4.6291115801720082
 31
0.0
  0
LINE
  5
43DF
  8
241
  6
CONTINUOUS
 10
16.99999999999994
 20
4.253279615432433
 30
0.0
 11
19.486871263905272
 21
4.253279615432433
 31
0.0
  0
LINE
  5
43E0
  8
241
  6
CONTINUOUS
 10
17.275478071834979
 20
6.0862763567104423
 30
0.0
 11
16.99999999999994
 21
5.832864182268878
 31
0.0
  0
LINE
  5
43E1
  8
241
  6
CONTINUOUS
 10
16.99999999999994
 20
4.6291115801720082
 30
0.0
 11
16.99999999999994
 21
4.253279615432433
 31
0.0
  0
LINE
  5
43E2
  8
241
  6
CONTINUOUS
 10
21.644698311599541
 20
3.940954102307443
 30
0.0
 11
20.90028235968569
 21
3.781535428942675
 31
0.0
  0
LINE
  5
43E3
  8
241
  6
CONTINUOUS
 10
19.486871263905272
 20
5.8682244546974678
 30
0.0
 11
19.24987798390233
 21
6.1584611554328879
 31
0.0
  0
LINE
  5
43E4
  8
241
  6
CONTINUOUS
 10
19.486871263905272
 20
4.253279615432433
 30
0.0
 11
19.486871263905272
 21
4.629111580172065
 31
0.0
  0
LINE
  5
43E5
  8
241
  6
CONTINUOUS
 10
19.486871263905272
 20
4.629111580172065
 30
0.0
 11
18.596015712004629
 21
4.6291115801720082
 31
0.0
  0
LINE
  5
43E6
  8
241
  6
CONTINUOUS
 10
18.596015712004629
 20
4.6291115801720082
 30
0.0
 11
18.336888280543569
 21
4.9150482748351294
 31
0.0
  0
LINE
  5
43E7
  8
241
  6
CONTINUOUS
 10
18.336888280543569
 20
4.9150482748351294
 30
0.0
 11
19.486871263905272
 21
5.8682244546974678
 31
0.0
  0
LINE
  5
43E8
  8
241
  6
CONTINUOUS
 10
19.24987798390233
 20
6.1584611554328879
 30
0.0
 11
18.08503078201889
 21
5.1929636584826824
 31
0.0
  0
LINE
  5
43E9
  8
241
  6
CONTINUOUS
 10
17.840604965355539
 20
2.39025374664672
 30
0.0
 11
17.74405754913283
 21
2.7532796154291361
 31
0.0
  0
LINE
  5
43EA
  8
241
  6
CONTINUOUS
 10
18.725631503462271
 20
2.7532796154291361
 30
0.0
 11
18.629082920503411
 21
2.39025374664672
 31
0.0
  0
LINE
  5
43EB
  8
241
  6
CONTINUOUS
 10
18.462807851885291
 20
1.1177763018734761
 30
0.0
 11
18.00688120070987
 21
1.1177763018734761
 31
0.0
  0
ARC
  5
4406
  8
240
  6
CONTINUOUS
 10
36.194492381608569
 20
44.875805738427971
 30
0.0
 40
40.0
 50
255.0000000000004
 51
270.4999999999996
1001
ASK_MEN_XD
1005
43DB
1070
     1
1005
0
1070
     1
  0
ARC
  5
442A
  8
240
  6
CONTINUOUS
 10
84.999999999999943
 20
0.0
 30
0.0
 40
5.2999999999999989
 50
269.50000000000028
 51
90.499999999999702
  0
LINE
  5
442E
  8
245
  6
CENTER2
 10
-16.888480421402559
 20
56.000000000000007
 30
0.0
 11
91.970806521938513
 21
56.000000000000007
 31
0.0
  0
LINE
  5
442F
  8
241
  6
CONTINUOUS
 10
-15.5
 20
56.499999999999979
 30
0.0
 11
90.300000000000011
 21
56.500000000000021
 31
0.0
  0
LINE
  5
4430
  8
241
  6
CONTINUOUS
 10
-15.5
 20
55.500000000000007
 30
0.0
 11
90.300000000000011
 21
55.500000000000007
 31
0.0
  0
LINE
  5
4431
  8
240
  6
CONTINUOUS
 10
31.711626201504771
 20
58.499999999999979
 30
0.0
 11
89.108246407405844
 21
58.500000000000007
 31
0.0
  0
ARC
  5
4432
  8
240
  6
CONTINUOUS
 10
31.711626201504771
 20
68.499999999999986
 30
0.0
 40
10.0
 50
263.00000000000063
 51
270.0
1001
ASK_MEN_XD
1005
4446
1070
     1
1005
4431
1070
     1
  0
LINE
  5
4433
  8
240
  6
CONTINUOUS
 10
31.711626201504771
 20
53.500000000000007
 30
0.0
 11
89.108246407405844
 21
53.500000000000007
 31
0.0
  0
ARC
  5
4434
  8
240
  6
CONTINUOUS
 10
31.711626201504771
 20
43.500000000000007
 30
0.0
 40
10.0
 50
90.0
 51
96.999999999999375
1001
ASK_MEN_XD
1005
4447
1070
     1
1005
4433
1070
     1
  0
LINE
  5
4435
  8
240
  6
CONTINUOUS
 10
90.300000000000011
 20
55.500000000000007
 30
0.0
 11
90.093054160417921
 21
54.326351822333081
 31
0.0
  0
LINE
  5
4436
  8
240
  6
CONTINUOUS
 10
90.300000000000011
 20
56.500000000000021
 30
0.0
 11
90.093054160417921
 21
57.673648177666941
 31
0.0
  0
ARC
  5
4437
  8
240
  6
CONTINUOUS
 10
89.108246407405844
 20
57.500000000000007
 30
0.0
 40
1.0
 50
9.9999999999985398
 51
90.0
  0
ARC
  5
4438
  8
240
  6
CONTINUOUS
 10
89.108246407405844
 20
54.500000000000007
 30
0.0
 40
1.0
 50
270.0
 51
350.00000000000142
  0
LINE
  5
4439
  8
245
  6
CENTER2
 10
0.0
 20
66.752360698857544
 30
0.0
 11
0.0
 21
45.152259406277189
 31
0.0
  0
LINE
  5
443D
  8
240
  6
CONTINUOUS
 10
-12.94673607543006
 20
64.000000000000014
 30
0.0
 11
12.94673607543006
 21
63.999999999999808
 31
0.0
  0
LINE
  5
443F
  8
240
  6
CONTINUOUS
 10
-12.94673607542995
 20
48.000000000000007
 30
0.0
 11
12.94673607542995
 21
48.000000000000007
 31
0.0
  0
LINE
  5
4446
  8
240
  6
CONTINUOUS
 10
30.492932767453169
 20
58.574538483586657
 30
0.0
 11
15.395603681896709
 21
60.428257406163517
 31
0.0
  0
LINE
  5
4447
  8
240
  6
CONTINUOUS
 10
30.492932767453279
 20
53.425461516413222
 30
0.0
 11
15.395603681896709
 21
51.57174259383644
 31
0.0
  0
ARC
  5
4449
  8
240
  6
CONTINUOUS
 10
6.5833333333339956
 20
56.000000000000149
 30
0.0
 40
22.083333333333979
 50
161.59151982941361
 51
198.40848017058639
  0
ARC
  5
444A
  8
240
  6
CONTINUOUS
 10
-12.94673607542995
 20
49.500000000000007
 30
0.0
 40
1.5
 50
198.40848017058639
 51
270.0
1001
ASK_MEN_XD
1005
4449
1070
     1
1005
443F
1070
     1
  0
ARC
  5
444B
  8
240
  6
CONTINUOUS
 10
-12.94673607543006
 20
62.500000000000007
 30
0.0
 40
1.5
 50
90.0
 51
161.59151982941361
1001
ASK_MEN_XD
1005
4449
1070
     1
1005
443D
1070
     1
  0
ARC
  5
444C
  8
240
  6
CONTINUOUS
 10
-6.5833333333339956
 20
56.000000000000149
 30
0.0
 40
22.083333333333979
 50
341.59151982941358
 51
347.40486411409762
  0
ARC
  5
444D
  8
240
  6
CONTINUOUS
 10
15.45653835359923
 20
51.075469518015787
 30
0.0
 40
0.5
 50
96.999999999999375
 51
167.40486411410089
1001
ASK_MEN_XD
1005
444C
1070
     1
1005
4447
1070
     1
  0
ARC
  5
444E
  8
240
  6
CONTINUOUS
 10
-6.5833333333339956
 20
56.000000000000149
 30
0.0
 40
22.083333333333979
 50
12.595135885899101
 51
18.40848017058639
  0
ARC
  5
444F
  8
240
  6
CONTINUOUS
 10
15.45653835359934
 20
60.924530481984213
 30
0.0
 40
0.5
 50
192.59513588589911
 51
263.00000000000063
1001
ASK_MEN_XD
1005
4446
1070
     1
1005
444E
1070
     1
  0
ARC
  5
4450
  8
240
  6
CONTINUOUS
 10
12.94673607542995
 20
49.500000000000007
 30
0.0
 40
1.5
 50
270.0
 51
341.59151982941358
1001
ASK_MEN_XD
1005
4449
1070
     1
1005
443F
1070
     1
  0
ARC
  5
4451
  8
240
  6
CONTINUOUS
 10
12.94673607543006
 20
62.500000000000007
 30
0.0
 40
1.5
 50
18.40848017058639
 51
90.0
1001
ASK_MEN_XD
1005
4449
1070
     1
1005
443D
1070
     1
  0
LINE
  5
4466
  8
245
  6
CENTER2
 10
85.0
 20
6.3002018154444102
 30
0.0
 11
84.999999999999886
 21
-6.3002018154443533
 31
0.0
  0
CIRCLE
  5
4467
  8
241
  6
CONTINUOUS
 10
0.0
 20
0.0
 30
0.0
 40
11.0
  0
LINE
  5
452A
  8
240
  6
CONTINUOUS
 10
90.300000000000011
 20
55.500000000000007
 30
0.0
 11
90.300000000000011
 21
56.500000000000021
 31
0.0
  0
LINE
  5
45B1
  8
246
  6
PHANTOM2
 10
-8.0
 20
63.999999999999972
 30
0.0
 11
-8.0
 21
48.000000000000021
 31
0.0
  0
LINE
  5
45B2
  8
246
  6
PHANTOM2
 10
8.0
 20
63.999999999999851
 30
0.0
 11
8.0
 21
48.000000000000021
 31
0.0
  0
CIRCLE
  5
45B3
  8
246
  6
PHANTOM2
 10
0.0
 20
0.0
 30
0.0
 40
8.0
  0
TEXT
  5
460B
  8
241
  6
CONTINUOUS
 10
-14.0
 20
91.0
 30
0.0
 40
4.0
  1
MGR16
  7
YOKO
  0
LINE
  5
460D
  8
250
  6
CONTINUOUS
 10
-8.0
 20
64.499999999999972
 30
0.0
 11
-7.9999999999999991
 21
78.0
 31
0.0
  0
LINE
  5
460E
  8
250
  6
CONTINUOUS
 10
8.0
 20
64.499999999999844
 30
0.0
 11
8.0
 21
78.0
 31
0.0
  0
LINE
  5
460F
  8
250
  6
CONTINUOUS
 10
-5.7699999999999987
 20
77.0
 30
0.0
 11
5.7699999999999987
 21
77.0
 31
0.0
  0
LINE
  5
4613
  8
250
  6
CONTINUOUS
 10
90.29999999999994
 20
0.5
 30
0.0
 11
90.29999999999994
 21
35.999999999999979
 31
0.0
  0
LINE
  5
4614
  8
250
  6
CONTINUOUS
 10
-15.5
 20
0.5
 30
0.0
 11
-15.5
 21
35.999999999999979
 31
0.0
  0
LINE
  5
4615
  8
250
  6
CONTINUOUS
 10
88.069999999999936
 20
34.999999999999979
 30
0.0
 11
-13.27
 21
34.999999999999979
 31
0.0
  0
LINE
  5
4619
  8
250
  6
CONTINUOUS
 10
0.0
 20
17.0
 30
0.0
 11
0.0000000000000008
 21
29.0
 31
0.0
  0
LINE
  5
461A
  8
250
  6
CONTINUOUS
 10
90.29999999999994
 20
0.5
 30
0.0
 11
90.29999999999994
 21
29.0
 31
0.0
  0
LINE
  5
461B
  8
250
  6
CONTINUOUS
 10
2.23
 20
28.0
 30
0.0
 11
88.069999999999936
 21
28.0
 31
0.0
  0
LINE
  5
461F
  8
250
  6
CONTINUOUS
 10
-15.5
 20
0.5
 30
0.0
 11
-15.5
 21
29.0
 31
0.0
  0
LINE
  5
4620
  8
250
  6
CONTINUOUS
 10
0.0
 20
17.0
 30
0.0
 11
0.0000000000000008
 21
29.0
 31
0.0
  0
LINE
  5
4621
  8
250
  6
CONTINUOUS
 10
-13.27
 20
28.0
 30
0.0
 11
-2.2299999999999991
 21
28.0
 31
0.0
  0
TEXT
  5
4625
  8
250
  6
CONTINUOUS
 10
-3.9333333333333331
 20
78.000000000000014
 30
0.0
 40
2.7999999999999989
  1
\U+220516
  0
LINE
  5
4626
  8
250
  6
CONTINUOUS
 10
5.7699999999999987
 20
77.371666666666655
 30
0.0
 11
8.0
 21
77.0
 31
0.0
  0
LINE
  5
4627
  8
250
  6
CONTINUOUS
 10
5.7699999999999987
 20
76.62833333333333
 30
0.0
 11
8.0
 21
77.0
 31
0.0
  0
LINE
  5
4628
  8
250
  6
CONTINUOUS
 10
8.0
 20
77.0
 30
0.0
 11
5.7699999999999987
 21
77.0
 31
0.0
  0
LINE
  5
4629
  8
250
  6
CONTINUOUS
 10
-5.7699999999999987
 20
76.62833333333333
 30
0.0
 11
-7.9999999999999991
 21
77.0
 31
0.0
  0
LINE
  5
462A
  8
250
  6
CONTINUOUS
 10
-5.7699999999999987
 20
77.371666666666655
 30
0.0
 11
-7.9999999999999991
 21
77.0
 31
0.0
  0
LINE
  5
462B
  8
250
  6
CONTINUOUS
 10
-7.9999999999999991
 20
77.0
 30
0.0
 11
-5.7699999999999987
 21
77.0
 31
0.0
  0
TEXT
  5
462C
  8
250
  6
CONTINUOUS
 10
31.199999999999971
 20
35.999999999999979
 30
0.0
 40
2.7999999999999989
  1
105.8
  0
LINE
  5
462D
  8
250
  6
CONTINUOUS
 10
-13.27
 20
34.628333333333309
 30
0.0
 11
-15.5
 21
34.999999999999979
 31
0.0
  0
LINE
  5
462E
  8
250
  6
CONTINUOUS
 10
-13.27
 20
35.371666666666648
 30
0.0
 11
-15.5
 21
34.999999999999979
 31
0.0
  0
LINE
  5
462F
  8
250
  6
CONTINUOUS
 10
-15.5
 20
34.999999999999979
 30
0.0
 11
-13.27
 21
34.999999999999979
 31
0.0
  0
LINE
  5
4630
  8
250
  6
CONTINUOUS
 10
88.069999999999936
 20
35.371666666666648
 30
0.0
 11
90.29999999999994
 21
34.999999999999979
 31
0.0
  0
LINE
  5
4631
  8
250
  6
CONTINUOUS
 10
88.069999999999936
 20
34.628333333333309
 30
0.0
 11
90.29999999999994
 21
34.999999999999979
 31
0.0
  0
LINE
  5
4632
  8
250
  6
CONTINUOUS
 10
90.29999999999994
 20
34.999999999999979
 30
0.0
 11
88.069999999999936
 21
34.999999999999979
 31
0.0
  0
TEXT
  5
4633
  8
250
  6
CONTINUOUS
 10
40.483333333333313
 20
29.0
 30
0.0
 40
2.7999999999999989
  1
90.3
  0
LINE
  5
4634
  8
250
  6
CONTINUOUS
 10
88.069999999999936
 20
28.371666666666659
 30
0.0
 11
90.29999999999994
 21
28.0
 31
0.0
  0
LINE
  5
4635
  8
250
  6
CONTINUOUS
 10
88.069999999999936
 20
27.62833333333333
 30
0.0
 11
90.29999999999994
 21
28.0
 31
0.0
  0
LINE
  5
4636
  8
250
  6
CONTINUOUS
 10
90.29999999999994
 20
28.0
 30
0.0
 11
88.069999999999936
 21
28.0
 31
0.0
  0
LINE
  5
4637
  8
250
  6
CONTINUOUS
 10
2.23
 20
27.62833333333333
 30
0.0
 11
0.0000000000000007
 21
28.0
 31
0.0
  0
LINE
  5
4638
  8
250
  6
CONTINUOUS
 10
2.23
 20
28.371666666666659
 30
0.0
 11
0.0000000000000007
 21
28.0
 31
0.0
  0
LINE
  5
4639
  8
250
  6
CONTINUOUS
 10
0.0000000000000007
 20
28.0
 30
0.0
 11
2.23
 21
28.0
 31
0.0
  0
TEXT
  5
463A
  8
250
  6
CONTINUOUS
 10
-12.61666666666666
 20
29.0
 30
0.0
 40
2.7999999999999989
  1
15.5
  0
LINE
  5
463B
  8
250
  6
CONTINUOUS
 10
-2.2299999999999991
 20
28.371666666666659
 30
0.0
 11
0.0000000000000007
 21
28.0
 31
0.0
  0
LINE
  5
463C
  8
250
  6
CONTINUOUS
 10
-2.2299999999999991
 20
27.62833333333333
 30
0.0
 11
0.0000000000000007
 21
28.0
 31
0.0
  0
LINE
  5
463D
  8
250
  6
CONTINUOUS
 10
0.0000000000000007
 20
28.0
 30
0.0
 11
-2.2299999999999991
 21
28.0
 31
0.0
  0
LINE
  5
463E
  8
250
  6
CONTINUOUS
 10
-13.27
 20
27.62833333333333
 30
0.0
 11
-15.5
 21
28.0
 31
0.0
  0
LINE
  5
463F
  8
250
  6
CONTINUOUS
 10
-13.27
 20
28.371666666666659
 30
0.0
 11
-15.5
 21
28.0
 31
0.0
  0
LINE
  5
4640
  8
250
  6
CONTINUOUS
 10
-15.5
 20
28.0
 30
0.0
 11
-13.27
 21
28.0
 31
0.0
  0
VIEWPORT
  5
22
 67
     1
  8
0
 10
261.51769911504419
 20
148.5
 30
0.0
 40
523.0353982300885
 41
297.0
 68
     1
 69
     1
1001
ACAD
1000
MVIEW
1002
{
1070
    16
1010
0.0
1020
0.0
1030
0.0
1010
0.0
1020
0.0
1030
1.0
1040
0.0
1040
297.0
1040
261.51769911504419
1040
148.5
1040
50.0
1040
0.0
1040
0.0
1070
     0
1070
   100
1070
     1
1070
     1
1070
     0
1070
     0
1070
     0
1070
     0
1040
0.0
1040
0.0
1040
0.0
1040
1.0
1040
1.0
1040
10.0
1040
10.0
1070
     0
1002
{
1002
}
1002
}
1001
GENIUS_GENODEF_13
1002
{
1000
HIER
1070
     0
1002
}
1002
{
1000
MANEDIT
1070
     0
1002
}
1002
{
1000
NOSEL
1070
     0
1002
}
1002
{
1000
BEHIND
1070
     0
1002
}
1002
{
1000
OTHER
1070
     0
1002
}
1002
{
1000
REACTOR
1002
}
1001
GENIUS_GENOBJ-N-SDF_13
1002
{
1000
OWNER
1000
GEN
1002
}
1001
GENIUS_GENSCREG_15
1000
PF
1040
1.0
1000
DF
1040
1.0
1000
MIN
1011
0.0
1021
0.0
1031
0.0
1021
0.0
1031
0.0
1000
MAX
1011
523.0353982300885
1021
0.0
1031
0.0
1021
297.0
1031
0.0
1000
FLAGS
1070
     4
  0
ENDSEC
  0
EOF
