  0
SECTION
  2
HEADER
  9
$ACADVER
  1
AC1009
  9
$INSBASE
 10
0.0
 20
0.0
 30
0.0
  9
$EXTMIN
 10
-44.436162623395859
 20
-84.999999999999943
 30
0.0
  9
$EXTMAX
 10
110.61904761904751
 20
81.000000000000028
 30
0.0
  9
$LIMMIN
 10
0.0
 20
0.0
  9
$LIMMAX
 10
297.0
 20
210.0
  9
$ORTHOMODE
 70
     0
  9
$REGENMODE
 70
     1
  9
$FILLMODE
 70
     1
  9
$QTEXTMODE
 70
     0
  9
$MIRRTEXT
 70
     1
  9
$DRAGMODE
 70
     2
  9
$LTSCALE
 40
10.0
  9
$OSMODE
 70
    37
  9
$ATTMODE
 70
     1
  9
$TEXTSIZE
 40
3.0
  9
$TRACEWID
 40
1.0
  9
$TEXTSTYLE
  7
YOKO
  9
$CLAYER
  8
240
  9
$CELTYPE
  6
BYLAYER
  9
$CECOLOR
 62
   256
  9
$DIMSCALE
 40
1.0
  9
$DIMASZ
 40
2.2299999999999991
  9
$DIMEXO
 40
0.5
  9
$DIMDLI
 40
7.0
  9
$DIMRND
 40
0.0
  9
$DIMDLE
 40
0.0
  9
$DIMEXE
 40
1.0
  9
$DIMTP
 40
0.0
  9
$DIMTM
 40
0.01
  9
$DIMTXT
 40
2.7999999999999989
  9
$DIMCEN
 40
0.0
  9
$DIMTSZ
 40
0.0
  9
$DIMTOL
 70
     0
  9
$DIMLIM
 70
     0
  9
$DIMTIH
 70
     0
  9
$DIMTOH
 70
     0
  9
$DIMSE1
 70
     0
  9
$DIMSE2
 70
     0
  9
$DIMTAD
 70
     3
  9
$DIMZIN
 70
     9
  9
$DIMBLK
  1
OPEN
  9
$DIMASO
 70
     1
  9
$DIMSHO
 70
     1
  9
$DIMPOST
  1

  9
$DIMAPOST
  1

  9
$DIMALT
 70
     0
  9
$DIMALTD
 70
     2
  9
$DIMALTF
 40
25.399999999999999
  9
$DIMLFAC
 40
1.0
  9
$DIMTOFL
 70
     1
  9
$DIMTVP
 40
0.0
  9
$DIMTIX
 70
     1
  9
$DIMSOXD
 70
     0
  9
$DIMSAH
 70
     0
  9
$DIMBLK1
  1

  9
$DIMBLK2
  1

  9
$DIMSTYLE
  2
BIGT
  9
$DIMCLRD
 70
   256
  9
$DIMCLRE
 70
   256
  9
$DIMCLRT
 70
    40
  9
$DIMTFAC
 40
1.0
  9
$DIMGAP
 40
1.0
  9
$LUNITS
 70
     2
  9
$LUPREC
 70
     6
  9
$SKETCHINC
 40
1.0
  9
$FILLETRAD
 40
0.0
  9
$AUNITS
 70
     0
  9
$AUPREC
 70
     6
  9
$MENU
  1
.
  9
$ELEVATION
 40
0.0
  9
$PELEVATION
 40
0.0
  9
$THICKNESS
 40
0.0
  9
$LIMCHECK
 70
     0
  9
$BLIPMODE
 70
     0
  9
$CHAMFERA
 40
0.2
  9
$CHAMFERB
 40
0.2
  9
$SKPOLY
 70
     0
  9
$TDCREATE
 40
2459494.4366968861
  9
$TDUPDATE
 40
2459494.4773229519
  9
$TDINDWG
 40
0.0406272106
  9
$TDUSRTIMER
 40
0.0406271759
  9
$USRTIMER
 70
     1
  9
$ANGBASE
 50
0.0
  9
$ANGDIR
 70
     0
  9
$PDMODE
 70
     1
  9
$PDSIZE
 40
0.0
  9
$PLINEWID
 40
0.0
  9
$COORDS
 70
     1
  9
$SPLFRAME
 70
     0
  9
$SPLINETYPE
 70
     6
  9
$SPLINESEGS
 70
     4
  9
$ATTDIA
 70
     1
  9
$ATTREQ
 70
     1
  9
$HANDLING
 70
     1
  9
$HANDSEED
  5
48CF
  9
$SURFTAB1
 70
     6
  9
$SURFTAB2
 70
     6
  9
$SURFTYPE
 70
     6
  9
$SURFU
 70
     6
  9
$SURFV
 70
     6
  9
$UCSNAME
  2

  9
$UCSORG
 10
0.0
 20
0.0
 30
0.0
  9
$UCSXDIR
 10
1.0
 20
0.0
 30
0.0
  9
$UCSYDIR
 10
0.0
 20
1.0
 30
0.0
  9
$PUCSNAME
  2

  9
$PUCSORG
 10
0.0
 20
0.0
 30
0.0
  9
$PUCSXDIR
 10
1.0
 20
0.0
 30
0.0
  9
$PUCSYDIR
 10
0.0
 20
1.0
 30
0.0
  9
$USERI1
 70
     1
  9
$USERI2
 70
     0
  9
$USERI3
 70
     0
  9
$USERI4
 70
     0
  9
$USERI5
 70
     0
  9
$USERR1
 40
0.0
  9
$USERR2
 40
0.0
  9
$USERR3
 40
0.0
  9
$USERR4
 40
0.0
  9
$USERR5
 40
0.0
  9
$WORLDVIEW
 70
     1
  9
$SHADEDGE
 70
     3
  9
$SHADEDIF
 70
    70
  9
$TILEMODE
 70
     1
  9
$MAXACTVP
 70
    16
  9
$PLIMCHECK
 70
     0
  9
$PEXTMIN
 10
1.0000000000000000E+020
 20
1.0000000000000000E+020
 30
1.0000000000000000E+020
  9
$PEXTMAX
 10
-1.0000000000000000E+020
 20
-1.0000000000000000E+020
 30
-1.0000000000000000E+020
  9
$PLIMMIN
 10
0.0
 20
0.0
  9
$PLIMMAX
 10
420.0
 20
297.0
  9
$UNITMODE
 70
     0
  9
$VISRETAIN
 70
     1
  9
$PLINEGEN
 70
     0
  9
$PSLTSCALE
 70
     1
  0
ENDSEC
  0
SECTION
  2
TABLES
  0
TABLE
  2
VPORT
 70
     1
  0
VPORT
  2
*ACTIVE
 70
     0
 10
0.0
 20
0.0
 11
1.0
 21
1.0
 12
52.360789745279483
 22
34.634976378775889
 13
0.0
 23
0.0
 14
7.0
 24
7.0
 15
7.0
 25
7.0
 16
0.0
 26
0.0
 36
1.0
 17
0.0
 27
0.0
 37
0.0
 40
151.64632073434879
 41
1.758883248730964
 42
50.0
 43
0.0
 44
0.0
 50
0.0
 51
0.0
 71
     0
 72
  2000
 73
     1
 74
     0
 75
     1
 76
     1
 77
     0
 78
     0
  0
ENDTAB
  0
TABLE
  2
LTYPE
 70
    22
  0
LTYPE
  2
CONTINUOUS
 70
     0
  3
Solid line
 72
    65
 73
     0
 40
0.0
  0
LTYPE
  2
CENTER2
 70
     0
  3
___ _ ___ _ ___ _ ___ _ ___ _ ___ _ ___ _ ___ _
 72
    65
 73
     4
 40
1.125
 49
0.75
 49
-0.125
 49
0.125
 49
-0.125
  0
LTYPE
  2
HIDDEN2
 70
     0
  3
_ _ _ _ _ _ _ _ _ _ _ _ _ _ _ _ _ _ _ _ _ _ _ _
 72
    65
 73
     2
 40
0.1875
 49
0.125
 49
-0.0625
  0
LTYPE
  2
PHANTOM2
 70
     0
  3
___ _ _ ___ _ _ ___ _ _ ___ _ _ ___ _ _ ___ _ _
 72
    65
 73
     6
 40
1.25
 49
0.625
 49
-0.125
 49
0.125
 49
-0.125
 49
0.125
 49
-0.125
  0
LTYPE
  2
CENTER
 70
     0
  3
____ _ ____ _ ____ _ ____ _ ____ _ ____ _ ____ 
 72
    65
 73
     4
 40
2.0
 49
1.25
 49
-0.25
 49
0.25
 49
-0.25
  0
LTYPE
  2
AM_ISO02W050
 70
     0
  3
__ __ __ __ __ __ __ __ __ __ __ __ __ __ __
 72
    65
 73
     2
 40
7.5
 49
6.0
 49
-1.5
  0
LTYPE
  2
AMCONSTR
 70
     0
  3
_______________________
 72
    65
 73
     2
 40
9999.0
 49
9999.0
 49
0.0
  0
LTYPE
  2
ACISOWELD
 70
     0
  3
_ _ _ _ _
 72
    65
 73
     2
 40
2.0
 49
2.0
 49
-1.0
  0
LTYPE
  2
ACISOTGB
 70
     0
  3
__ . . __ . .
 72
    65
 73
     6
 40
9.0
 49
4.0
 49
-1.0
 49
1.0
 49
-1.0
 49
1.0
 49
-1.0
  0
LTYPE
  2
ACISOTGL
 70
     0
  3
_ _ _ _ _
 72
    65
 73
     2
 40
3.0
 49
2.0
 49
-1.0
  0
LTYPE
  2
ACJISTGB
 70
     0
  3
__ . . __ . .
 72
    65
 73
     6
 40
9.0
 49
4.0
 49
-1.0
 49
1.0
 49
-1.0
 49
1.0
 49
-1.0
  0
LTYPE
  2
ACJISTGL
 70
     0
  3
_ _ _ _ _
 72
    65
 73
     2
 40
3.0
 49
2.0
 49
-1.0
  0
LTYPE
  2
HIDDEN
 70
     0
  3
Hidden __ __ __ __ __ __ __ __ __ __ __ __ __ _
 72
    65
 73
     2
 40
9.5249999999999986
 49
6.3499999999999988
 49
-3.1749999999999989
  0
LTYPE
  2
AM_ISO08W050
 70
     0
  3
____ . ____ . ____ . ____ . ____ . ____ . ____
 72
    65
 73
     4
 40
18.0
 49
12.0
 49
-1.5
 49
3.0
 49
-1.5
  0
LTYPE
  2
AM_ISO09W050
 70
     0
  3
_____ . . _____ . . _____ . . ____ .. ____
 72
    65
 73
     6
 40
22.5
 49
12.0
 49
-1.5
 49
3.0
 49
-1.5
 49
3.0
 49
-1.5
  0
LTYPE
  2
AM_ISO08W050X2
 70
     0
  3
__ . __ . __ . __ . __ . __
 72
    65
 73
     4
 40
9.0
 49
6.0
 49
-0.75
 49
1.5
 49
-0.75
  0
LTYPE
  2
AM_ISO02W050X2
 70
     0
  3
 _ _ _ _ _ _ _ _ _ _ _ _
 72
    65
 73
     2
 40
3.75
 49
3.0
 49
-0.75
  0
LTYPE
  2
AMZIGZAG
 70
     0
  3
/\/-/\/-/\/-/\/-/\/-/\/
 72
    65
 73
     2
 40
11.0001
 49
0.0001
 49
-11.0
  0
LTYPE
  2
AMZIGZAG2
 70
     0
  3
/\/-/\/-/\/-/\/-/\/-/\/
 72
    65
 73
     2
 40
0.4401
 49
0.0001
 49
-0.4400000000000002
  0
LTYPE
  2
ACANSTGB
 70
     0
  3
__ . . __ . .
 72
    65
 73
     6
 40
0.35433070866
 49
0.15748031496
 49
-0.03937007874
 49
0.03937007874
 49
-0.03937007874
 49
0.03937007874
 49
-0.03937007874
  0
LTYPE
  2
ACANSTGL
 70
     0
  3
_ _ _ _ _
 72
    65
 73
     2
 40
0.11811023622
 49
0.07874015748
 49
-0.03937007874
  0
ENDTAB
  0
TABLE
  2
LAYER
 70
    16
  0
LAYER
  2
0
 70
     0
 62
     7
  6
CONTINUOUS
  0
LAYER
  2
DEFPOINTS
 70
     0
 62
     7
  6
CONTINUOUS
  0
LAYER
  2
245
 70
     0
 62
     2
  6
CENTER2
  0
LAYER
  2
240
 70
     0
 62
     4
  6
CONTINUOUS
  0
LAYER
  2
241
 70
     0
 62
   211
  6
CONTINUOUS
  0
LAYER
  2
242
 70
     0
 62
     3
  6
CONTINUOUS
  0
LAYER
  2
243
 70
     0
 62
   211
  6
HIDDEN2
  0
LAYER
  2
244
 70
     0
 62
     3
  6
HIDDEN2
  0
LAYER
  2
246
 70
     0
 62
     3
  6
PHANTOM2
  0
LAYER
  2
247
 70
     0
 62
    60
  6
CONTINUOUS
  0
LAYER
  2
248
 70
     0
 62
    60
  6
HIDDEN2
  0
LAYER
  2
250
 70
     0
 62
     3
  6
CONTINUOUS
  0
LAYER
  2
251
 70
     0
 62
    40
  6
CONTINUOUS
  0
LAYER
  2
AM_5
 70
     0
 62
     3
  6
CONTINUOUS
  0
LAYER
  2
AM_CL
 70
     0
 62
   254
  6
AMCONSTR
  0
LAYER
  2
2
 70
     0
 62
     7
  6
CONTINUOUS
  0
ENDTAB
  0
TABLE
  2
STYLE
 70
     8
  0
STYLE
  2
STANDARD
 70
     0
 40
0.0
 41
1.0
 50
0.0
 71
     0
 42
3.0
  3
romans.shx
  4
extfont.shx
  0
STYLE
  2
ACISOTS
 70
     0
 40
1.0
 41
1.0
 50
0.0
 71
     0
 42
3.0
  3
amgdt.shx
  4
extfont.shx
  0
STYLE
  2
ACISOGDT
 70
     0
 40
0.0
 41
1.0
 50
0.0
 71
     0
 42
3.0
  3
amgdt.shx
  4
extfont.shx
  0
STYLE
  2
ACJISTS
 70
     0
 40
1.0
 41
1.0
 50
0.0
 71
     0
 42
3.0
  3
amgdt.shx
  4
extfont.shx
  0
STYLE
  2
ACJISGDT
 70
     0
 40
0.0
 41
1.0
 50
0.0
 71
     0
 42
3.0
  3
amgdt.shx
  4
extfont.shx
  0
STYLE
  2
YOKO
 70
     0
 40
0.0
 41
1.0
 50
0.0
 71
     0
 42
3.0
  3
romans.shx
  4
extfont.shx
  0
STYLE
  2

 70
     1
 40
0.0
 41
1.0
 50
0.0
 71
     0
 42
1.5
  3
ltypeshp.shx
  4

  0
STYLE
  2
ACANSGDT
 70
     0
 40
0.0
 41
1.0
 50
0.0
 71
     0
 42
3.0
  3
amgdt.shx
  4

  0
ENDTAB
  0
TABLE
  2
VIEW
 70
     0
  0
ENDTAB
  0
TABLE
  2
UCS
 70
     0
  0
ENDTAB
  0
TABLE
  2
APPID
 70
    40
  0
APPID
  2
ACAD
 70
     0
  0
APPID
  2
GLOBAL
 70
     0
  0
APPID
  2
DETAIL
 70
     0
  0
APPID
  2
GRPNAME
 70
     0
  0
APPID
  2
GPARA
 70
     0
  0
APPID
  2
MCAD_NO_VIS
 70
     0
  0
APPID
  2
ACAD_TEMP_GRAPHIC
 70
     0
  0
APPID
  2
ACATTRIBSERVICES
 70
     0
  0
APPID
  2
GENIUS_GENSCREG_15
 70
     0
  0
APPID
  2
GENIUS_GENODEF_13
 70
     0
  0
APPID
  2
GENIUS_GENOBJ-N-SDF_13
 70
     0
  0
APPID
  2
GENIUS_GENREC_14
 70
     0
  0
APPID
  2
GENIUS_GENOBJ-N-REC_13
 70
     0
  0
APPID
  2
GENIUS_GENDIMSH_14
 70
     0
  0
APPID
  2
GENIUS_GENOBJ-N-DIM_13
 70
     0
  0
APPID
  2
GENIUS_GENDIM_13
 70
     0
  0
APPID
  2
GENIUS_GENDTOL_13
 70
     0
  0
APPID
  2
GENIUS_GENOLIS_13
 70
     0
  0
APPID
  2
GENIUS_GENOENT_13
 70
     0
  0
APPID
  2
GENIUS_GENOBJ-F-FEM_13
 70
     0
  0
APPID
  2
GENIUS_GENOREF_13
 70
     0
  0
APPID
  2
GENIUS_GEFFEM_13
 70
     0
  0
APPID
  2
GENIUS_GEFFEMP_13
 70
     0
  0
APPID
  2
AD_DRAW
 70
     0
  0
APPID
  2
DESIGNERASSEMBLIES
 70
     0
  0
APPID
  2
ACADM_DIM_EDIT
 70
     0
  0
APPID
  2
AMDT_DM_ADJ
 70
     0
  0
APPID
  2
ITEMNAME
 70
     0
  0
APPID
  2
GENIUS_GENOBJ-N-FIL_13
 70
     0
  0
APPID
  2
GENIUS_GENFIL_13
 70
     0
  0
APPID
  2
GENIUS_GENOBJ-N-CHA_13
 70
     0
  0
APPID
  2
ACAD_NAV_VCDISPLAY
 70
     0
  0
APPID
  2
ACAECLAYERSTANDARD
 70
     0
  0
APPID
  2
KCAD_BASE
 70
     0
  0
APPID
  2
ASKLEADER
 70
     0
  0
APPID
  2
ASKLEADERCHILD
 70
     0
  0
APPID
  2
ACAD_PSEXT
 70
     0
  0
APPID
  2
ACAD_EXEMPT_FROM_CAD_STANDARDS
 70
     0
  0
APPID
  2
ACAD_DSTYLE_DIMINSPECT
 70
     0
  0
APPID
  2
ACAD_MLEADERVER
 70
     0
  0
ENDTAB
  0
TABLE
  2
DIMSTYLE
 70
    34
  0
DIMSTYLE
  2
BIGT
 70
     0
  3

  4

  5
OPEN
  6

  7

 40
1.0
 41
2.2299999999999991
 42
0.5
 43
7.0
 44
1.0
 45
0.0
 46
0.0
 47
0.0
 48
0.01
140
2.7999999999999989
141
0.0
142
0.0
143
25.399999999999999
144
1.0
145
0.0
146
1.0
147
1.0
 71
     0
 72
     0
 73
     0
 74
     0
 75
     0
 76
     0
 77
     3
 78
     9
170
     0
171
     2
172
     1
173
     0
174
     1
175
     0
176
   256
177
   256
178
    40
  0
DIMSTYLE
  2
AM_ISO
 70
     0
  3

  4
"
  5

  6

  7

 40
1.0
 41
2.5
 42
1.0
 43
10.0
 44
1.0
 45
0.0
 46
0.0
 47
0.1
 48
0.1
140
3.5
141
0.0
142
0.0
143
0.0393701
144
1.0
145
0.0
146
0.71
147
1.5
 71
     0
 72
     0
 73
     0
 74
     0
 75
     0
 76
     0
 77
     1
 78
     8
170
     0
171
     2
172
     1
173
     0
174
     0
175
     0
176
   256
177
   256
178
     2
  0
DIMSTYLE
  2
AM_ISO$3
 70
     0
  3

  4
"
  5

  6

  7

 40
1.0
 41
2.5
 42
1.0
 43
10.0
 44
1.0
 45
0.0
 46
0.0
 47
0.1
 48
0.1
140
3.5
141
0.0
142
0.0
143
0.0393701
144
1.0
145
0.0
146
0.71
147
1.5
 71
     0
 72
     0
 73
     0
 74
     1
 75
     0
 76
     0
 77
     1
 78
     8
170
     0
171
     2
172
     0
173
     0
174
     0
175
     0
176
   256
177
   256
178
     2
  0
DIMSTYLE
  2
AM_ISO$4
 70
     0
  3

  4
"
  5

  6

  7

 40
1.0
 41
2.5
 42
1.0
 43
10.0
 44
1.0
 45
0.0
 46
0.0
 47
0.1
 48
0.1
140
3.5
141
0.0
142
0.0
143
0.0393701
144
1.0
145
0.0
146
0.71
147
1.5
 71
     0
 72
     0
 73
     0
 74
     1
 75
     0
 76
     0
 77
     1
 78
     8
170
     0
171
     2
172
     0
173
     0
174
     0
175
     0
176
   256
177
   256
178
     2
  0
DIMSTYLE
  2
AM_ISO$6
 70
     0
  3

  4
"
  5

  6

  7

 40
1.0
 41
2.5
 42
1.0
 43
10.0
 44
1.0
 45
0.0
 46
0.0
 47
0.1
 48
0.1
140
3.5
141
0.0
142
0.0
143
0.0393701
144
1.0
145
0.0
146
0.71
147
1.5
 71
     0
 72
     0
 73
     0
 74
     0
 75
     0
 76
     0
 77
     0
 78
     8
170
     0
171
     2
172
     1
173
     0
174
     0
175
     0
176
   256
177
   256
178
     2
  0
DIMSTYLE
  2
AM_ISO$7
 70
     0
  3

  4
"
  5

  6

  7

 40
1.0
 41
2.5
 42
1.0
 43
10.0
 44
1.0
 45
0.0
 46
0.0
 47
0.1
 48
0.1
140
5.0
141
0.0
142
0.0
143
0.0393701
144
1.0
145
0.0
146
0.71
147
1.5
 71
     0
 72
     0
 73
     0
 74
     0
 75
     0
 76
     0
 77
     1
 78
     8
170
     0
171
     2
172
     1
173
     0
174
     0
175
     0
176
   256
177
   256
178
     2
  0
DIMSTYLE
  2
AM_ISO$SF
 70
     0
  3

  4
"
  5

  6

  7

 40
1.0
 41
2.5
 42
1.0
 43
10.0
 44
1.0
 45
0.0
 46
0.0
 47
0.1
 48
0.1
140
3.5
141
0.0
142
0.0
143
0.0393701
144
1.0
145
0.0
146
0.71
147
1.5
 71
     0
 72
     0
 73
     0
 74
     0
 75
     1
 76
     1
 77
     1
 78
     8
170
     0
171
     2
172
     1
173
     0
174
     0
175
     0
176
   256
177
   256
178
     2
  0
DIMSTYLE
  2
AM_ISO$SH
 70
     0
  3

  4
"
  5

  6
GENAXEH
  7

 40
1.0
 41
2.5
 42
1.0
 43
10.0
 44
1.0
 45
0.0
 46
0.0
 47
0.1
 48
0.1
140
3.5
141
0.0
142
0.0
143
0.0393701
144
2.0
145
0.0
146
0.71
147
1.5
 71
     0
 72
     0
 73
     0
 74
     0
 75
     1
 76
     1
 77
     1
 78
     8
170
     0
171
     2
172
     1
173
     1
174
     0
175
     0
176
   256
177
   256
178
     2
  0
DIMSTYLE
  2
BIGT$2
 70
     0
  3

  4

  5
OPEN
  6

  7

 40
1.0
 41
2.2299999999999991
 42
0.5
 43
7.0
 44
1.0
 45
0.0
 46
0.0
 47
0.0
 48
0.01
140
2.7999999999999989
141
0.0
142
0.0
143
25.399999999999999
144
1.0
145
0.0
146
1.0
147
1.0
 71
     0
 72
     0
 73
     0
 74
     0
 75
     0
 76
     0
 77
     3
 78
     9
170
     0
171
     2
172
     1
173
     0
174
     0
175
     0
176
   256
177
   256
178
    40
  0
DIMSTYLE
  2
BIGT$3
 70
     0
  3

  4

  5
OPEN
  6

  7

 40
1.0
 41
2.2299999999999991
 42
0.5
 43
2.5
 44
1.0
 45
0.0
 46
0.0
 47
0.0
 48
0.01
140
2.7999999999999989
141
0.0
142
0.0
143
25.399999999999999
144
1.0
145
0.0
146
1.0
147
1.0
 71
     0
 72
     0
 73
     0
 74
     0
 75
     0
 76
     0
 77
     3
 78
     9
170
     0
171
     2
172
     1
173
     0
174
     0
175
     0
176
   256
177
   256
178
    40
  0
DIMSTYLE
  2
BIGT$7
 70
     0
  3

  4

  5
OPEN
  6

  7

 40
0.0
 41
2.2299999999999991
 42
0.5
 43
7.0
 44
1.0
 45
0.0
 46
0.0
 47
0.0
 48
0.01
140
2.7999999999999989
141
0.0
142
0.0
143
25.399999999999999
144
1.0
145
0.0
146
1.0
147
1.0
 71
     0
 72
     0
 73
     0
 74
     0
 75
     0
 76
     0
 77
     3
 78
     9
170
     0
171
     2
172
     0
173
     0
174
     0
175
     0
176
   256
177
   256
178
    40
  0
DIMSTYLE
  2
BIGT$6
 70
     0
  3

  4

  5
OPEN
  6

  7

 40
1.0
 41
2.2299999999999991
 42
0.5
 43
2.5
 44
1.0
 45
0.0
 46
0.0
 47
0.0
 48
0.01
140
2.7999999999999989
141
0.0
142
0.0
143
25.399999999999999
144
1.0
145
0.0
146
1.0
147
1.0
 71
     0
 72
     0
 73
     0
 74
     0
 75
     0
 76
     0
 77
     3
 78
     9
170
     0
171
     2
172
     1
173
     0
174
     0
175
     0
176
   256
177
   256
178
    40
  0
DIMSTYLE
  2
BIGT$0
 70
     0
  3

  4

  5
OPEN
  6

  7

 40
1.0
 41
2.2299999999999991
 42
0.5
 43
7.0
 44
1.0
 45
0.0
 46
0.0
 47
0.0
 48
0.01
140
2.7999999999999989
141
0.0
142
0.0
143
25.399999999999999
144
1.0
145
0.0
146
1.0
147
1.0
 71
     0
 72
     0
 73
     0
 74
     0
 75
     0
 76
     0
 77
     3
 78
     9
170
     0
171
     2
172
     1
173
     0
174
     1
175
     0
176
   256
177
   256
178
    40
  0
DIMSTYLE
  2
BIGT$4
 70
     0
  3

  4

  5
OPEN
  6

  7

 40
1.0
 41
2.2299999999999991
 42
0.5
 43
2.5
 44
1.0
 45
0.0
 46
0.0
 47
0.0
 48
0.01
140
2.7999999999999989
141
0.0
142
0.0
143
25.399999999999999
144
1.0
145
0.0
146
1.0
147
1.0
 71
     0
 72
     0
 73
     0
 74
     0
 75
     0
 76
     0
 77
     3
 78
     9
170
     0
171
     2
172
     1
173
     0
174
     0
175
     0
176
   256
177
   256
178
    40
  0
DIMSTYLE
  2
BIGT$SH
 70
     0
  3

  4

  5
OPEN
  6

  7

 40
1.0
 41
2.2299999999999991
 42
0.5
 43
7.0
 44
1.0
 45
0.0
 46
0.0
 47
0.0
 48
0.0
140
2.7999999999999989
141
0.0
142
0.0
143
25.399999999999999
144
1.0
145
0.0
146
1.0
147
1.0
 71
     0
 72
     0
 73
     0
 74
     0
 75
     0
 76
     0
 77
     3
 78
     9
170
     0
171
     2
172
     1
173
     0
174
     0
175
     0
176
   256
177
   256
178
    40
  0
DIMSTYLE
  2
BIGT$SF
 70
     0
  3

  4

  5
OPEN
  6

  7

 40
1.0
 41
2.2299999999999991
 42
0.5
 43
7.0
 44
1.0
 45
0.0
 46
0.0
 47
0.0
 48
0.0
140
2.7999999999999989
141
0.0
142
0.0
143
25.399999999999999
144
1.0
145
0.0
146
1.0
147
1.0
 71
     0
 72
     0
 73
     0
 74
     0
 75
     0
 76
     0
 77
     3
 78
     9
170
     0
171
     2
172
     1
173
     0
174
     0
175
     0
176
   256
177
   256
178
    40
  0
DIMSTYLE
  2
TECHNICAL_OSAKA
 70
     0
  3

  4
"
  5
OPEN30
  6

  7

 40
1.0
 41
2.5
 42
1.0
 43
10.0
 44
1.0
 45
0.0
 46
0.0
 47
0.1
 48
0.1
140
2.7999999999999989
141
0.0
142
0.0
143
0.0393701
144
1.0
145
0.0
146
0.71
147
1.5
 71
     0
 72
     0
 73
     0
 74
     0
 75
     0
 76
     0
 77
     3
 78
     8
170
     0
171
     2
172
     1
173
     0
174
     0
175
     0
176
   256
177
   256
178
    40
  0
DIMSTYLE
  2
TECHNICAL_OSAKA$3
 70
     0
  3

  4
"
  5
OPEN30
  6

  7

 40
1.0
 41
2.5
 42
1.0
 43
10.0
 44
1.0
 45
0.0
 46
0.0
 47
0.1
 48
0.1
140
2.7999999999999989
141
0.0
142
0.0
143
0.0393701
144
1.0
145
0.0
146
0.71
147
1.5
 71
     0
 72
     0
 73
     0
 74
     1
 75
     0
 76
     0
 77
     3
 78
     8
170
     0
171
     2
172
     0
173
     0
174
     0
175
     0
176
   256
177
   256
178
    40
  0
DIMSTYLE
  2
TECHNICAL_OSAKA$4
 70
     0
  3

  4
"
  5
OPEN30
  6

  7

 40
1.0
 41
2.5
 42
1.0
 43
10.0
 44
1.0
 45
0.0
 46
0.0
 47
0.1
 48
0.1
140
2.7999999999999989
141
0.0
142
0.0
143
0.0393701
144
1.0
145
0.0
146
0.71
147
1.5
 71
     0
 72
     0
 73
     0
 74
     1
 75
     0
 76
     0
 77
     3
 78
     8
170
     0
171
     2
172
     0
173
     0
174
     0
175
     0
176
   256
177
   256
178
    40
  0
DIMSTYLE
  2
TECHNICAL_OSAKA$6
 70
     0
  3

  4
"
  5
OPEN30
  6

  7

 40
1.0
 41
2.5
 42
1.0
 43
10.0
 44
1.0
 45
0.0
 46
0.0
 47
0.1
 48
0.1
140
2.7999999999999989
141
0.0
142
0.0
143
0.0393701
144
1.0
145
0.0
146
0.71
147
1.5
 71
     0
 72
     0
 73
     0
 74
     0
 75
     0
 76
     0
 77
     0
 78
     8
170
     0
171
     2
172
     1
173
     0
174
     0
175
     0
176
   256
177
   256
178
    40
  0
DIMSTYLE
  2
TECHNICAL_OSAKA$7
 70
     0
  3

  4
"
  5
OPEN30
  6

  7

 40
1.0
 41
2.5
 42
1.0
 43
10.0
 44
1.0
 45
0.0
 46
0.0
 47
0.1
 48
0.1
140
2.7999999999999989
141
0.0
142
0.0
143
0.0393701
144
1.0
145
0.0
146
0.71
147
1.5
 71
     0
 72
     0
 73
     0
 74
     0
 75
     0
 76
     0
 77
     3
 78
     8
170
     0
171
     2
172
     1
173
     0
174
     0
175
     0
176
   256
177
   256
178
    40
  0
DIMSTYLE
  2
TECHNICAL_OSAKA$SF
 70
     0
  3

  4
"
  5
OPEN30
  6
OPEN30
  7
OPEN30
 40
1.0
 41
2.5
 42
1.0
 43
10.0
 44
1.0
 45
0.0
 46
0.0
 47
0.1
 48
0.1
140
3.5
141
0.0
142
0.0
143
0.0393701
144
1.0
145
0.0
146
0.71
147
1.5
 71
     0
 72
     0
 73
     0
 74
     0
 75
     1
 76
     1
 77
     3
 78
     8
170
     0
171
     2
172
     1
173
     0
174
     0
175
     0
176
   256
177
   256
178
    40
  0
DIMSTYLE
  2
TECHNICAL_OSAKA$SH
 70
     0
  3

  4
"
  5
OPEN30
  6
GENAXEH
  7
OPEN30
 40
1.0
 41
2.5
 42
1.0
 43
10.0
 44
1.0
 45
0.0
 46
0.0
 47
0.1
 48
0.1
140
3.5
141
0.0
142
0.0
143
0.0393701
144
2.0
145
0.0
146
0.71
147
1.5
 71
     0
 72
     0
 73
     0
 74
     0
 75
     1
 76
     1
 77
     3
 78
     8
170
     0
171
     2
172
     1
173
     1
174
     0
175
     0
176
   256
177
   256
178
    40
  0
DIMSTYLE
  2
GRADE
 70
     0
  3

  4

  5
OPEN
  6
OPEN
  7
OPEN
 40
1.0
 41
2.2307509380910728
 42
0.5
 43
7.0
 44
1.0
 45
0.0
 46
0.0
 47
0.0
 48
0.0
140
2.7999999999999998
141
0.0
142
0.0
143
25.399999999999999
144
1.0
145
0.0
146
1.0
147
1.0
 71
     0
 72
     0
 73
     0
 74
     0
 75
     0
 76
     0
 77
     3
 78
     8
170
     0
171
     2
172
     1
173
     0
174
     0
175
     0
176
   256
177
   256
178
    40
  0
DIMSTYLE
  2
ISO1
 70
     0
  3

  4

  5

  6

  7

 40
1.0
 41
10.0
 42
2.5
 43
15.0
 44
5.0
 45
0.0
 46
0.0
 47
0.0
 48
0.0
140
10.0
141
10.0
142
0.0
143
0.0394
144
1.0
145
4.0
146
1.0
147
2.5
 71
     0
 72
     0
 73
     1
 74
     0
 75
     0
 76
     0
 77
     1
 78
     8
170
     0
171
     2
172
     1
173
     0
174
     0
175
     0
176
     0
177
     0
178
     0
  0
DIMSTYLE
  2
GRADE_DIMTMOVE1
 70
     0
  3

  4

  5
OPEN
  6
OPEN
  7
OPEN
 40
1.0
 41
2.2307509380910728
 42
0.5
 43
7.0
 44
1.0
 45
0.0
 46
0.0
 47
0.0
 48
0.0
140
2.7999999999999998
141
0.0
142
0.0
143
25.399999999999999
144
1.0
145
0.0
146
1.0
147
1.0
 71
     0
 72
     0
 73
     0
 74
     0
 75
     0
 76
     0
 77
     3
 78
     8
170
     0
171
     2
172
     1
173
     0
174
     0
175
     0
176
   256
177
   256
178
    40
  0
DIMSTYLE
  2
BIGTO
 70
     0
  3

  4

  5
OPEN
  6

  7

 40
1.0
 41
2.2299999999999991
 42
0.5
 43
2.5
 44
1.0
 45
0.0
 46
0.0
 47
0.0
 48
0.0
140
3.5
141
0.0
142
0.0
143
25.399999999999999
144
1.0
145
0.0
146
1.0
147
1.0
 71
     0
 72
     0
 73
     0
 74
     0
 75
     0
 76
     0
 77
     3
 78
     9
170
     0
171
     2
172
     1
173
     0
174
     0
175
     0
176
   256
177
   256
178
    40
  0
DIMSTYLE
  2
AM_ANSI
 70
     0
  3

  4
mm
  5

  6

  7

 40
1.0
 41
0.12
 42
0.05
 43
0.5
 44
0.1
 45
0.0
 46
0.0
 47
0.1
 48
0.1
140
0.12
141
0.0
142
0.0
143
25.399999999999999
144
1.0
145
0.0
146
0.71
147
0.06
 71
     0
 72
     0
 73
     1
 74
     1
 75
     0
 76
     0
 77
     0
 78
     7
170
     0
171
     2
172
     0
173
     0
174
     0
175
     0
176
   256
177
   256
178
     2
  0
DIMSTYLE
  2
AM_ANSI$3
 70
     0
  3

  4
mm
  5

  6

  7

 40
1.0
 41
0.12
 42
0.05
 43
0.5
 44
0.1
 45
0.0
 46
0.0
 47
0.1
 48
0.1
140
0.12
141
0.0
142
0.0
143
25.399999999999999
144
1.0
145
0.0
146
0.71
147
0.06
 71
     0
 72
     0
 73
     1
 74
     1
 75
     0
 76
     0
 77
     0
 78
     7
170
     0
171
     2
172
     0
173
     0
174
     0
175
     0
176
   256
177
   256
178
     2
  0
DIMSTYLE
  2
AM_ANSI$4
 70
     0
  3

  4
mm
  5

  6

  7

 40
1.0
 41
0.12
 42
0.05
 43
0.5
 44
0.1
 45
0.0
 46
0.0
 47
0.1
 48
0.1
140
0.12
141
0.0
142
0.0
143
25.399999999999999
144
1.0
145
0.0
146
0.71
147
0.06
 71
     0
 72
     0
 73
     1
 74
     1
 75
     0
 76
     0
 77
     0
 78
     7
170
     0
171
     2
172
     0
173
     0
174
     0
175
     0
176
   256
177
   256
178
     2
  0
DIMSTYLE
  2
AM_ANSI$7
 70
     0
  3

  4
mm
  5

  6

  7

 40
1.0
 41
0.12
 42
0.05
 43
0.5
 44
0.1
 45
0.0
 46
0.0
 47
0.1
 48
0.1
140
0.12
141
0.0
142
0.0
143
25.399999999999999
144
1.0
145
0.0
146
0.71
147
0.06
 71
     0
 72
     0
 73
     1
 74
     1
 75
     0
 76
     0
 77
     0
 78
     7
170
     0
171
     2
172
     0
173
     0
174
     0
175
     0
176
   256
177
   256
178
     2
  0
DIMSTYLE
  2
AM_ANSI$SF
 70
     0
  3

  4
mm
  5

  6

  7

 40
1.0
 41
0.12
 42
0.05
 43
0.5
 44
0.1
 45
0.0
 46
0.0
 47
0.1
 48
0.1
140
0.12
141
0.0
142
0.0
143
25.399999999999999
144
1.0
145
0.0
146
0.71
147
0.06
 71
     0
 72
     0
 73
     1
 74
     1
 75
     1
 76
     1
 77
     0
 78
     7
170
     0
171
     2
172
     0
173
     0
174
     0
175
     0
176
   256
177
   256
178
     2
  0
DIMSTYLE
  2
AM_ANSI$SH
 70
     0
  3

  4
mm
  5

  6

  7

 40
1.0
 41
0.12
 42
0.05
 43
0.5
 44
0.1
 45
0.0
 46
0.0
 47
0.1
 48
0.1
140
0.12
141
0.0
142
0.0
143
25.399999999999999
144
1.0
145
0.0
146
0.71
147
0.06
 71
     0
 72
     0
 73
     1
 74
     1
 75
     1
 76
     1
 77
     0
 78
     7
170
     0
171
     2
172
     0
173
     1
174
     0
175
     0
176
   256
177
   256
178
     2
  0
ENDTAB
  0
ENDSEC
  0
SECTION
  2
BLOCKS
  0
BLOCK
  8
0
  2
$MODEL_SPACE
 70
     0
 10
0.0
 20
0.0
 30
0.0
  3
$MODEL_SPACE
  1

  0
ENDBLK
  5
1C
  8
0
  0
BLOCK
 67
     1
  8
0
  2
$PAPER_SPACE
 70
     0
 10
0.0
 20
0.0
 30
0.0
  3
$PAPER_SPACE
  1

  0
ENDBLK
  5
19
 67
     1
  8
0
  0
BLOCK
  8
0
  2
_OPEN
 70
     0
 10
0.0
 20
0.0
 30
0.0
  3
_OPEN
  1

  0
LINE
  5
3E1A
  8
0
  6
BYBLOCK
 62
     0
 10
-1.0
 20
0.1666666666666666
 30
0.0
 11
0.0
 21
0.0
 31
0.0
  0
LINE
  5
3E1B
  8
0
  6
BYBLOCK
 62
     0
 10
-1.0
 20
-0.1666666666666666
 30
0.0
 11
0.0
 21
0.0
 31
0.0
  0
LINE
  5
3E1C
  8
0
  6
BYBLOCK
 62
     0
 10
0.0
 20
0.0
 30
0.0
 11
-1.0
 21
0.0
 31
0.0
  0
ENDBLK
  5
3E1D
  8
0
  0
BLOCK
  8
0
  2
GENAXEH
 70
     0
 10
0.0
 20
0.0
 30
0.0
  3
GENAXEH
  1

  0
LINE
  5
3E45
  8
0
 10
-1.0
 20
0.0
 30
0.0
 11
1.0
 21
0.0
 31
0.0
  0
ENDBLK
  5
3E46
  8
0
  0
BLOCK
  8
0
  2
_OPEN30
 70
     0
 10
0.0
 20
0.0
 30
0.0
  3
_OPEN30
  1

  0
LINE
  5
3E6A
  8
0
  6
BYBLOCK
 62
     0
 10
-1.0
 20
0.26794919
 30
0.0
 11
0.0
 21
0.0
 31
0.0
  0
LINE
  5
3E6B
  8
0
  6
BYBLOCK
 62
     0
 10
0.0
 20
0.0
 30
0.0
 11
-1.0
 21
-0.26794919
 31
0.0
  0
LINE
  5
3E6C
  8
0
  6
BYBLOCK
 62
     0
 10
0.0
 20
0.0
 30
0.0
 11
-1.0
 21
0.0
 31
0.0
  0
ENDBLK
  5
3E6D
  8
0
  0
BLOCK
  8
0
  2
_DOTSMALL
 70
     0
 10
0.0
 20
0.0
 30
0.0
  3
_DOTSMALL
  1

  0
POLYLINE
  5
1BD1
  8
0
  6
BYBLOCK
 62
     0
 66
     1
 10
0.0
 20
0.0
 30
0.0
 70
     1
 40
0.5
 41
0.5
  0
VERTEX
  5
47BA
  8
0
  6
BYBLOCK
 62
     0
 10
-0.0625
 20
0.0
 30
0.0
 42
1.0
  0
VERTEX
  5
47BB
  8
0
  6
BYBLOCK
 62
     0
 10
0.0625
 20
0.0
 30
0.0
 42
1.0
  0
SEQEND
  5
47BC
  8
0
  6
BYBLOCK
 62
     0
  0
ENDBLK
  5
1BD2
  8
0
  0
BLOCK
  8
0
  2
_NONE
 70
     0
 10
0.0
 20
0.0
 30
0.0
  3
_NONE
  1

  0
ENDBLK
  5
1BD5
  8
0
  0
BLOCK
  8
0
  2
GENDOT
 70
     0
 10
0.0
 20
0.0
 30
0.0
  3
GENDOT
  1

  0
LINE
  5
222B
  8
0
 10
0.0
 20
0.0
 30
0.0
 11
-1.0
 21
0.0
 31
0.0
  0
POLYLINE
  5
222C
  8
0
 66
     1
 10
0.0
 20
0.0
 30
0.0
 70
     1
 40
0.25
 41
0.25
  0
VERTEX
  5
47BD
  8
0
 10
-0.125
 20
0.0
 30
0.0
 42
1.0
  0
VERTEX
  5
47BE
  8
0
 10
0.125
 20
0.0
 30
0.0
 42
1.0
  0
SEQEND
  5
47BF
  8
0
  0
ENDBLK
  5
222E
  8
0
  0
BLOCK
  8
0
  2
A$C677F5466
 70
     0
 10
0.0
 20
0.0
 30
0.0
  3
A$C677F5466
  1

  0
ARC
  5
277B
  8
241
  6
CONTINUOUS
 10
47.499999999999829
 20
2.5
 30
0.0
 40
0.4999999999999996
 50
0.0000000899780446
 51
90.000000089974804
1001
GRPNAME
1000
PASTMD02
  0
LINE
  5
277C
  8
241
  6
CONTINUOUS
 10
47.999999999999822
 20
0.0
 30
0.0
 11
47.999999999999822
 21
-2.5
 31
0.0
1001
GRPNAME
1000
PASTMD08
  0
ARC
  5
277D
  8
241
  6
CONTINUOUS
 10
47.499999999999829
 20
-2.5
 30
0.0
 40
0.4999999999999996
 50
269.99999998199922
 51
359.99999998199428
1001
GRPNAME
1000
PASTMD02
  0
LINE
  5
277E
  8
241
  6
CONTINUOUS
 10
47.999999999999822
 20
0.0
 30
0.0
 11
47.999999999999822
 21
2.5
 31
0.0
1001
GRPNAME
1000
PASTMD08
  0
LINE
  5
277F
  8
241
  6
CONTINUOUS
 10
14.499999999999879
 20
3.0
 30
0.0
 11
14.499999999999879
 21
3.4499999999999882
 31
0.0
1001
GRPNAME
1000
PASTMD08
  0
ARC
  5
2780
  8
241
  6
CONTINUOUS
 10
14.19999999999987
 20
3.4499999999999882
 30
0.0
 40
0.3000000000000111
 50
0.000000089979673
 51
90.000000089978045
1001
GRPNAME
1000
PASTMD02
  0
ARC
  5
2781
  8
241
  6
CONTINUOUS
 10
13.299999999999899
 20
3.4499999999999882
 30
0.0
 40
0.3000000000000111
 50
89.999999992287684
 51
179.99999999228109
1001
GRPNAME
1000
PASTMD02
  0
LINE
  5
2782
  8
241
  6
CONTINUOUS
 10
12.999999999999879
 20
3.0
 30
0.0
 11
12.999999999999879
 21
3.4499999999999882
 31
0.0
1001
GRPNAME
1000
PASTMD08
  0
LINE
  5
2783
  8
241
  6
CONTINUOUS
 10
13.299999999999899
 20
3.75
 30
0.0
 11
14.19999999999987
 21
3.75
 31
0.0
1001
GRPNAME
1000
PASTMD08
  0
LINE
  5
2784
  8
241
  6
CONTINUOUS
 10
13.319578040878129
 20
1.5875000000000341
 30
0.0
 11
13.499999999999879
 21
1.900000000000005
 31
0.0
1001
GRPNAME
1000
PASTMD03
  0
LINE
  5
2785
  8
241
  6
CONTINUOUS
 10
13.319578040878129
 20
0.0
 30
0.0
 11
13.319578040878129
 21
1.5875000000000341
 31
0.0
1001
GRPNAME
1000
PASTMD03
  0
LINE
  5
2786
  8
241
  6
CONTINUOUS
 10
10.499999999999879
 20
3.0
 30
0.0
 11
9.8964466094066097
 21
3.6035533905932762
 31
0.0
1001
GRPNAME
1000
PASTMD08
  0
LINE
  5
2787
  8
241
  6
CONTINUOUS
 10
10.499999999999879
 20
3.0
 30
0.0
 11
12.999999999999879
 21
3.0
 31
0.0
1001
GRPNAME
1000
PASTMD08
  0
LINE
  5
2788
  8
241
  6
CONTINUOUS
 10
14.499999999999879
 20
-3.0
 30
0.0
 11
14.499999999999879
 21
-3.4499999999999882
 31
0.0
1001
GRPNAME
1000
PASTMD08
  0
ARC
  5
2789
  8
241
  6
CONTINUOUS
 10
14.19999999999987
 20
-3.4499999999999882
 30
0.0
 40
0.3000000000000111
 50
269.99999998199593
 51
359.99999998199098
1001
GRPNAME
1000
PASTMD02
  0
LINE
  5
278A
  8
241
  6
CONTINUOUS
 10
12.999999999999879
 20
-3.0
 30
0.0
 11
12.999999999999879
 21
-3.4499999999999882
 31
0.0
1001
GRPNAME
1000
PASTMD08
  0
ARC
  5
278B
  8
241
  6
CONTINUOUS
 10
13.299999999999899
 20
-3.4499999999999882
 30
0.0
 40
0.3000000000000111
 50
180.00000008998131
 51
270.00000008997802
1001
GRPNAME
1000
PASTMD02
  0
LINE
  5
278C
  8
241
  6
CONTINUOUS
 10
13.299999999999899
 20
-3.75
 30
0.0
 11
14.19999999999987
 21
-3.75
 31
0.0
1001
GRPNAME
1000
PASTMD08
  0
LINE
  5
278D
  8
241
  6
CONTINUOUS
 10
10.499999999999879
 20
-3.0
 30
0.0
 11
9.8964466094066097
 21
-3.6035533905932762
 31
0.0
1001
GRPNAME
1000
PASTMD08
  0
LINE
  5
278E
  8
241
  6
CONTINUOUS
 10
10.499999999999879
 20
-3.0
 30
0.0
 11
12.999999999999879
 21
-3.0
 31
0.0
1001
GRPNAME
1000
PASTMD08
  0
LINE
  5
278F
  8
241
  6
CONTINUOUS
 10
14.499999999999879
 20
-3.0
 30
0.0
 11
14.499999999999879
 21
0.0
 31
0.0
1001
GRPNAME
1000
PASTMD03
  0
LINE
  5
2790
  8
241
  6
CONTINUOUS
 10
12.999999999999879
 20
-3.0
 30
0.0
 11
12.999999999999879
 21
0.0
 31
0.0
1001
GRPNAME
1000
PASTMD03
  0
LINE
  5
2791
  8
241
  6
CONTINUOUS
 10
10.499999999999879
 20
-3.0
 30
0.0
 11
10.499999999999879
 21
0.0
 31
0.0
1001
GRPNAME
1000
PASTMD03
  0
LINE
  5
2792
  8
241
  6
CONTINUOUS
 10
9.7499999999998863
 20
-3.5050898605623351
 30
0.0
 11
9.7499999999998863
 21
0.0
 31
0.0
1001
GRPNAME
1000
PASTMD03
  0
LINE
  5
2793
  8
241
  6
CONTINUOUS
 10
13.49999999999994
 20
0.0
 30
0.0
 11
13.49999999999994
 21
1.900000000000005
 31
0.0
1001
GRPNAME
1000
PASTMD08
  0
LINE
  5
2794
  8
241
  6
CONTINUOUS
 10
9.2886751345947118
 20
1.5875000000000341
 30
0.0
 11
8.9999999999998863
 21
2.0874999999999768
 31
0.0
  0
LINE
  5
2795
  8
241
  6
CONTINUOUS
 10
6.9999999999998863
 20
2.5
 30
0.0
 11
8.9999999999998863
 21
2.5
 31
0.0
1001
GRPNAME
1000
PASTMD08
  0
ARC
  5
2796
  8
241
  6
CONTINUOUS
 10
0.5
 20
3.25
 30
0.0
 40
0.4999999999999996
 50
89.999999987138551
 51
179.99999999485411
1001
GRPNAME
1000
PASTMD08
  0
ARC
  5
2797
  8
241
  6
CONTINUOUS
 10
0.1999999999999318
 20
2.6950624902374321
 30
0.0
 40
0.1999999999999884
 50
180.00000009254771
 51
268.5679039083758
1001
GRPNAME
1000
PASTMD02
  0
LINE
  5
2798
  8
241
  6
CONTINUOUS
 10
0.5
 20
3.75
 30
0.0
 11
9.5428932188133331
 21
3.75
 31
0.0
1001
GRPNAME
1000
PASTMD08
  0
LINE
  5
2799
  8
241
  6
CONTINUOUS
 10
0.1950015617678673
 20
2.4951249609558199
 30
0.0
 11
6.9999999999998863
 21
2.3250000000000308
 31
0.0
1001
GRPNAME
1000
PASTMD08
  0
ARC
  5
279A
  8
241
  6
CONTINUOUS
 10
0.5
 20
-3.25
 30
0.0
 40
0.4999999999999996
 50
180.0000000899764
 51
270.0000000976936
1001
GRPNAME
1000
PASTMD02
  0
LINE
  5
279B
  8
241
  6
CONTINUOUS
 10
0.0
 20
0.0
 30
0.0
 11
0.0
 21
-3.25
 31
0.0
1001
GRPNAME
1000
PASTMD02
  0
LINE
  5
279C
  8
241
  6
CONTINUOUS
 10
0.5
 20
-3.75
 30
0.0
 11
9.5428932188133331
 21
-3.75
 31
0.0
1001
GRPNAME
1000
PASTMD02
  0
LINE
  5
279D
  8
241
  6
CONTINUOUS
 10
0.0
 20
0.0
 30
0.0
 11
0.0
 21
3.25
 31
0.0
1001
GRPNAME
1000
PASTMD08
  0
LINE
  5
279E
  8
241
  6
CONTINUOUS
 10
8.9999999999998863
 20
0.0
 30
0.0
 11
8.9999999999998863
 21
2.5
 31
0.0
1001
GRPNAME
1000
PASTMD08
  0
LINE
  5
279F
  8
241
  6
CONTINUOUS
 10
6.9999999999998863
 20
0.0
 30
0.0
 11
6.9999999999998863
 21
2.5
 31
0.0
1001
GRPNAME
1000
PASTMD08
  0
LINE
  5
27A0
  8
241
  6
CONTINUOUS
 10
9.2886751345947118
 20
0.0
 30
0.0
 11
9.2886751345947118
 21
1.5875000000000341
 31
0.0
1001
GRPNAME
1000
PASTMD08
  0
ARC
  5
27A1
  8
241
  6
CONTINUOUS
 10
9.5428932188133331
 20
3.25
 30
0.0
 40
0.5000000000000037
 50
44.999999987139653
 51
90.0
1001
GRPNAME
1000
PASTMD03
  0
ARC
  5
27A2
  8
241
  6
CONTINUOUS
 10
9.5428932188133331
 20
-3.25
 30
0.0
 40
0.4999999999999996
 50
270.0
 51
315.00000004241258
1001
GRPNAME
1000
PASTMD03
  0
LINE
  5
27A3
  8
241
  6
CONTINUOUS
 10
9.2886751345947118
 20
1.5875000000000341
 30
0.0
 11
13.319578040878129
 21
1.5875000000000341
 31
0.0
1001
GRPNAME
1000
PASTMD08
  0
LINE
  5
27A4
  8
241
  6
CONTINUOUS
 10
14.499999999999879
 20
3.0
 30
0.0
 11
47.499999999999829
 21
3.0
 31
0.0
1001
GRPNAME
1000
PASTMD08
  0
LINE
  5
27A5
  8
241
  6
CONTINUOUS
 10
14.499999999999879
 20
-3.0
 30
0.0
 11
47.499999999999829
 21
-3.0
 31
0.0
1001
GRPNAME
1000
PASTMD08
  0
LINE
  5
27A6
  8
241
  6
CONTINUOUS
 10
13.49999999999994
 20
1.900000000000005
 30
0.0
 11
47.999999999999822
 21
1.900000000000005
 31
0.0
  0
LINE
  5
27A7
  8
245
  6
CENTER2
 10
0.0
 20
0.0
 30
0.0
 11
47.999999999999822
 21
0.0
 31
0.0
1001
GRPNAME
1000
PASTMD08
  0
ENDBLK
  5
27AA
  8
0
  0
BLOCK
  8
0
  2
A$C6C1C0824
 70
     0
 10
0.0
 20
0.0
 30
0.0
  3
A$C6C1C0824
  1

  0
LINE
  5
27AE
  8
244
 10
2.1999999999999309
 20
-1.5875000000000341
 30
0.0
 11
2.1999999999999309
 21
-2.3000000000000109
 31
0.0
  0
LINE
  5
27AF
  8
241
 10
2.1999999999999309
 20
1.5875000000000341
 30
0.0
 11
2.1999999999999309
 21
2.3000000000000109
 31
0.0
  0
LINE
  5
27B0
  8
241
  6
CONTINUOUS
 10
2.5
 20
2.3000000000000109
 30
0.0
 11
2.6829268292683528
 21
2.4829268292683082
 31
0.0
1001
GRPNAME
1000
PASTMD06
  0
LINE
  5
27B1
  8
241
  6
CONTINUOUS
 10
2.5
 20
-2.3000000000000109
 30
0.0
 11
2.6829268292683528
 21
-2.4829268292683082
 31
0.0
1001
GRPNAME
1000
PASTMD01
  0
LINE
  5
27B2
  8
245
  6
CENTER2
 10
0.0
 20
0.0
 30
0.0
 11
10.499999999999879
 21
0.0
 31
0.0
1001
GRPNAME
1000
PASTMD06
  0
LINE
  5
27B3
  8
244
 10
0.2814582562295982
 20
-1.5875000000000341
 30
0.0
 11
10.499999999999879
 21
-1.5875000000000341
 31
0.0
  0
LINE
  5
27B4
  8
241
  6
CONTINUOUS
 10
0.2814582562295982
 20
1.5875000000000341
 30
0.0
 11
10.499999999999879
 21
1.5875000000000341
 31
0.0
1001
GRPNAME
1000
PASTMD06
  0
LINE
  5
27B5
  8
241
  6
CONTINUOUS
 10
0.0
 20
0.0
 30
0.0
 11
0.0
 21
3.5
 31
0.0
1001
GRPNAME
1000
PASTMD06
  0
LINE
  5
27B6
  8
244
 10
0.2814582562295982
 20
-1.1609540753145211
 30
0.0
 11
0.2814582562295982
 21
-1.5875000000000341
 31
0.0
  0
LINE
  5
27B7
  8
244
 10
0.2814582562295982
 20
-1.5875000000000341
 30
0.0
 11
-0.0000000000001137
 21
-1.7499999999999709
 31
0.0
  0
ARC
  5
27B8
  8
241
  6
CONTINUOUS
 10
2.1999999999999309
 20
-2.5
 30
0.0
 40
0.1999999999999886
 50
89.999999994854122
 51
179.99999999485411
1001
GRPNAME
1000
PASTMD01
  0
LINE
  5
27B9
  8
241
  6
CONTINUOUS
 10
0.0
 20
-3.5
 30
0.0
 11
2.0
 21
-3.5
 31
0.0
1001
GRPNAME
1000
PASTMD01
  0
LINE
  5
27BA
  8
241
  6
CONTINUOUS
 10
2.1999999999999309
 20
-2.3000000000000109
 30
0.0
 11
2.5
 21
-2.3000000000000109
 31
0.0
1001
GRPNAME
1000
PASTMD01
  0
LINE
  5
27BB
  8
241
  6
CONTINUOUS
 10
2.0
 20
0.0
 30
0.0
 11
2.0
 21
-3.5
 31
0.0
1001
GRPNAME
1000
PASTMD01
  0
LINE
  5
27BC
  8
241
  6
CONTINUOUS
 10
0.0
 20
0.0
 30
0.0
 11
0.0
 21
-3.5
 31
0.0
1001
GRPNAME
1000
PASTMD01
  0
LINE
  5
27BD
  8
247
  6
CONTINUOUS
 10
0.2814582562295982
 20
1.1609540753145211
 30
0.0
 11
0.2814582562295982
 21
1.5875000000000341
 31
0.0
  0
LINE
  5
27BE
  8
241
  6
CONTINUOUS
 10
0.2814582562295982
 20
1.5875000000000341
 30
0.0
 11
-0.0000000000001137
 21
1.7499999999999709
 31
0.0
  0
LINE
  5
27BF
  8
241
  6
CONTINUOUS
 10
2.1999999999999309
 20
2.3000000000000109
 30
0.0
 11
2.5
 21
2.3000000000000109
 31
0.0
1001
GRPNAME
1000
PASTMD06
  0
LINE
  5
27C0
  8
241
  6
CONTINUOUS
 10
0.0
 20
3.5
 30
0.0
 11
2.0
 21
3.5
 31
0.0
1001
GRPNAME
1000
PASTMD06
  0
ARC
  5
27C1
  8
241
  6
CONTINUOUS
 10
2.1999999999999309
 20
2.5
 30
0.0
 40
0.1999999999999318
 50
179.99999999485411
 51
269.99999999485408
1001
GRPNAME
1000
PASTMD01
  0
LINE
  5
27C2
  8
241
  6
CONTINUOUS
 10
2.0
 20
2.5
 30
0.0
 11
2.0
 21
3.5
 31
0.0
1001
GRPNAME
1000
PASTMD01
  0
LINE
  5
27C3
  8
241
  6
CONTINUOUS
 10
10.499999999999879
 20
0.0
 30
0.0
 11
10.499999999999879
 21
2.0875000000000621
 31
0.0
1001
GRPNAME
1000
PASTMD06
  0
LINE
  5
27C4
  8
241
  6
CONTINUOUS
 10
2.6829268292683528
 20
-2.4829268292683082
 30
0.0
 11
10.30006247071827
 21
-2.2924984382320579
 31
0.0
1001
GRPNAME
1000
PASTMD01
  0
LINE
  5
27C5
  8
241
  6
CONTINUOUS
 10
10.499999999999879
 20
0.0
 30
0.0
 11
10.499999999999879
 21
-2.0875000000000341
 31
0.0
1001
GRPNAME
1000
PASTMD06
  0
LINE
  5
27C6
  8
241
  6
CONTINUOUS
 10
2.6829268292683528
 20
2.4829268292683082
 30
0.0
 11
10.30006247071827
 21
2.2924984382320872
 31
0.0
1001
GRPNAME
1000
PASTMD06
  0
LINE
  5
27C7
  8
241
  6
CONTINUOUS
 10
10.499999999999879
 20
-2.0875000000000341
 30
0.0
 11
10.30006247071827
 21
-2.2924984382320579
 31
0.0
1001
GRPNAME
1000
PASTMD01
1001
GENIUS_GENFIL_13
1070
     0
1040
0.2
1040
0.2
1040
0.25
1040
45.0
1002
{
1002
}
1001
GENIUS_GENODEF_13
1002
{
1000
HIER
1070
     0
1002
}
1002
{
1000
MANEDIT
1070
     0
1002
}
1002
{
1000
NOSEL
1070
     0
1002
}
1002
{
1000
BEHIND
1070
     0
1002
}
1002
{
1000
OTHER
1070
     0
1002
}
1002
{
1000
REACTOR
1002
}
1001
GENIUS_GENOBJ-N-CHA_13
1002
{
1000
OWNER
1000
GEN
1002
}
  0
LINE
  5
27C8
  8
241
  6
CONTINUOUS
 10
10.30006247071827
 20
2.2924984382320872
 30
0.0
 11
10.499999999999879
 21
2.0875000000000621
 31
0.0
1001
GRPNAME
1000
PASTMD06
1001
GENIUS_GENFIL_13
1070
     0
1040
0.2
1040
0.2
1040
0.25
1040
45.0
1002
{
1002
}
1001
GENIUS_GENOBJ-N-CHA_13
1002
{
1000
OWNER
1000
GEN
1002
}
1001
GENIUS_GENODEF_13
1002
{
1000
HIER
1070
     0
1002
}
1002
{
1000
MANEDIT
1070
     0
1002
}
1002
{
1000
NOSEL
1070
     0
1002
}
1002
{
1000
BEHIND
1070
     0
1002
}
1002
{
1000
OTHER
1070
     0
1002
}
1002
{
1000
REACTOR
1002
}
  0
LINE
  5
27C9
  8
241
 10
2.5
 20
-2.3000000000000109
 30
0.0
 11
2.5
 21
0.0
 31
0.0
  0
LINE
  5
27CA
  8
241
 10
2.6829268292683528
 20
-2.4829268292683082
 30
0.0
 11
2.6829268292683528
 21
0.0
 31
0.0
  0
ENDBLK
  5
27CD
  8
0
  0
BLOCK
  8
0
  2
A$C4F411A3D
 70
     0
 10
0.0
 20
0.0
 30
0.0
  3
A$C4F411A3D
  1

  0
LINE
  5
27D4
  8
241
  6
CONTINUOUS
 10
0.0
 20
-2.75
 30
0.0
 11
2.0
 21
-2.75
 31
0.0
1001
GRPNAME
1000
PASTMD06
  0
LINE
  5
27D5
  8
241
  6
CONTINUOUS
 10
0.0
 20
2.75
 30
0.0
 11
2.0
 21
2.75
 31
0.0
1001
GRPNAME
1000
PASTMD06
  0
LINE
  5
27D6
  8
241
 10
2.6829268292683528
 20
-2.4829268292683082
 30
0.0
 11
2.6829268292683528
 21
-0.1500000000000057
 31
0.0
  0
LINE
  5
27D7
  8
241
 10
2.5
 20
-2.3000000000000109
 30
0.0
 11
2.5
 21
-0.1500000000000057
 31
0.0
  0
LINE
  5
27D8
  8
241
  6
CONTINUOUS
 10
10.30006247071827
 20
2.2924984382320872
 30
0.0
 11
10.499999999999879
 21
2.0875000000000621
 31
0.0
1001
GENIUS_GENFIL_13
1070
     0
1040
0.2
1040
0.2
1040
0.25
1040
45.0
1002
{
1002
}
1001
GRPNAME
1000
PASTMD06
1001
GENIUS_GENOBJ-N-CHA_13
1002
{
1000
OWNER
1000
GEN
1002
}
1001
GENIUS_GENODEF_13
1002
{
1000
HIER
1070
     0
1002
}
1002
{
1000
MANEDIT
1070
     0
1002
}
1002
{
1000
NOSEL
1070
     0
1002
}
1002
{
1000
BEHIND
1070
     0
1002
}
1002
{
1000
OTHER
1070
     0
1002
}
1002
{
1000
REACTOR
1002
}
  0
LINE
  5
27D9
  8
241
  6
CONTINUOUS
 10
10.499999999999879
 20
-2.0875000000000341
 30
0.0
 11
10.30006247071827
 21
-2.2924984382320579
 31
0.0
1001
GENIUS_GENFIL_13
1070
     0
1040
0.2
1040
0.2
1040
0.25
1040
45.0
1002
{
1002
}
1001
GRPNAME
1000
PASTMD01
1001
GENIUS_GENODEF_13
1002
{
1000
HIER
1070
     0
1002
}
1002
{
1000
MANEDIT
1070
     0
1002
}
1002
{
1000
NOSEL
1070
     0
1002
}
1002
{
1000
BEHIND
1070
     0
1002
}
1002
{
1000
OTHER
1070
     0
1002
}
1002
{
1000
REACTOR
1002
}
1001
GENIUS_GENOBJ-N-CHA_13
1002
{
1000
OWNER
1000
GEN
1002
}
  0
LINE
  5
27DA
  8
241
  6
CONTINUOUS
 10
2.6829268292683528
 20
2.4829268292683082
 30
0.0
 11
10.30006247071827
 21
2.2924984382320872
 31
0.0
1001
GRPNAME
1000
PASTMD06
  0
LINE
  5
27DB
  8
241
  6
CONTINUOUS
 10
10.499999999999879
 20
-0.1500000000000057
 30
0.0
 11
10.499999999999879
 21
-2.0875000000000341
 31
0.0
1001
GRPNAME
1000
PASTMD06
  0
LINE
  5
27DC
  8
241
  6
CONTINUOUS
 10
2.6829268292683528
 20
-2.4829268292683082
 30
0.0
 11
10.30006247071827
 21
-2.2924984382320579
 31
0.0
1001
GRPNAME
1000
PASTMD01
  0
LINE
  5
27DD
  8
241
  6
CONTINUOUS
 10
10.499999999999879
 20
0.1500000000000057
 30
0.0
 11
10.499999999999879
 21
2.0875000000000621
 31
0.0
1001
GRPNAME
1000
PASTMD06
  0
LINE
  5
27DE
  8
241
  6
CONTINUOUS
 10
2.0
 20
2.5
 30
0.0
 11
2.0
 21
2.75
 31
0.0
1001
GRPNAME
1000
PASTMD01
  0
ARC
  5
27DF
  8
241
  6
CONTINUOUS
 10
2.1999999999999309
 20
2.5
 30
0.0
 40
0.1999999999999318
 50
179.99999999485411
 51
269.99999999485408
1001
GRPNAME
1000
PASTMD01
  0
LINE
  5
27E0
  8
241
  6
CONTINUOUS
 10
2.1999999999999309
 20
2.3000000000000109
 30
0.0
 11
2.5
 21
2.3000000000000109
 31
0.0
1001
GRPNAME
1000
PASTMD06
  0
LINE
  5
27E1
  8
241
  6
CONTINUOUS
 10
0.2814582562295982
 20
1.5875000000000341
 30
0.0
 11
-0.0000000000001137
 21
1.7499999999999709
 31
0.0
  0
LINE
  5
27E2
  8
247
  6
CONTINUOUS
 10
0.2814582562295982
 20
1.1609540753145211
 30
0.0
 11
0.2814582562295982
 21
1.5875000000000341
 31
0.0
  0
LINE
  5
27E3
  8
241
  6
CONTINUOUS
 10
0.0
 20
0.0
 30
0.0
 11
0.0
 21
-2.75
 31
0.0
1001
GRPNAME
1000
PASTMD01
  0
LINE
  5
27E4
  8
241
  6
CONTINUOUS
 10
2.0
 20
0.0
 30
0.0
 11
2.0
 21
-2.75
 31
0.0
1001
GRPNAME
1000
PASTMD01
  0
LINE
  5
27E5
  8
241
  6
CONTINUOUS
 10
2.1999999999999309
 20
-2.3000000000000109
 30
0.0
 11
2.5
 21
-2.3000000000000109
 31
0.0
1001
GRPNAME
1000
PASTMD01
  0
ARC
  5
27E6
  8
241
  6
CONTINUOUS
 10
2.1999999999999309
 20
-2.5
 30
0.0
 40
0.1999999999999886
 50
89.999999994854122
 51
179.99999999485411
1001
GRPNAME
1000
PASTMD01
  0
ARC
  5
27E7
  8
241
  6
CONTINUOUS
 10
2.3499999999999091
 20
0.0
 30
0.0
 40
0.1500000000000057
 50
90.0
 51
270.0
  0
LINE
  5
27E8
  8
244
 10
0.2814582562295982
 20
-1.5875000000000341
 30
0.0
 11
-0.0000000000001137
 21
-1.7499999999999709
 31
0.0
  0
LINE
  5
27E9
  8
244
 10
0.2814582562295982
 20
-1.1609540753145211
 30
0.0
 11
0.2814582562295982
 21
-1.5875000000000341
 31
0.0
  0
LINE
  5
27EA
  8
241
  6
CONTINUOUS
 10
0.0
 20
0.0
 30
0.0
 11
0.0
 21
2.75
 31
0.0
1001
GRPNAME
1000
PASTMD06
  0
LINE
  5
27EB
  8
241
  6
CONTINUOUS
 10
2.3499999999999091
 20
0.1500000000000057
 30
0.0
 11
10.499999999999879
 21
0.1500000000000057
 31
0.0
  0
LINE
  5
27EC
  8
241
  6
CONTINUOUS
 10
2.3499999999999091
 20
-0.1500000000000057
 30
0.0
 11
10.499999999999879
 21
-0.1500000000000057
 31
0.0
  0
LINE
  5
27ED
  8
241
  6
CONTINUOUS
 10
0.2814582562295982
 20
1.5875000000000341
 30
0.0
 11
10.499999999999879
 21
1.5875000000000341
 31
0.0
1001
GRPNAME
1000
PASTMD06
  0
LINE
  5
27EE
  8
244
 10
0.2814582562295982
 20
-1.5875000000000341
 30
0.0
 11
10.499999999999879
 21
-1.5875000000000341
 31
0.0
  0
LINE
  5
27EF
  8
245
  6
CENTER2
 10
0.0
 20
0.0
 30
0.0
 11
10.499999999999879
 21
0.0
 31
0.0
1001
GRPNAME
1000
PASTMD06
  0
LINE
  5
27F0
  8
241
  6
CONTINUOUS
 10
2.5
 20
-2.3000000000000109
 30
0.0
 11
2.6829268292683528
 21
-2.4829268292683082
 31
0.0
1001
GRPNAME
1000
PASTMD01
  0
LINE
  5
27F1
  8
241
  6
CONTINUOUS
 10
2.5
 20
2.3000000000000109
 30
0.0
 11
2.6829268292683528
 21
2.4829268292683082
 31
0.0
1001
GRPNAME
1000
PASTMD06
  0
ENDBLK
  5
27F4
  8
0
  0
BLOCK
  8
0
  2
A$C427B2F9E
 70
     0
 10
0.0
 20
0.0
 30
0.0
  3
A$C427B2F9E
  1

  0
ARC
  5
27F9
  8
241
  6
CONTINUOUS
 10
47.499999999999829
 20
2.5
 30
0.0
 40
0.4999999999999996
 50
0.0000000899780446
 51
90.000000089974804
1001
GRPNAME
1000
PASTMD02
  0
LINE
  5
27FA
  8
241
  6
CONTINUOUS
 10
47.999999999999822
 20
0.0
 30
0.0
 11
47.999999999999822
 21
-2.5
 31
0.0
1001
GRPNAME
1000
PASTMD08
  0
ARC
  5
27FB
  8
241
  6
CONTINUOUS
 10
47.499999999999829
 20
-2.5
 30
0.0
 40
0.4999999999999996
 50
269.99999998199922
 51
359.99999998199428
1001
GRPNAME
1000
PASTMD02
  0
LINE
  5
27FC
  8
241
  6
CONTINUOUS
 10
47.999999999999822
 20
0.0
 30
0.0
 11
47.999999999999822
 21
2.5
 31
0.0
1001
GRPNAME
1000
PASTMD08
  0
LINE
  5
27FD
  8
241
  6
CONTINUOUS
 10
14.499999999999879
 20
3.0
 30
0.0
 11
14.499999999999879
 21
3.4499999999999882
 31
0.0
1001
GRPNAME
1000
PASTMD08
  0
ARC
  5
27FE
  8
241
  6
CONTINUOUS
 10
14.19999999999987
 20
3.4499999999999882
 30
0.0
 40
0.3000000000000111
 50
0.000000089979673
 51
90.000000089978045
1001
GRPNAME
1000
PASTMD02
  0
ARC
  5
27FF
  8
241
  6
CONTINUOUS
 10
13.299999999999899
 20
3.4499999999999882
 30
0.0
 40
0.3000000000000111
 50
89.999999992287684
 51
179.99999999228109
1001
GRPNAME
1000
PASTMD02
  0
LINE
  5
2800
  8
241
  6
CONTINUOUS
 10
12.999999999999879
 20
3.0
 30
0.0
 11
12.999999999999879
 21
3.4499999999999882
 31
0.0
1001
GRPNAME
1000
PASTMD08
  0
LINE
  5
2801
  8
241
  6
CONTINUOUS
 10
13.299999999999899
 20
3.75
 30
0.0
 11
14.19999999999987
 21
3.75
 31
0.0
1001
GRPNAME
1000
PASTMD08
  0
LINE
  5
2802
  8
241
  6
CONTINUOUS
 10
13.319578040878129
 20
1.5875000000000341
 30
0.0
 11
13.499999999999879
 21
1.900000000000005
 31
0.0
1001
GRPNAME
1000
PASTMD03
  0
LINE
  5
2803
  8
241
  6
CONTINUOUS
 10
13.319578040878129
 20
0.0
 30
0.0
 11
13.319578040878129
 21
1.5875000000000341
 31
0.0
1001
GRPNAME
1000
PASTMD03
  0
LINE
  5
2804
  8
241
  6
CONTINUOUS
 10
10.499999999999879
 20
3.0
 30
0.0
 11
9.8964466094066097
 21
3.6035533905932762
 31
0.0
1001
GRPNAME
1000
PASTMD08
  0
LINE
  5
2805
  8
241
  6
CONTINUOUS
 10
10.499999999999879
 20
3.0
 30
0.0
 11
12.999999999999879
 21
3.0
 31
0.0
1001
GRPNAME
1000
PASTMD08
  0
LINE
  5
2806
  8
241
  6
CONTINUOUS
 10
14.499999999999879
 20
-3.0
 30
0.0
 11
14.499999999999879
 21
-3.4499999999999882
 31
0.0
1001
GRPNAME
1000
PASTMD08
  0
ARC
  5
2807
  8
241
  6
CONTINUOUS
 10
14.19999999999987
 20
-3.4499999999999882
 30
0.0
 40
0.3000000000000111
 50
269.99999998199593
 51
359.99999998199098
1001
GRPNAME
1000
PASTMD02
  0
LINE
  5
2808
  8
241
  6
CONTINUOUS
 10
12.999999999999879
 20
-3.0
 30
0.0
 11
12.999999999999879
 21
-3.4499999999999882
 31
0.0
1001
GRPNAME
1000
PASTMD08
  0
ARC
  5
2809
  8
241
  6
CONTINUOUS
 10
13.299999999999899
 20
-3.4499999999999882
 30
0.0
 40
0.3000000000000111
 50
180.00000008998131
 51
270.00000008997802
1001
GRPNAME
1000
PASTMD02
  0
LINE
  5
280A
  8
241
  6
CONTINUOUS
 10
13.299999999999899
 20
-3.75
 30
0.0
 11
14.19999999999987
 21
-3.75
 31
0.0
1001
GRPNAME
1000
PASTMD08
  0
LINE
  5
280B
  8
241
  6
CONTINUOUS
 10
10.499999999999879
 20
-3.0
 30
0.0
 11
9.8964466094066097
 21
-3.6035533905932762
 31
0.0
1001
GRPNAME
1000
PASTMD08
  0
LINE
  5
280C
  8
241
  6
CONTINUOUS
 10
10.499999999999879
 20
-3.0
 30
0.0
 11
12.999999999999879
 21
-3.0
 31
0.0
1001
GRPNAME
1000
PASTMD08
  0
LINE
  5
280D
  8
241
  6
CONTINUOUS
 10
14.499999999999879
 20
-3.0
 30
0.0
 11
14.499999999999879
 21
0.0
 31
0.0
1001
GRPNAME
1000
PASTMD03
  0
LINE
  5
280E
  8
241
  6
CONTINUOUS
 10
12.999999999999879
 20
-3.0
 30
0.0
 11
12.999999999999879
 21
0.0
 31
0.0
1001
GRPNAME
1000
PASTMD03
  0
LINE
  5
280F
  8
241
  6
CONTINUOUS
 10
10.499999999999879
 20
-3.0
 30
0.0
 11
10.499999999999879
 21
0.0
 31
0.0
1001
GRPNAME
1000
PASTMD03
  0
LINE
  5
2810
  8
241
  6
CONTINUOUS
 10
9.7499999999998863
 20
-3.5050898605623351
 30
0.0
 11
9.7499999999998863
 21
0.0
 31
0.0
1001
GRPNAME
1000
PASTMD03
  0
LINE
  5
2811
  8
241
  6
CONTINUOUS
 10
13.49999999999994
 20
0.0
 30
0.0
 11
13.49999999999994
 21
1.900000000000005
 31
0.0
1001
GRPNAME
1000
PASTMD08
  0
LINE
  5
2812
  8
241
  6
CONTINUOUS
 10
9.2886751345947118
 20
1.5875000000000341
 30
0.0
 11
8.9999999999998863
 21
2.0874999999999768
 31
0.0
  0
LINE
  5
2813
  8
241
  6
CONTINUOUS
 10
6.9999999999998863
 20
2.5
 30
0.0
 11
8.9999999999998863
 21
2.5
 31
0.0
1001
GRPNAME
1000
PASTMD08
  0
ARC
  5
2814
  8
241
  6
CONTINUOUS
 10
0.5
 20
3.25
 30
0.0
 40
0.4999999999999996
 50
89.999999987138551
 51
179.99999999485411
1001
GRPNAME
1000
PASTMD08
  0
ARC
  5
2815
  8
241
  6
CONTINUOUS
 10
0.1999999999999318
 20
2.6950624902374321
 30
0.0
 40
0.1999999999999884
 50
180.00000009254771
 51
268.5679039083758
1001
GRPNAME
1000
PASTMD02
  0
LINE
  5
2816
  8
241
  6
CONTINUOUS
 10
0.5
 20
3.75
 30
0.0
 11
9.5428932188133331
 21
3.75
 31
0.0
1001
GRPNAME
1000
PASTMD08
  0
LINE
  5
2817
  8
241
  6
CONTINUOUS
 10
0.1950015617678673
 20
2.4951249609558199
 30
0.0
 11
6.9999999999998863
 21
2.3250000000000308
 31
0.0
1001
GRPNAME
1000
PASTMD08
  0
ARC
  5
2818
  8
241
  6
CONTINUOUS
 10
0.5
 20
-3.25
 30
0.0
 40
0.4999999999999996
 50
180.0000000899764
 51
270.0000000976936
1001
GRPNAME
1000
PASTMD02
  0
LINE
  5
2819
  8
241
  6
CONTINUOUS
 10
0.0
 20
0.0
 30
0.0
 11
0.0
 21
-3.25
 31
0.0
1001
GRPNAME
1000
PASTMD02
  0
LINE
  5
281A
  8
241
  6
CONTINUOUS
 10
0.5
 20
-3.75
 30
0.0
 11
9.5428932188133331
 21
-3.75
 31
0.0
1001
GRPNAME
1000
PASTMD02
  0
LINE
  5
281B
  8
241
  6
CONTINUOUS
 10
0.0
 20
0.0
 30
0.0
 11
0.0
 21
3.25
 31
0.0
1001
GRPNAME
1000
PASTMD08
  0
LINE
  5
281C
  8
241
  6
CONTINUOUS
 10
8.9999999999998863
 20
0.0
 30
0.0
 11
8.9999999999998863
 21
2.5
 31
0.0
1001
GRPNAME
1000
PASTMD08
  0
LINE
  5
281D
  8
241
  6
CONTINUOUS
 10
6.9999999999998863
 20
0.0
 30
0.0
 11
6.9999999999998863
 21
2.5
 31
0.0
1001
GRPNAME
1000
PASTMD08
  0
LINE
  5
281E
  8
241
  6
CONTINUOUS
 10
9.2886751345947118
 20
0.0
 30
0.0
 11
9.2886751345947118
 21
1.5875000000000341
 31
0.0
1001
GRPNAME
1000
PASTMD08
  0
ARC
  5
281F
  8
241
  6
CONTINUOUS
 10
9.5428932188133331
 20
3.25
 30
0.0
 40
0.5000000000000037
 50
44.999999987139653
 51
90.0
1001
GRPNAME
1000
PASTMD03
  0
ARC
  5
2820
  8
241
  6
CONTINUOUS
 10
9.5428932188133331
 20
-3.25
 30
0.0
 40
0.4999999999999996
 50
270.0
 51
315.00000004241258
1001
GRPNAME
1000
PASTMD03
  0
LINE
  5
2821
  8
241
  6
CONTINUOUS
 10
9.2886751345947118
 20
1.5875000000000341
 30
0.0
 11
13.319578040878129
 21
1.5875000000000341
 31
0.0
1001
GRPNAME
1000
PASTMD08
  0
LINE
  5
2822
  8
241
  6
CONTINUOUS
 10
14.499999999999879
 20
3.0
 30
0.0
 11
47.499999999999829
 21
3.0
 31
0.0
1001
GRPNAME
1000
PASTMD08
  0
LINE
  5
2823
  8
241
  6
CONTINUOUS
 10
14.499999999999879
 20
-3.0
 30
0.0
 11
47.499999999999829
 21
-3.0
 31
0.0
1001
GRPNAME
1000
PASTMD08
  0
LINE
  5
2824
  8
241
  6
CONTINUOUS
 10
13.49999999999994
 20
1.900000000000005
 30
0.0
 11
47.999999999999822
 21
1.900000000000005
 31
0.0
  0
LINE
  5
2825
  8
245
  6
CENTER2
 10
0.0
 20
0.0
 30
0.0
 11
47.999999999999822
 21
0.0
 31
0.0
1001
GRPNAME
1000
PASTMD08
  0
ENDBLK
  5
2828
  8
0
  0
BLOCK
  8
0
  2
A$C6DA56037
 70
     0
 10
0.0
 20
0.0
 30
0.0
  3
A$C6DA56037
  1

  0
LINE
  5
28E3
  8
244
  6
HIDDEN2
 10
-4.883605253231309
 20
0.0
 30
0.0
 11
-4.883605253231309
 21
-0.5
 31
0.0
1001
GRPNAME
1000
00000008
  0
LINE
  5
28E4
  8
244
  6
HIDDEN2
 10
-4.883605253231309
 20
-0.5
 30
0.0
 11
-3.0000000000001421
 21
-1.587500000000005
 31
0.0
1001
GRPNAME
1000
00000008
  0
LINE
  5
28E5
  8
244
  6
HIDDEN2
 10
-3.000000000000028
 20
0.0
 30
0.0
 11
-3.000000000000028
 21
-1.587500000000005
 31
0.0
1001
GRPNAME
1000
00000008
  0
LINE
  5
28E6
  8
244
  6
HIDDEN2
 10
-4.883605253231309
 20
0.0
 30
0.0
 11
-4.883605253231309
 21
0.5
 31
0.0
1001
GRPNAME
1000
00000008
  0
LINE
  5
28E7
  8
244
  6
HIDDEN2
 10
-4.883605253231309
 20
0.5
 30
0.0
 11
-3.0000000000001421
 21
1.587500000000005
 31
0.0
1001
GRPNAME
1000
00000008
  0
LINE
  5
28E8
  8
244
  6
HIDDEN2
 10
-3.000000000000028
 20
0.0
 30
0.0
 11
-3.000000000000028
 21
1.587500000000005
 31
0.0
1001
GRPNAME
1000
00000008
  0
LINE
  5
28E9
  8
244
  6
HIDDEN2
 10
-10.288675134594911
 20
0.0
 30
0.0
 11
-10.00000000000003
 21
-0.5
 31
0.0
1001
GRPNAME
1000
00000008
  0
LINE
  5
28EA
  8
244
  6
HIDDEN2
 10
-10.00000000000003
 20
0.0
 30
0.0
 11
-10.00000000000003
 21
-0.5
 31
0.0
1001
GRPNAME
1000
00000008
  0
LINE
  5
28EB
  8
244
  6
HIDDEN2
 10
-10.288675134594911
 20
0.0
 30
0.0
 11
-10.00000000000003
 21
0.5
 31
0.0
1001
GRPNAME
1000
00000008
  0
LINE
  5
28EC
  8
244
  6
HIDDEN2
 10
-10.00000000000003
 20
0.0
 30
0.0
 11
-10.00000000000003
 21
0.5
 31
0.0
1001
GRPNAME
1000
00000008
  0
LINE
  5
28ED
  8
244
  6
HIDDEN2
 10
-10.00000000000003
 20
-0.5
 30
0.0
 11
-4.883605253231309
 21
-0.5
 31
0.0
1001
GRPNAME
1000
00000008
  0
LINE
  5
28EE
  8
244
  6
HIDDEN2
 10
-10.00000000000003
 20
0.5
 30
0.0
 11
-4.883605253231309
 21
0.5
 31
0.0
1001
GRPNAME
1000
00000008
  0
LINE
  5
28EF
  8
244
  6
HIDDEN2
 10
-3.000000000000028
 20
-1.587500000000005
 30
0.0
 11
19.499999999999972
 21
-1.587500000000005
 31
0.0
1001
GRPNAME
1000
00000008
  0
LINE
  5
28F0
  8
244
  6
HIDDEN2
 10
-3.000000000000028
 20
1.587500000000005
 30
0.0
 11
19.499999999999972
 21
1.587500000000005
 31
0.0
1001
GRPNAME
1000
00000008
  0
LINE
  5
28F1
  8
245
  6
CENTER2
 10
-10.288675134594911
 20
0.0
 30
0.0
 11
19.999999999999972
 21
0.0
 31
0.0
1001
GRPNAME
1000
00000008
  0
LINE
  5
28F2
  8
244
  6
HIDDEN2
 10
19.499999999999972
 20
1.587500000000005
 30
0.0
 11
19.999999999999972
 21
1.087500000000005
 31
0.0
1001
GRPNAME
1000
00000008
  0
LINE
  5
28F3
  8
244
  6
HIDDEN2
 10
19.499999999999972
 20
-1.587500000000005
 30
0.0
 11
19.499999999999972
 21
1.587500000000005
 31
0.0
1001
GRPNAME
1000
00000008
  0
LINE
  5
28F4
  8
244
  6
HIDDEN2
 10
19.999999999999972
 20
0.0
 30
0.0
 11
19.999999999999972
 21
1.087500000000005
 31
0.0
1001
GRPNAME
1000
00000008
  0
LINE
  5
28F5
  8
244
  6
HIDDEN2
 10
19.999999999999972
 20
-1.087500000000005
 30
0.0
 11
19.499999999999972
 21
-1.587500000000005
 31
0.0
1001
GRPNAME
1000
00000008
  0
LINE
  5
28F6
  8
244
  6
HIDDEN2
 10
19.999999999999972
 20
0.0
 30
0.0
 11
19.999999999999972
 21
-1.087500000000005
 31
0.0
1001
GRPNAME
1000
00000008
  0
ENDBLK
  5
28F9
  8
0
  0
BLOCK
  8
0
  2
_DOT
 70
     0
 10
0.0
 20
0.0
 30
0.0
  3
_DOT
  1

  0
POLYLINE
  5
33C1
  8
0
  6
BYBLOCK
 62
     0
 66
     1
 10
0.0
 20
0.0
 30
0.0
 70
     1
 40
0.5
 41
0.5
  0
VERTEX
  5
47C0
  8
0
  6
BYBLOCK
 62
     0
 10
-0.25
 20
0.0
 30
0.0
 42
1.0
  0
VERTEX
  5
47C1
  8
0
  6
BYBLOCK
 62
     0
 10
0.25
 20
0.0
 30
0.0
 42
1.0
  0
SEQEND
  5
47C2
  8
0
  6
BYBLOCK
 62
     0
  0
LINE
  5
33C2
  8
0
  6
BYBLOCK
 62
     0
 10
-0.5
 20
0.0
 30
0.0
 11
-1.0
 21
0.0
 31
0.0
  0
ENDBLK
  5
33C4
  8
0
  0
BLOCK
  8
0
  2
_ACMNONE
 70
     0
 10
0.0
 20
0.0
 30
0.0
  3
_ACMNONE
  1

  0
LINE
  5
417C
  8
241
 62
     0
 10
-1.0
 20
0.0
 30
0.0
 11
0.0
 21
0.0
 31
0.0
  0
ENDBLK
  5
417B
  8
0
  0
BLOCK
  8
0
  2
_ACMOPEN15
 70
     0
 10
0.0
 20
0.0
 30
0.0
  3
_ACMOPEN15
  1

  0
LINE
  5
4180
  8
241
 62
     0
 10
-1.0
 20
0.0
 30
0.0
 11
0.0
 21
0.0
 31
0.0
  0
LINE
  5
4181
  8
241
 62
     0
 10
-1.0
 20
-0.131652497
 30
0.0
 11
0.0
 21
0.0
 31
0.0
  0
LINE
  5
4182
  8
241
 62
     0
 10
0.0
 20
0.0
 30
0.0
 11
-1.0
 21
0.131652497
 31
0.0
  0
ENDBLK
  5
417F
  8
0
  0
BLOCK
  8
0
  2
_ACMFILLED15
 70
     0
 10
0.0
 20
0.0
 30
0.0
  3
_ACMFILLED15
  1

  0
TRACE
  5
418F
  8
241
 62
     0
 10
-1.0
 20
-0.131652497
 30
0.0
 11
-1.0
 21
0.131652497
 31
0.0
 12
0.0
 22
0.0
 32
0.0
 13
0.0
 23
0.0
 33
0.0
  0
ENDBLK
  5
418E
  8
0
  0
BLOCK
  8
0
  2
*D16
 70
     1
 10
0.0
 20
0.0
 30
0.0
  3
*D16
  1

  0
LINE
  5
41B2
  8
250
  6
CONTINUOUS
 10
164.0
 20
91.485717872560997
 30
0.0
 11
164.0
 21
62.0
 31
0.0
  0
LINE
  5
41B3
  8
250
  6
CONTINUOUS
 10
186.00000000000011
 20
91.485717872560997
 30
0.0
 11
186.00000000000011
 21
62.0
 31
0.0
  0
LINE
  5
41B4
  8
250
  6
CONTINUOUS
 10
166.22999999999999
 20
63.0
 30
0.0
 11
183.7700000000001
 21
63.0
 31
0.0
  0
INSERT
  5
41B5
  8
250
  6
CONTINUOUS
  2
_OPEN
 10
164.0
 20
63.0
 30
0.0
 41
2.2299999999999991
 42
2.2299999999999991
 43
2.2299999999999991
 50
180.0
  0
INSERT
  5
41B6
  8
250
  6
CONTINUOUS
  2
_OPEN
 10
186.00000000000011
 20
63.0
 30
0.0
 41
2.2299999999999991
 42
2.2299999999999991
 43
2.2299999999999991
  0
INSERT
  5
41B7
  8
240
  2
*U48
 10
0.0
 20
0.0
 30
0.0
  0
POINT
  5
41B8
  8
DEFPOINTS
  6
CONTINUOUS
 62
     0
 10
164.0
 20
91.985717872560997
 30
0.0
  0
POINT
  5
41B9
  8
DEFPOINTS
  6
CONTINUOUS
 62
     0
 10
186.00000000000011
 20
91.985717872560997
 30
0.0
  0
POINT
  5
41BA
  8
DEFPOINTS
  6
CONTINUOUS
 62
     0
 10
186.00000000000011
 20
63.0
 30
0.0
  0
ENDBLK
  5
41BB
  8
0
  0
BLOCK
  8
0
  2
*D17
 70
     1
 10
0.0
 20
0.0
 30
0.0
  3
*D17
  1

  0
LINE
  5
41BE
  8
250
  6
CONTINUOUS
 10
256.24929741615989
 20
94.067288510782404
 30
0.0
 11
261.52790511472909
 21
88.104824377357033
 31
0.0
  0
LINE
  5
41BF
  8
250
  6
CONTINUOUS
 10
254.1082464074058
 20
96.485717872560997
 30
0.0
 11
254.77111049680329
 21
95.736978132072295
 31
0.0
  0
INSERT
  5
41C0
  8
250
  6
CONTINUOUS
  2
_OPEN
 10
254.77111049680329
 20
95.736978132072295
 30
0.0
 41
2.2299999999999991
 42
2.2299999999999991
 43
2.2299999999999991
 50
131.51867205981881
  0
INSERT
  5
41C1
  8
240
  2
*U49
 10
0.0
 20
0.0
 30
0.0
  0
POINT
  5
41C2
  8
DEFPOINTS
  6
CONTINUOUS
 62
     0
 10
254.77111049680329
 20
95.736978132072295
 30
0.0
  0
POINT
  5
41C3
  8
DEFPOINTS
  6
CONTINUOUS
 62
     0
 10
254.1082464074058
 20
96.485717872560997
 30
0.0
  0
ENDBLK
  5
41C4
  8
0
  0
BLOCK
  8
0
  2
*D18
 70
     1
 10
0.0
 20
0.0
 30
0.0
  3
*D18
  1

  0
LINE
  5
41C7
  8
250
  6
CONTINUOUS
 10
255.80000000000001
 20
98.485717872561025
 30
0.0
 11
274.01114466211931
 21
98.485717872561025
 31
0.0
  0
LINE
  5
41C8
  8
250
  6
CONTINUOUS
 10
255.80000000000001
 20
97.485717872561025
 30
0.0
 11
274.01114466211931
 21
97.485717872561025
 31
0.0
  0
LINE
  5
41C9
  8
250
  6
CONTINUOUS
 10
273.01114466211919
 20
100.715717872561
 30
0.0
 11
273.01114466211919
 21
102.945717872561
 31
0.0
  0
LINE
  5
41CA
  8
250
  6
CONTINUOUS
 10
273.01114466211919
 20
95.255717872561036
 30
0.0
 11
273.01114466211919
 21
79.479051205894351
 31
0.0
  0
LINE
  5
41CB
  8
250
  6
CONTINUOUS
 10
273.01114466211919
 20
98.485717872561025
 30
0.0
 11
273.01114466211919
 21
97.485717872561025
 31
0.0
  0
INSERT
  5
41CC
  8
250
  6
CONTINUOUS
  2
_OPEN
 10
273.01114466211919
 20
98.485717872561025
 30
0.0
 41
2.2299999999999991
 42
2.2299999999999991
 43
2.2299999999999991
 50
270.0
  0
INSERT
  5
41CD
  8
250
  6
CONTINUOUS
  2
_OPEN
 10
273.01114466211919
 20
97.485717872561025
 30
0.0
 41
2.2299999999999991
 42
2.2299999999999991
 43
2.2299999999999991
 50
90.0
  0
INSERT
  5
41CE
  8
240
  2
*U50
 10
0.0
 20
0.0
 30
0.0
  0
POINT
  5
41CF
  8
DEFPOINTS
  6
CONTINUOUS
 62
     0
 10
255.30000000000001
 20
98.485717872561025
 30
0.0
  0
POINT
  5
41D0
  8
DEFPOINTS
  6
CONTINUOUS
 62
     0
 10
255.30000000000001
 20
97.485717872561025
 30
0.0
  0
POINT
  5
41D1
  8
DEFPOINTS
  6
CONTINUOUS
 62
     0
 10
273.01114466211919
 20
97.485717872561025
 30
0.0
  0
ENDBLK
  5
41D2
  8
0
  0
BLOCK
  8
0
  2
*D19
 70
     1
 10
0.0
 20
0.0
 30
0.0
  3
*D19
  1

  0
LINE
  5
41D5
  8
250
  6
CONTINUOUS
 10
255.7436086498565
 20
102.2711245459152
 30
0.0
 11
259.77547696483549
 21
109.13834492016031
 31
0.0
  0
LINE
  5
41D6
  8
250
  6
CONTINUOUS
 10
254.1082464074058
 20
99.485717872561011
 30
0.0
 11
254.61455050723569
 21
100.3480728797914
 31
0.0
  0
INSERT
  5
41D7
  8
250
  6
CONTINUOUS
  2
_OPEN
 10
254.61455050723569
 20
100.3480728797914
 30
0.0
 41
2.2299999999999991
 42
2.2299999999999991
 43
2.2299999999999991
 50
239.58204026167451
  0
INSERT
  5
41D8
  8
240
  2
*U51
 10
0.0
 20
0.0
 30
0.0
  0
POINT
  5
41D9
  8
DEFPOINTS
  6
CONTINUOUS
 62
     0
 10
254.61455050723569
 20
100.3480728797914
 30
0.0
  0
POINT
  5
41DA
  8
DEFPOINTS
  6
CONTINUOUS
 62
     0
 10
254.1082464074058
 20
99.485717872561011
 30
0.0
  0
ENDBLK
  5
41DB
  8
0
  0
BLOCK
  8
0
  2
*D20
 70
     1
 10
0.0
 20
0.0
 30
0.0
  3
*D20
  1

  0
LINE
  5
41DE
  8
250
  6
CONTINUOUS
 10
186.32502328721199
 20
102.16479388359819
 30
0.0
 11
179.16120012511141
 21
103.04440076494269
 31
0.0
  0
LINE
  5
41DF
  8
250
  6
CONTINUOUS
 10
186.37216938573621
 20
93.812430674529494
 30
0.0
 11
179.16120012511141
 21
92.927034980179371
 31
0.0
  0
ARC
  5
41E0
  8
250
  6
CONTINUOUS
 10
220.360866069937
 20
97.985717872561011
 30
0.0
 40
40.509068245034157
 50
176.1544968222756
 51
183.84550317772411
  0
INSERT
  5
41E1
  8
250
  6
CONTINUOUS
  2
_OPEN
 10
180.15374627675271
 20
102.9225314215376
 30
0.0
 41
2.2299999999999991
 42
2.2299999999999991
 43
2.2299999999999991
 50
84.577248411137845
  0
INSERT
  5
41E2
  8
250
  6
CONTINUOUS
  2
_OPEN
 10
180.15374627675271
 20
93.048904323584523
 30
0.0
 41
2.2299999999999991
 42
2.2299999999999991
 43
2.2299999999999991
 50
275.42275158886201
  0
INSERT
  5
41E3
  8
240
  2
*U52
 10
0.0
 20
0.0
 30
0.0
  0
POINT
  5
41E4
  8
DEFPOINTS
  6
CONTINUOUS
 62
     0
 10
179.885384772848
 20
96.336468391788031
 30
0.0
  0
POINT
  5
41E5
  8
DEFPOINTS
  6
CONTINUOUS
 62
     0
 10
199.3929327674536
 20
95.411179388974233
 30
0.0
  0
POINT
  5
41E6
  8
DEFPOINTS
  6
CONTINUOUS
 62
     0
 10
199.39293276745349
 20
100.5602563561478
 30
0.0
  0
POINT
  5
41E7
  8
DEFPOINTS
  6
CONTINUOUS
 62
     0
 10
186.8212963630327
 20
102.1038592118956
 30
0.0
  0
POINT
  5
41E8
  8
DEFPOINTS
  6
CONTINUOUS
 62
     0
 10
186.8684424615569
 20
93.873365346232049
 30
0.0
  0
ENDBLK
  5
41E9
  8
0
  0
BLOCK
  8
0
  2
*D21
 70
     1
 10
0.0
 20
0.0
 30
0.0
  3
*D21
  1

  0
LINE
  5
41EC
  8
250
  6
CONTINUOUS
 10
161.07654664460881
 20
101.9100371873276
 30
0.0
 11
130.56383737660411
 21
108.30065686849861
 31
0.0
  0
LINE
  5
41ED
  8
250
  6
CONTINUOUS
 10
179.81363636363679
 20
97.985717872561082
 30
0.0
 11
163.25918892216481
 21
101.45290188107241
 31
0.0
  0
INSERT
  5
41EE
  8
250
  6
CONTINUOUS
  2
_OPEN
 10
163.25918892216481
 20
101.45290188107241
 30
0.0
 41
2.2299999999999991
 42
2.2299999999999991
 43
2.2299999999999991
 50
348.17088667195111
  0
INSERT
  5
41EF
  8
240
  2
*U53
 10
0.0
 20
0.0
 30
0.0
  0
POINT
  5
41F0
  8
DEFPOINTS
  6
CONTINUOUS
 62
     0
 10
163.25918892216481
 20
101.45290188107241
 30
0.0
  0
POINT
  5
41F1
  8
DEFPOINTS
  6
CONTINUOUS
 62
     0
 10
179.81363636363679
 20
97.985717872561082
 30
0.0
  0
ENDBLK
  5
41F2
  8
0
  0
BLOCK
  8
0
  2
*D22
 70
     1
 10
0.0
 20
0.0
 30
0.0
  3
*D22
  1

  0
LINE
  5
41F5
  8
250
  6
CONTINUOUS
 10
162.91389058173891
 20
90.443093469472004
 30
0.0
 11
155.5309252297798
 21
80.031825516453608
 31
0.0
  0
LINE
  5
41F6
  8
250
  6
CONTINUOUS
 10
165.07151351954059
 20
93.485717872561025
 30
0.0
 11
164.20383673490181
 21
92.262142375340204
 31
0.0
  0
INSERT
  5
41F7
  8
250
  6
CONTINUOUS
  2
_OPEN
 10
164.20383673490181
 20
92.262142375340204
 30
0.0
 41
2.2299999999999991
 42
2.2299999999999991
 43
2.2299999999999991
 50
54.658318848217789
  0
INSERT
  5
41F8
  8
240
  2
*U54
 10
0.0
 20
0.0
 30
0.0
  0
POINT
  5
41F9
  8
DEFPOINTS
  6
CONTINUOUS
 62
     0
 10
164.20383673490181
 20
92.262142375340204
 30
0.0
  0
POINT
  5
41FA
  8
DEFPOINTS
  6
CONTINUOUS
 62
     0
 10
165.07151351954059
 20
93.485717872561025
 30
0.0
  0
ENDBLK
  5
41FB
  8
0
  0
BLOCK
  8
0
  2
*D23
 70
     1
 10
0.0
 20
0.0
 30
0.0
  3
*D23
  1

  0
LINE
  5
41FE
  8
250
  6
CONTINUOUS
 10
162.7200442585478
 20
105.3811439749863
 30
0.0
 11
154.67377455314869
 21
115.2887280198358
 31
0.0
  0
LINE
  5
41FF
  8
250
  6
CONTINUOUS
 10
165.07151351954059
 20
102.485717872561
 30
0.0
 11
164.12588244943629
 21
103.65009834270531
 31
0.0
  0
INSERT
  5
4200
  8
250
  6
CONTINUOUS
  2
_OPEN
 10
164.12588244943629
 20
103.65009834270531
 30
0.0
 41
2.2299999999999991
 42
2.2299999999999991
 43
2.2299999999999991
 50
309.08116883261368
  0
INSERT
  5
4201
  8
240
  2
*U55
 10
0.0
 20
0.0
 30
0.0
  0
POINT
  5
4202
  8
DEFPOINTS
  6
CONTINUOUS
 62
     0
 10
164.12588244943629
 20
103.65009834270531
 30
0.0
  0
POINT
  5
4203
  8
DEFPOINTS
  6
CONTINUOUS
 62
     0
 10
165.07151351954059
 20
102.485717872561
 30
0.0
  0
ENDBLK
  5
4204
  8
0
  0
BLOCK
  8
0
  2
*D24
 70
     1
 10
0.0
 20
0.0
 30
0.0
  3
*D24
  1

  0
LINE
  5
4207
  8
250
  6
CONTINUOUS
 10
254.6082464074058
 20
95.485717872561054
 30
0.0
 11
281.0
 21
95.485717872561054
 31
0.0
  0
LINE
  5
4208
  8
250
  6
CONTINUOUS
 10
254.6082464074058
 20
100.485717872561
 30
0.0
 11
281.0
 21
100.485717872561
 31
0.0
  0
LINE
  5
4209
  8
250
  6
CONTINUOUS
 10
280.0
 20
93.485717872561054
 30
0.0
 11
280.0
 21
91.485717872561054
 31
0.0
  0
LINE
  5
420A
  8
250
  6
CONTINUOUS
 10
280.0
 20
102.485717872561
 30
0.0
 11
280.0
 21
104.485717872561
 31
0.0
  0
LINE
  5
420B
  8
250
  6
CONTINUOUS
 10
280.0
 20
95.485717872561054
 30
0.0
 11
280.0
 21
100.485717872561
 31
0.0
  0
INSERT
  5
420C
  8
250
  6
CONTINUOUS
  2
_OPEN
 10
280.0
 20
95.485717872561054
 30
0.0
 41
2.0
 42
2.0
 43
2.0
 50
90.0
  0
INSERT
  5
420D
  8
250
  6
CONTINUOUS
  2
_OPEN
 10
280.0
 20
100.485717872561
 30
0.0
 41
2.0
 42
2.0
 43
2.0
 50
270.0
  0
INSERT
  5
420E
  8
240
  2
*U56
 10
0.0
 20
0.0
 30
0.0
  0
POINT
  5
420F
  8
DEFPOINTS
  6
CONTINUOUS
 62
     0
 10
254.1082464074058
 20
95.485717872561054
 30
0.0
  0
POINT
  5
4210
  8
DEFPOINTS
  6
CONTINUOUS
 62
     0
 10
254.1082464074058
 20
100.485717872561
 30
0.0
  0
POINT
  5
4211
  8
DEFPOINTS
  6
CONTINUOUS
 62
     0
 10
280.0
 20
100.485717872561
 30
0.0
  0
ENDBLK
  5
4212
  8
0
  0
BLOCK
  8
0
  2
*D25
 70
     1
 10
0.0
 20
0.0
 30
0.0
  3
*D25
  1

  0
LINE
  5
4215
  8
250
  6
CONTINUOUS
 10
168.0
 20
91.685717872560986
 30
0.0
 11
168.0
 21
69.0
 31
0.0
  0
LINE
  5
4216
  8
250
  6
CONTINUOUS
 10
182.0
 20
91.685717872560986
 30
0.0
 11
182.0
 21
69.0
 31
0.0
  0
LINE
  5
4217
  8
250
  6
CONTINUOUS
 10
170.0
 20
70.0
 30
0.0
 11
180.0
 21
70.0
 31
0.0
  0
INSERT
  5
4218
  8
250
  6
CONTINUOUS
  2
_OPEN
 10
168.0
 20
70.0
 30
0.0
 41
2.0
 42
2.0
 43
2.0
 50
180.0
  0
INSERT
  5
4219
  8
250
  6
CONTINUOUS
  2
_OPEN
 10
182.0
 20
70.0
 30
0.0
 41
2.0
 42
2.0
 43
2.0
  0
INSERT
  5
421A
  8
240
  2
*U57
 10
0.0
 20
0.0
 30
0.0
  0
POINT
  5
421B
  8
DEFPOINTS
  6
CONTINUOUS
 62
     0
 10
168.0
 20
92.185717872560986
 30
0.0
  0
POINT
  5
421C
  8
DEFPOINTS
  6
CONTINUOUS
 62
     0
 10
182.0
 20
92.185717872560986
 30
0.0
  0
POINT
  5
421D
  8
DEFPOINTS
  6
CONTINUOUS
 62
     0
 10
182.0
 20
70.0
 30
0.0
  0
ENDBLK
  5
421E
  8
0
  0
BLOCK
  8
0
  2
*D26
 70
     1
 10
0.0
 20
0.0
 30
0.0
  3
*D26
  1

  0
LINE
  5
4221
  8
250
  6
CONTINUOUS
 10
164.5715135195405
 20
91.985717872560997
 30
0.0
 11
146.0
 21
91.985717872561011
 31
0.0
  0
LINE
  5
4222
  8
250
  6
CONTINUOUS
 10
164.5715135195405
 20
103.985717872561
 30
0.0
 11
146.0
 21
103.985717872561
 31
0.0
  0
LINE
  5
4223
  8
250
  6
CONTINUOUS
 10
147.0
 20
93.985717872560997
 30
0.0
 11
147.0
 21
101.985717872561
 31
0.0
  0
INSERT
  5
4224
  8
250
  6
CONTINUOUS
  2
_OPEN
 10
147.0
 20
91.985717872561011
 30
0.0
 41
2.0
 42
2.0
 43
2.0
 50
270.0
  0
INSERT
  5
4225
  8
250
  6
CONTINUOUS
  2
_OPEN
 10
147.0
 20
103.985717872561
 30
0.0
 41
2.0
 42
2.0
 43
2.0
 50
90.0
  0
INSERT
  5
4226
  8
240
  2
*U58
 10
0.0
 20
0.0
 30
0.0
  0
POINT
  5
4227
  8
DEFPOINTS
  6
CONTINUOUS
 62
     0
 10
165.0715135195405
 20
91.985717872560997
 30
0.0
  0
POINT
  5
4228
  8
DEFPOINTS
  6
CONTINUOUS
 62
     0
 10
165.0715135195405
 20
103.985717872561
 30
0.0
  0
POINT
  5
4229
  8
DEFPOINTS
  6
CONTINUOUS
 62
     0
 10
147.0
 20
103.985717872561
 30
0.0
  0
ENDBLK
  5
422A
  8
0
  0
BLOCK
  8
0
  2
*D27
 70
     1
 10
0.0
 20
0.0
 30
0.0
  3
*D27
  1

  0
LINE
  5
422D
  8
250
 10
200.61162620150489
 20
110.4857178725609
 30
0.0
 11
199.9475441124105
 21
102.51332833247049
 31
0.0
  0
INSERT
  5
422E
  8
250
  2
_OPEN
 10
199.78152359013691
 20
100.5202309474479
 30
0.0
 41
2.0
 42
2.0
 43
2.0
 50
265.23838318455222
  0
INSERT
  5
422F
  8
240
  2
*U59
 10
0.0
 20
0.0
 30
0.0
  0
POINT
  5
4230
  8
DEFPOINTS
 62
     0
 10
199.78152359013691
 20
100.5202309474479
 30
0.0
  0
POINT
  5
4231
  8
DEFPOINTS
 62
     0
 10
200.61162620150489
 20
110.4857178725609
 30
0.0
  0
ENDBLK
  5
4232
  8
0
  0
BLOCK
  8
0
  2
*D29
 70
     1
 10
0.0
 20
0.0
 30
0.0
  3
*D29
  1

  0
LINE
  5
44EB
  8
250
  6
CONTINUOUS
 10
79.608246407405858
 20
-51.514282127438889
 30
0.0
 11
106.0
 21
-51.514282127438896
 31
0.0
  0
LINE
  5
44EC
  8
250
  6
CONTINUOUS
 10
79.608246407405858
 20
-46.514282127438911
 30
0.0
 11
106.0
 21
-46.514282127438918
 31
0.0
  0
LINE
  5
44ED
  8
250
  6
CONTINUOUS
 10
105.0
 20
-53.514282127438896
 30
0.0
 11
105.0
 21
-55.514282127438889
 31
0.0
  0
LINE
  5
44EE
  8
250
  6
CONTINUOUS
 10
105.0
 20
-44.514282127438918
 30
0.0
 11
105.0
 21
-42.514282127438918
 31
0.0
  0
LINE
  5
44EF
  8
250
  6
CONTINUOUS
 10
105.0
 20
-51.514282127438896
 30
0.0
 11
105.0
 21
-46.514282127438918
 31
0.0
  0
INSERT
  5
44F0
  8
250
  6
CONTINUOUS
  2
_OPEN
 10
105.0
 20
-51.514282127438896
 30
0.0
 41
2.0
 42
2.0
 43
2.0
 50
90.0
  0
INSERT
  5
44F1
  8
250
  6
CONTINUOUS
  2
_OPEN
 10
105.0
 20
-46.514282127438918
 30
0.0
 41
2.0
 42
2.0
 43
2.0
 50
270.0
  0
INSERT
  5
44F2
  8
240
  2
*U73
 10
0.0
 20
0.0
 30
0.0
  0
POINT
  5
44F3
  8
DEFPOINTS
  6
CONTINUOUS
 62
     0
 10
79.108246407405844
 20
-51.514282127438889
 30
0.0
  0
POINT
  5
44F4
  8
DEFPOINTS
  6
CONTINUOUS
 62
     0
 10
79.108246407405844
 20
-46.514282127438911
 30
0.0
  0
POINT
  5
44F5
  8
DEFPOINTS
  6
CONTINUOUS
 62
     0
 10
105.0
 20
-46.514282127438918
 30
0.0
  0
ENDBLK
  5
446A
  8
0
  0
BLOCK
  8
0
  2
*D30
 70
     1
 10
0.0
 20
0.0
 30
0.0
  3
*D30
  1

  0
LINE
  5
44F6
  8
250
  6
CONTINUOUS
 10
-6.9999999999998863
 20
-55.314282127438958
 30
0.0
 11
-6.9999999999998881
 21
-77.999999999999943
 31
0.0
  0
LINE
  5
44F7
  8
250
  6
CONTINUOUS
 10
7.0000000000001128
 20
-55.314282127438958
 30
0.0
 11
7.000000000000111
 21
-77.999999999999943
 31
0.0
  0
LINE
  5
44F8
  8
250
  6
CONTINUOUS
 10
-4.9999999999998881
 20
-76.999999999999943
 30
0.0
 11
5.000000000000111
 21
-76.999999999999943
 31
0.0
  0
INSERT
  5
44F9
  8
250
  6
CONTINUOUS
  2
_OPEN
 10
-6.9999999999998881
 20
-76.999999999999943
 30
0.0
 41
2.0
 42
2.0
 43
2.0
 50
180.0
  0
INSERT
  5
44FA
  8
250
  6
CONTINUOUS
  2
_OPEN
 10
7.000000000000111
 20
-76.999999999999943
 30
0.0
 41
2.0
 42
2.0
 43
2.0
  0
INSERT
  5
44FB
  8
240
  2
*U74
 10
0.0
 20
0.0
 30
0.0
  0
POINT
  5
44FC
  8
DEFPOINTS
  6
CONTINUOUS
 62
     0
 10
-6.9999999999998863
 20
-54.814282127438958
 30
0.0
  0
POINT
  5
44FD
  8
DEFPOINTS
  6
CONTINUOUS
 62
     0
 10
7.0000000000001128
 20
-54.814282127438958
 30
0.0
  0
POINT
  5
44FE
  8
DEFPOINTS
  6
CONTINUOUS
 62
     0
 10
7.000000000000111
 20
-76.999999999999943
 30
0.0
  0
ENDBLK
  5
4478
  8
0
  0
BLOCK
  8
0
  2
*D31
 70
     1
 10
0.0
 20
0.0
 30
0.0
  3
*D31
  1

  0
LINE
  5
44FF
  8
250
  6
CONTINUOUS
 10
-10.42848648045941
 20
-55.014282127438953
 30
0.0
 11
-28.99999999999995
 21
-55.014282127438939
 31
0.0
  0
LINE
  5
4500
  8
250
  6
CONTINUOUS
 10
-10.42848648045941
 20
-43.014282127438918
 30
0.0
 11
-28.99999999999995
 21
-43.014282127438911
 31
0.0
  0
LINE
  5
4501
  8
250
  6
CONTINUOUS
 10
-27.99999999999995
 20
-53.014282127438939
 30
0.0
 11
-27.99999999999995
 21
-45.014282127438911
 31
0.0
  0
INSERT
  5
4502
  8
250
  6
CONTINUOUS
  2
_OPEN
 10
-27.99999999999995
 20
-55.014282127438939
 30
0.0
 41
2.0
 42
2.0
 43
2.0
 50
270.0
  0
INSERT
  5
4503
  8
250
  6
CONTINUOUS
  2
_OPEN
 10
-27.99999999999995
 20
-43.014282127438911
 30
0.0
 41
2.0
 42
2.0
 43
2.0
 50
90.0
  0
INSERT
  5
4504
  8
240
  2
*U75
 10
0.0
 20
0.0
 30
0.0
  0
POINT
  5
4505
  8
DEFPOINTS
  6
CONTINUOUS
 62
     0
 10
-9.9284864804594122
 20
-55.014282127438953
 30
0.0
  0
POINT
  5
4506
  8
DEFPOINTS
  6
CONTINUOUS
 62
     0
 10
-9.9284864804594122
 20
-43.014282127438918
 30
0.0
  0
POINT
  5
4507
  8
DEFPOINTS
  6
CONTINUOUS
 62
     0
 10
-27.99999999999995
 20
-43.014282127438911
 30
0.0
  0
ENDBLK
  5
4484
  8
0
  0
BLOCK
  8
0
  2
*D32
 70
     1
 10
0.0
 20
0.0
 30
0.0
  3
*D32
  1

  0
LINE
  5
4508
  8
250
 10
25.611626201504961
 20
-36.514282127439031
 30
0.0
 11
24.94754411241059
 21
-44.486671667529379
 31
0.0
  0
INSERT
  5
4509
  8
250
  2
_OPEN
 10
24.781523590136992
 20
-46.479769052552001
 30
0.0
 41
2.0
 42
2.0
 43
2.0
 50
265.23838318455222
  0
INSERT
  5
450A
  8
240
  2
*U76
 10
0.0
 20
0.0
 30
0.0
  0
POINT
  5
450B
  8
DEFPOINTS
 62
     0
 10
24.781523590136992
 20
-46.479769052552001
 30
0.0
  0
POINT
  5
450C
  8
DEFPOINTS
 62
     0
 10
25.611626201504961
 20
-36.514282127439031
 30
0.0
  0
ENDBLK
  5
4490
  8
0
  0
BLOCK
  8
0
  2
*D33
 70
     1
 10
0.0
 20
0.0
 30
0.0
  3
*D33
  1

  0
LINE
  5
450D
  8
250
  6
CONTINUOUS
 10
-10.999999999999879
 20
-55.514282127438939
 30
0.0
 11
-10.999999999999879
 21
-84.999999999999943
 31
0.0
  0
LINE
  5
450E
  8
250
  6
CONTINUOUS
 10
11.00000000000014
 20
-55.514282127438939
 30
0.0
 11
11.00000000000014
 21
-84.999999999999943
 31
0.0
  0
LINE
  5
450F
  8
250
  6
CONTINUOUS
 10
-8.7699999999998877
 20
-83.999999999999943
 30
0.0
 11
8.7700000000001381
 21
-83.999999999999943
 31
0.0
  0
INSERT
  5
4510
  8
250
  6
CONTINUOUS
  2
_OPEN
 10
-10.999999999999879
 20
-83.999999999999943
 30
0.0
 41
2.2299999999999991
 42
2.2299999999999991
 43
2.2299999999999991
 50
180.0
  0
INSERT
  5
4511
  8
250
  6
CONTINUOUS
  2
_OPEN
 10
11.00000000000014
 20
-83.999999999999943
 30
0.0
 41
2.2299999999999991
 42
2.2299999999999991
 43
2.2299999999999991
  0
INSERT
  5
4512
  8
240
  2
*U77
 10
0.0
 20
0.0
 30
0.0
  0
POINT
  5
4513
  8
DEFPOINTS
  6
CONTINUOUS
 62
     0
 10
-10.999999999999879
 20
-55.014282127438953
 30
0.0
  0
POINT
  5
4514
  8
DEFPOINTS
  6
CONTINUOUS
 62
     0
 10
11.00000000000014
 20
-55.014282127438953
 30
0.0
  0
POINT
  5
4515
  8
DEFPOINTS
  6
CONTINUOUS
 62
     0
 10
11.00000000000014
 20
-83.999999999999943
 30
0.0
  0
ENDBLK
  5
4498
  8
0
  0
BLOCK
  8
0
  2
*D34
 70
     1
 10
0.0
 20
0.0
 30
0.0
  3
*D34
  1

  0
LINE
  5
4516
  8
250
  6
CONTINUOUS
 10
81.249297416159948
 20
-52.932711489217539
 30
0.0
 11
86.527905114729137
 21
-58.89517562264291
 31
0.0
  0
LINE
  5
4517
  8
250
  6
CONTINUOUS
 10
79.108246407405886
 20
-50.514282127438953
 30
0.0
 11
79.771110496803402
 21
-51.263021867927662
 31
0.0
  0
INSERT
  5
4518
  8
250
  6
CONTINUOUS
  2
_OPEN
 10
79.771110496803402
 20
-51.263021867927662
 30
0.0
 41
2.2299999999999991
 42
2.2299999999999991
 43
2.2299999999999991
 50
131.51867205981881
  0
INSERT
  5
4519
  8
240
  2
*U78
 10
0.0
 20
0.0
 30
0.0
  0
POINT
  5
451A
  8
DEFPOINTS
  6
CONTINUOUS
 62
     0
 10
79.771110496803402
 20
-51.263021867927662
 30
0.0
  0
POINT
  5
451B
  8
DEFPOINTS
  6
CONTINUOUS
 62
     0
 10
79.108246407405886
 20
-50.514282127438953
 30
0.0
  0
ENDBLK
  5
44A4
  8
0
  0
BLOCK
  8
0
  2
*D35
 70
     1
 10
0.0
 20
0.0
 30
0.0
  3
*D35
  1

  0
LINE
  5
451C
  8
250
  6
CONTINUOUS
 10
80.800000000000097
 20
-48.514282127438918
 30
0.0
 11
99.011144662119293
 21
-48.514282127438918
 31
0.0
  0
LINE
  5
451D
  8
250
  6
CONTINUOUS
 10
80.800000000000097
 20
-49.514282127438911
 30
0.0
 11
99.011144662119293
 21
-49.514282127438911
 31
0.0
  0
LINE
  5
451E
  8
250
  6
CONTINUOUS
 10
98.011144662119293
 20
-46.284282127438921
 30
0.0
 11
98.011144662119293
 21
-44.05428212743891
 31
0.0
  0
LINE
  5
451F
  8
250
  6
CONTINUOUS
 10
98.011144662119293
 20
-51.744282127438908
 30
0.0
 11
98.011144662119293
 21
-67.334282127438897
 31
0.0
  0
LINE
  5
4520
  8
250
  6
CONTINUOUS
 10
98.011144662119293
 20
-48.514282127438918
 30
0.0
 11
98.011144662119293
 21
-49.514282127438911
 31
0.0
  0
INSERT
  5
4521
  8
250
  6
CONTINUOUS
  2
_OPEN
 10
98.011144662119293
 20
-48.514282127438918
 30
0.0
 41
2.2299999999999991
 42
2.2299999999999991
 43
2.2299999999999991
 50
270.0
  0
INSERT
  5
4522
  8
250
  6
CONTINUOUS
  2
_OPEN
 10
98.011144662119293
 20
-49.514282127438911
 30
0.0
 41
2.2299999999999991
 42
2.2299999999999991
 43
2.2299999999999991
 50
90.0
  0
INSERT
  5
4523
  8
240
  2
*U79
 10
0.0
 20
0.0
 30
0.0
  0
POINT
  5
4524
  8
DEFPOINTS
  6
CONTINUOUS
 62
     0
 10
80.300000000000097
 20
-48.514282127438918
 30
0.0
  0
POINT
  5
4525
  8
DEFPOINTS
  6
CONTINUOUS
 62
     0
 10
80.300000000000097
 20
-49.514282127438911
 30
0.0
  0
POINT
  5
4526
  8
DEFPOINTS
  6
CONTINUOUS
 62
     0
 10
98.011144662119293
 20
-49.514282127438911
 30
0.0
  0
ENDBLK
  5
44AD
  8
0
  0
BLOCK
  8
0
  2
*D36
 70
     1
 10
0.0
 20
0.0
 30
0.0
  3
*D36
  1

  0
LINE
  5
4527
  8
250
  6
CONTINUOUS
 10
80.743608649856526
 20
-44.728875454084658
 30
0.0
 11
84.775476964835519
 21
-37.861655079839629
 31
0.0
  0
LINE
  5
4528
  8
250
  6
CONTINUOUS
 10
79.108246407405872
 20
-47.514282127438932
 30
0.0
 11
79.614550507235776
 21
-46.651927120208541
 31
0.0
  0
INSERT
  5
4529
  8
250
  6
CONTINUOUS
  2
_OPEN
 10
79.614550507235776
 20
-46.651927120208541
 30
0.0
 41
2.2299999999999991
 42
2.2299999999999991
 43
2.2299999999999991
 50
239.58204026167479
  0
INSERT
  5
452A
  8
240
  2
*U80
 10
0.0
 20
0.0
 30
0.0
  0
POINT
  5
452B
  8
DEFPOINTS
  6
CONTINUOUS
 62
     0
 10
79.614550507235776
 20
-46.651927120208541
 30
0.0
  0
POINT
  5
452C
  8
DEFPOINTS
  6
CONTINUOUS
 62
     0
 10
79.108246407405872
 20
-47.514282127438932
 30
0.0
  0
ENDBLK
  5
44BB
  8
0
  0
BLOCK
  8
0
  2
*D37
 70
     1
 10
0.0
 20
0.0
 30
0.0
  3
*D37
  1

  0
LINE
  5
452D
  8
250
  6
CONTINUOUS
 10
11.32502328721209
 20
-44.835206116401757
 30
0.0
 11
4.1612001251114172
 21
-43.955599235057193
 31
0.0
  0
LINE
  5
452E
  8
250
  6
CONTINUOUS
 10
11.37216938573623
 20
-53.187569325470463
 30
0.0
 11
4.1612001251113986
 21
-54.072965019820593
 31
0.0
  0
ARC
  5
452F
  8
250
  6
CONTINUOUS
 10
45.360866069937131
 20
-49.014282127438968
 30
0.0
 40
40.5090682450342
 50
176.1544968222756
 51
183.84550317772411
  0
INSERT
  5
4530
  8
250
  6
CONTINUOUS
  2
_OPEN
 10
5.1537462767527389
 20
-44.07746857846233
 30
0.0
 41
2.2299999999999991
 42
2.2299999999999991
 43
2.2299999999999991
 50
84.577248411137845
  0
INSERT
  5
4531
  8
250
  6
CONTINUOUS
  2
_OPEN
 10
5.1537462767527229
 20
-53.951095676415449
 30
0.0
 41
2.2299999999999991
 42
2.2299999999999991
 43
2.2299999999999991
 50
275.42275158886201
  0
INSERT
  5
4532
  8
240
  2
*U81
 10
0.0
 20
0.0
 30
0.0
  0
POINT
  5
4533
  8
DEFPOINTS
  6
CONTINUOUS
 62
     0
 10
4.8853847728480364
 20
-50.66353160821194
 30
0.0
  0
POINT
  5
4534
  8
DEFPOINTS
  6
CONTINUOUS
 62
     0
 10
24.39293276745364
 20
-51.588820611025717
 30
0.0
  0
POINT
  5
4535
  8
DEFPOINTS
  6
CONTINUOUS
 62
     0
 10
24.392932767453608
 20
-46.439743643852118
 30
0.0
  0
POINT
  5
4536
  8
DEFPOINTS
  6
CONTINUOUS
 62
     0
 10
11.82129636303276
 20
-44.89614078810434
 30
0.0
  0
POINT
  5
4537
  8
DEFPOINTS
  6
CONTINUOUS
 62
     0
 10
11.868442461556899
 20
-53.126634653767901
 30
0.0
  0
ENDBLK
  5
44C4
  8
0
  0
BLOCK
  8
0
  2
*D38
 70
     1
 10
0.0
 20
0.0
 30
0.0
  3
*D38
  1

  0
LINE
  5
4538
  8
250
  6
CONTINUOUS
 10
-13.923453355391111
 20
-45.08996281267229
 30
0.0
 11
-44.436162623395859
 21
-38.699343131501301
 31
0.0
  0
LINE
  5
4539
  8
250
  6
CONTINUOUS
 10
4.813636363636931
 20
-49.01428212743884
 30
0.0
 11
-11.74081107783508
 21
-45.547098118927501
 31
0.0
  0
INSERT
  5
453A
  8
250
  6
CONTINUOUS
  2
_OPEN
 10
-11.74081107783508
 20
-45.547098118927501
 30
0.0
 41
2.2299999999999991
 42
2.2299999999999991
 43
2.2299999999999991
 50
348.17088667195111
  0
INSERT
  5
453B
  8
240
  2
*U82
 10
0.0
 20
0.0
 30
0.0
  0
POINT
  5
453C
  8
DEFPOINTS
  6
CONTINUOUS
 62
     0
 10
-11.74081107783508
 20
-45.547098118927501
 30
0.0
  0
POINT
  5
453D
  8
DEFPOINTS
  6
CONTINUOUS
 62
     0
 10
4.813636363636931
 20
-49.01428212743884
 30
0.0
  0
ENDBLK
  5
44D2
  8
0
  0
BLOCK
  8
0
  2
*D39
 70
     1
 10
0.0
 20
0.0
 30
0.0
  3
*D39
  1

  0
LINE
  5
453E
  8
250
  6
CONTINUOUS
 10
-12.086109418261
 20
-56.556906530527961
 30
0.0
 11
-19.469074770220189
 21
-66.968174483546392
 31
0.0
  0
LINE
  5
453F
  8
250
  6
CONTINUOUS
 10
-9.9284864804593553
 20
-53.514282127438932
 30
0.0
 11
-10.796163265098119
 21
-54.73785762465976
 31
0.0
  0
INSERT
  5
4540
  8
250
  6
CONTINUOUS
  2
_OPEN
 10
-10.796163265098119
 20
-54.73785762465976
 30
0.0
 41
2.2299999999999991
 42
2.2299999999999991
 43
2.2299999999999991
 50
54.658318848217789
  0
INSERT
  5
4541
  8
240
  2
*U83
 10
0.0
 20
0.0
 30
0.0
  0
POINT
  5
4542
  8
DEFPOINTS
  6
CONTINUOUS
 62
     0
 10
-10.796163265098119
 20
-54.73785762465976
 30
0.0
  0
POINT
  5
4543
  8
DEFPOINTS
  6
CONTINUOUS
 62
     0
 10
-9.9284864804593553
 20
-53.514282127438932
 30
0.0
  0
ENDBLK
  5
44DB
  8
0
  0
BLOCK
  8
0
  2
*D40
 70
     1
 10
0.0
 20
0.0
 30
0.0
  3
*D40
  1

  0
LINE
  5
4544
  8
250
  6
CONTINUOUS
 10
-12.27995574145211
 20
-41.618856025013592
 30
0.0
 11
-20.326225446851272
 21
-31.711271980164138
 31
0.0
  0
LINE
  5
4545
  8
250
  6
CONTINUOUS
 10
-9.9284864804592772
 20
-44.514282127438889
 30
0.0
 11
-10.87411755056363
 21
-43.349901657294673
 31
0.0
  0
INSERT
  5
4546
  8
250
  6
CONTINUOUS
  2
_OPEN
 10
-10.87411755056363
 20
-43.349901657294673
 30
0.0
 41
2.2299999999999991
 42
2.2299999999999991
 43
2.2299999999999991
 50
309.08116883261391
  0
INSERT
  5
4547
  8
240
  2
*U84
 10
0.0
 20
0.0
 30
0.0
  0
POINT
  5
4548
  8
DEFPOINTS
  6
CONTINUOUS
 62
     0
 10
-10.87411755056363
 20
-43.349901657294673
 30
0.0
  0
POINT
  5
4549
  8
DEFPOINTS
  6
CONTINUOUS
 62
     0
 10
-9.9284864804592772
 20
-44.514282127438889
 30
0.0
  0
ENDBLK
  5
44E4
  8
0
  0
BLOCK
  8
0
  2
*D42
 70
     1
 10
0.0
 20
0.0
 30
0.0
  3
*D42
  1

  0
LINE
  5
45D3
  8
AM_5
 10
-12.099999999999969
 20
0.5
 30
0.0
 11
-12.099999999999969
 21
22.0
 31
0.0
  0
LINE
  5
45D4
  8
AM_5
 10
0.0
 20
14.85283705111271
 30
0.0
 11
0.0000000000000005
 21
22.0
 31
0.0
  0
LINE
  5
45D5
  8
AM_5
 10
-9.8699999999999708
 20
21.0
 30
0.0
 11
-2.2299999999999991
 21
21.0
 31
0.0
  0
INSERT
  5
45D6
  8
AM_5
  2
_OPEN
 10
-12.099999999999969
 20
21.0
 30
0.0
 41
2.2299999999999991
 42
2.2299999999999991
 43
2.2299999999999991
 50
180.0
  0
INSERT
  5
45D7
  8
AM_5
  2
_OPEN
 10
0.0000000000000004
 20
21.0
 30
0.0
 41
2.2299999999999991
 42
2.2299999999999991
 43
2.2299999999999991
  0
INSERT
  5
45D8
  8
240
  2
*U86
 10
0.0
 20
0.0
 30
0.0
  0
POINT
  5
45D9
  8
DEFPOINTS
 62
     0
 10
-12.099999999999969
 20
0.0
 30
0.0
  0
POINT
  5
45DA
  8
DEFPOINTS
 62
     0
 10
0.0
 20
14.35283705111271
 30
0.0
  0
POINT
  5
45DB
  8
DEFPOINTS
 62
     0
 10
0.0000000000000004
 20
21.0
 30
0.0
  0
ENDBLK
  5
455D
  8
0
  0
BLOCK
  8
0
  2
*D43
 70
     1
 10
0.0
 20
0.0
 30
0.0
  3
*D43
  1

  0
LINE
  5
45CA
  8
AM_5
 10
0.0
 20
14.85283705111271
 30
0.0
 11
0.0000000000000005
 21
22.0
 31
0.0
  0
LINE
  5
45CB
  8
AM_5
 10
80.299999999999983
 20
0.5
 30
0.0
 11
80.299999999999983
 21
22.0
 31
0.0
  0
LINE
  5
45CC
  8
AM_5
 10
2.23
 20
21.0
 30
0.0
 11
78.069999999999993
 21
21.0
 31
0.0
  0
INSERT
  5
45CD
  8
AM_5
  2
_OPEN
 10
0.0000000000000004
 20
21.0
 30
0.0
 41
2.2299999999999991
 42
2.2299999999999991
 43
2.2299999999999991
 50
180.0
  0
INSERT
  5
45CE
  8
AM_5
  2
_OPEN
 10
80.299999999999983
 20
21.0
 30
0.0
 41
2.2299999999999991
 42
2.2299999999999991
 43
2.2299999999999991
  0
INSERT
  5
45CF
  8
240
  2
*U85
 10
0.0
 20
0.0
 30
0.0
  0
POINT
  5
45D0
  8
DEFPOINTS
 62
     0
 10
0.0
 20
14.35283705111271
 30
0.0
  0
POINT
  5
45D1
  8
DEFPOINTS
 62
     0
 10
80.299999999999983
 20
0.0
 30
0.0
  0
POINT
  5
45D2
  8
DEFPOINTS
 62
     0
 10
80.299999999999983
 20
21.0
 30
0.0
  0
ENDBLK
  5
4586
  8
0
  0
BLOCK
  8
0
  2
*D44
 70
     1
 10
0.0
 20
0.0
 30
0.0
  3
*D44
  1

  0
LINE
  5
45E5
  8
AM_5
 10
-12.099999999999969
 20
0.5
 30
0.0
 11
-12.099999999999969
 21
29.0
 31
0.0
  0
LINE
  5
45E6
  8
AM_5
 10
80.299999999999983
 20
0.5
 30
0.0
 11
80.299999999999983
 21
29.0
 31
0.0
  0
LINE
  5
45E7
  8
AM_5
 10
-9.8699999999999708
 20
28.0
 30
0.0
 11
78.069999999999993
 21
28.0
 31
0.0
  0
INSERT
  5
45E8
  8
AM_5
  2
_OPEN
 10
-12.099999999999969
 20
28.0
 30
0.0
 41
2.2299999999999991
 42
2.2299999999999991
 43
2.2299999999999991
 50
180.0
  0
INSERT
  5
45E9
  8
AM_5
  2
_OPEN
 10
80.299999999999983
 20
28.0
 30
0.0
 41
2.2299999999999991
 42
2.2299999999999991
 43
2.2299999999999991
  0
INSERT
  5
45EA
  8
240
  2
*U87
 10
0.0
 20
0.0
 30
0.0
  0
POINT
  5
45EB
  8
DEFPOINTS
 62
     0
 10
-12.099999999999969
 20
0.0
 30
0.0
  0
POINT
  5
45EC
  8
DEFPOINTS
 62
     0
 10
80.299999999999983
 20
0.0
 30
0.0
  0
POINT
  5
45ED
  8
DEFPOINTS
 62
     0
 10
80.299999999999983
 20
28.0
 30
0.0
  0
ENDBLK
  5
45A5
  8
0
  0
BLOCK
  8
0
  2
*D45
 70
     1
 10
0.0
 20
0.0
 30
0.0
  3
*D45
  1

  0
LINE
  5
4628
  8
AM_5
 10
-4.9999999999998836
 20
55.485717872561082
 30
0.0
 11
-4.9999999999998828
 21
64.0
 31
0.0
  0
LINE
  5
4629
  8
AM_5
 10
5.0000000000001128
 20
55.485717872561082
 30
0.0
 11
5.0000000000001137
 21
64.0
 31
0.0
  0
LINE
  5
462A
  8
AM_5
 10
-2.7699999999998828
 20
63.0
 30
0.0
 11
2.7700000000001141
 21
63.0
 31
0.0
  0
INSERT
  5
462B
  8
AM_5
  2
_OPEN
 10
-4.9999999999998828
 20
63.0
 30
0.0
 41
2.2299999999999991
 42
2.2299999999999991
 43
2.2299999999999991
 50
180.0
  0
INSERT
  5
462C
  8
AM_5
  2
_OPEN
 10
5.0000000000001137
 20
63.0
 30
0.0
 41
2.2299999999999991
 42
2.2299999999999991
 43
2.2299999999999991
  0
INSERT
  5
462D
  8
240
  2
*U88
 10
0.0
 20
0.0
 30
0.0
  0
POINT
  5
462E
  8
DEFPOINTS
 62
     0
 10
-4.9999999999998836
 20
54.985717872561082
 30
0.0
  0
POINT
  5
462F
  8
DEFPOINTS
 62
     0
 10
5.0000000000001128
 20
54.985717872561082
 30
0.0
  0
POINT
  5
4630
  8
DEFPOINTS
 62
     0
 10
5.0000000000001137
 20
63.0
 30
0.0
  0
ENDBLK
  5
45F1
  8
0
  0
BLOCK
  8
0
  2
_ACMFILLEDHALF
 70
     0
 10
0.0
 20
0.0
 30
0.0
  3
_ACMFILLEDHALF
  1

  0
TRACE
  5
46D2
  8
240
 62
     0
 10
-0.8
 20
0.0
 30
0.0
 11
-1.0
 21
0.166666666
 31
0.0
 12
0.0
 22
0.0
 32
0.0
 13
0.0
 23
0.0
 33
0.0
  0
LINE
  5
46D3
  8
240
 62
     0
 10
-1.0
 20
0.0
 30
0.0
 11
-0.8
 21
0.0
 31
0.0
  0
ENDBLK
  5
46D4
  8
0
  0
BLOCK
  8
0
  2
*U48
 70
     1
 10
0.0
 20
0.0
 30
0.0
  3
*U48
  1

  0
TEXT
  5
47FF
  8
250
 62
    40
 10
171.06666666666669
 20
64.000000000000014
 30
0.0
 40
2.7999999999999989
  1
\U+220522
  0
ENDBLK
  5
4801
  8
0
  0
BLOCK
  8
0
  2
*U49
 70
     1
 10
0.0
 20
0.0
 30
0.0
  3
*U49
  1

  0
TEXT
  5
4803
  8
250
 62
    40
 10
258.78556065105738
 20
92.711051099995274
 30
0.0
 40
2.7999999999999989
  1
R1
 50
311.51867205981893
  0
ENDBLK
  5
4805
  8
0
  0
BLOCK
  8
0
  2
*U50
 70
     1
 10
0.0
 20
0.0
 30
0.0
  3
*U50
  1

  0
TEXT
  5
4807
  8
250
 62
    40
 10
272.01114466211931
 20
80.292384539227726
 30
0.0
 40
2.7999999999999989
  1
バリ厚1
 50
90.0
  0
ENDBLK
  5
4809
  8
0
  0
BLOCK
  8
0
  2
*U51
 70
     1
 10
0.0
 20
0.0
 30
0.0
  3
*U51
  1

  0
TEXT
  5
480B
  8
250
 62
    40
 10
256.246587031834
 20
105.10291264857661
 30
0.0
 40
2.7999999999999989
  1
R1
 50
59.58204026167455
  0
ENDBLK
  5
480D
  8
0
  0
BLOCK
  8
0
  2
*U52
 70
     1
 10
0.0
 20
0.0
 30
0.0
  3
*U52
  1

  0
TEXT
  5
480F
  8
250
 62
    40
 10
178.7143707980733
 20
97.622154753500183
 30
0.0
 40
2.7999999999999989
  1
14\U+00B0
 50
85.817531648454946
  0
ENDBLK
  5
4811
  8
0
  0
BLOCK
  8
0
  2
*U53
 70
     1
 10
0.0
 20
0.0
 30
0.0
  3
*U53
  1

  0
TEXT
  5
4813
  8
250
 62
    40
 10
131.47157911200949
 20
110.35827265371719
 30
0.0
 40
2.7999999999999989
  1
(R16.914)
 50
348.17088667195111
  0
ENDBLK
  5
4815
  8
0
  0
BLOCK
  8
0
  2
*U54
 70
     1
 10
0.0
 20
0.0
 30
0.0
  3
*U54
  1

  0
TEXT
  5
4817
  8
250
 62
    40
 10
154.9851521201868
 20
80.990944638681412
 30
0.0
 40
2.7999999999999989
  1
R1.5
 50
54.658318848217789
  0
ENDBLK
  5
4819
  8
0
  0
BLOCK
  8
0
  2
*U55
 70
     1
 10
0.0
 20
0.0
 30
0.0
  3
*U55
  1

  0
TEXT
  5
481B
  8
250
 62
    40
 10
155.7442245328329
 20
115.5568970314161
 30
0.0
 40
2.7999999999999989
  1
R1.5
 50
309.08116883261368
  0
ENDBLK
  5
481D
  8
0
  0
BLOCK
  8
0
  2
*U56
 70
     1
 10
0.0
 20
0.0
 30
0.0
  3
*U56
  1

  0
TEXT
  5
481F
  8
250
 62
    40
 10
279.0
 20
93.692384539227746
 30
0.0
 40
2.7999999999999989
  1
5
 50
90.0
  0
TEXT
  5
4820
  8
250
 62
    40
 10
276.7600000000001
 20
96.039051205894424
 30
0.0
 40
1.679999999999999
  1
+0.5
 50
90.0
  0
TEXT
  5
4821
  8
250
 62
    40
 10
279.0
 20
96.359051205894417
 30
0.0
 40
1.679999999999999
  1
 0
 50
90.0
  0
ENDBLK
  5
4823
  8
0
  0
BLOCK
  8
0
  2
*U57
 70
     1
 10
0.0
 20
0.0
 30
0.0
  3
*U57
  1

  0
TEXT
  5
4825
  8
250
 62
    40
 10
166.50666666666669
 20
70.999999999999986
 30
0.0
 40
2.7999999999999989
  1
\U+220514
  0
TEXT
  5
4826
  8
250
 62
    40
 10
174.0533333333334
 20
73.239999999999981
 30
0.0
 40
1.679999999999999
  1
-0.009
  0
TEXT
  5
4827
  8
250
 62
    40
 10
174.0533333333334
 20
70.999999999999972
 30
0.0
 40
1.679999999999999
  1
-0.020
  0
ENDBLK
  5
4829
  8
0
  0
BLOCK
  8
0
  2
*U58
 70
     1
 10
0.0
 20
0.0
 30
0.0
  3
*U58
  1

  0
TEXT
  5
482B
  8
250
 62
    40
 10
145.99999999999989
 20
92.159051205894386
 30
0.0
 40
2.7999999999999989
  1
12
 50
90.0
  0
TEXT
  5
482C
  8
250
 62
    40
 10
143.75999999999991
 20
97.172384539227707
 30
0.0
 40
1.679999999999999
  1
+0.5
 50
90.0
  0
TEXT
  5
482D
  8
250
 62
    40
 10
145.99999999999989
 20
97.492384539227714
 30
0.0
 40
1.679999999999999
  1
 0
 50
90.0
  0
ENDBLK
  5
482F
  8
0
  0
BLOCK
  8
0
  2
*U59
 70
     1
 10
0.0
 20
0.0
 30
0.0
  3
*U59
  1

  0
TEXT
  5
4831
  8
250
 62
    40
 10
198.93992738508089
 20
102.46346543460579
 30
0.0
 40
2.7999999999999989
  1
R10
 50
85.238383184552234
  0
ENDBLK
  5
4833
  8
0
  0
BLOCK
  8
0
  2
*U60
 70
     1
 10
0.0
 20
0.0
 30
0.0
  3
*U60
  1

  0
TEXT
  5
4835
  8
250
 62
    40
 10
25.981544588611769
 20
-54.63972462899121
 30
0.0
 40
2.7999999999999989
  1
R10
 50
274.68051340812087
  7
YOKO
  0
ENDBLK
  5
4837
  8
0
  0
BLOCK
  8
0
  2
*U61
 70
     1
 10
0.0
 20
0.0
 30
0.0
  3
*U61
  1

  0
INSERT
  5
4839
  8
250
  6
CONTINUOUS
  2
_OPEN
 10
24.795630777990059
 20
-51.547630158557752
 30
0.0
 41
2.0
 42
2.0
 43
2.0
 50
94.680513408120916
  0
POLYLINE
  5
483A
  8
250
  6
CONTINUOUS
 66
     1
 10
0.0
 20
0.0
 30
0.0
  0
VERTEX
  5
483B
  8
250
  6
CONTINUOUS
 10
24.958829862693069
 20
-53.540960552333978
 30
0.0
  0
VERTEX
  5
483C
  8
250
  6
CONTINUOUS
 10
25.809485930798189
 20
-63.930961196576732
 30
0.0
  0
VERTEX
  5
483D
  8
250
  6
CONTINUOUS
 10
25.760181180672671
 20
-63.934997903244692
 30
0.0
  0
SEQEND
  5
483E
  8
250
  6
CONTINUOUS
  0
ENDBLK
  5
4840
  8
0
  0
BLOCK
  8
0
  2
*U62
 70
     1
 10
0.0
 20
0.0
 30
0.0
  3
*U62
  1

  0
INSERT
  5
4842
  8
2
  6
CONTINUOUS
 62
     3
  2
_OPEN
 10
-7.077796867529031
 20
-43.136485259909762
 30
0.0
 41
2.0
 42
2.0
 43
2.0
 50
243.96159817288961
  0
POLYLINE
  5
4843
  8
2
  6
CONTINUOUS
 62
     3
 66
     1
 10
0.0
 20
0.0
 30
0.0
  0
VERTEX
  5
4844
  8
2
  6
CONTINUOUS
 62
     3
 10
-6.1998499585393239
 20
-41.339485197306693
 30
0.0
  0
VERTEX
  5
4845
  8
2
  6
CONTINUOUS
 62
     3
 10
-3.515821497035688
 20
-35.845759706660893
 30
0.0
  0
SEQEND
  5
4846
  8
2
  6
CONTINUOUS
 62
     3
  0
ENDBLK
  5
4848
  8
0
  0
BLOCK
  8
0
  2
*U63
 70
     1
 10
0.0
 20
0.0
 30
0.0
  3
*U63
  1

  0
TEXT
  5
484A
  8
2
 62
    40
 10
-3.3036673892997319
 20
-35.482936349914382
 30
0.0
 40
2.7999999999999989
  1
両側C0.2
  7
YOKO
  0
ENDBLK
  5
484C
  8
0
  0
BLOCK
  8
0
  2
*U64
 70
     1
 10
0.0
 20
0.0
 30
0.0
  3
*U64
  1

  0
TEXT
  5
484E
  8
250
 62
    40
 10
15.94857506123277
 20
-60.650244468605692
 30
0.0
 40
2.7999999999999989
  1
R0.5
 50
293.51539015611218
  7
YOKO
  0
ENDBLK
  5
4850
  8
0
  0
BLOCK
  8
0
  2
*U65
 70
     1
 10
0.0
 20
0.0
 30
0.0
  3
*U65
  1

  0
INSERT
  5
4852
  8
250
  6
CONTINUOUS
  2
_OPEN
 10
11.78131358159564
 20
-53.158115944310786
 30
0.0
 41
2.0
 42
2.0
 43
2.0
 50
113.5153901561122
  0
POLYLINE
  5
4853
  8
250
  6
CONTINUOUS
 66
     1
 10
0.0
 20
0.0
 30
0.0
  0
VERTEX
  5
4854
  8
250
  6
CONTINUOUS
 10
12.579304351659481
 20
-54.992021811822241
 30
0.0
  0
VERTEX
  5
4855
  8
250
  6
CONTINUOUS
 10
18.710123217141529
 20
-69.081589149998294
 30
0.0
  0
VERTEX
  5
4856
  8
250
  6
CONTINUOUS
 10
18.73816986934759
 20
-69.069385159603755
 30
0.0
  0
SEQEND
  5
4857
  8
250
  6
CONTINUOUS
  0
ENDBLK
  5
4859
  8
0
  0
BLOCK
  8
0
  2
*U66
 70
     1
 10
0.0
 20
0.0
 30
0.0
  3
*U66
  1

  0
INSERT
  5
485B
  8
250
  6
CONTINUOUS
  2
_OPEN
 10
11.72275574877156
 20
-44.840232682246118
 30
0.0
 41
2.0
 42
2.0
 43
2.0
 50
238.9282518871226
  0
POLYLINE
  5
485C
  8
250
  6
CONTINUOUS
 66
     1
 10
0.0
 20
0.0
 30
0.0
  0
VERTEX
  5
485D
  8
250
  6
CONTINUOUS
 10
12.754977850131709
 20
-43.127189328018439
 30
0.0
  0
VERTEX
  5
485E
  8
250
  6
CONTINUOUS
 10
21.184600013442321
 20
-29.137653348812371
 30
0.0
  0
VERTEX
  5
485F
  8
250
  6
CONTINUOUS
 10
21.227652998562181
 20
-29.163595624389082
 30
0.0
  0
SEQEND
  5
4860
  8
250
  6
CONTINUOUS
  0
ENDBLK
  5
4862
  8
0
  0
BLOCK
  8
0
  2
*U67
 70
     1
 10
0.0
 20
0.0
 30
0.0
  3
*U67
  1

  0
TEXT
  5
4864
  8
250
 62
    40
 10
15.195863497247471
 20
-37.509616674848431
 30
0.0
 40
2.7999999999999989
  1
R0.5
 50
58.928251887122549
  7
YOKO
  0
ENDBLK
  5
4866
  8
0
  0
BLOCK
  8
0
  2
*U68
 70
     1
 10
0.0
 20
0.0
 30
0.0
  3
*U68
  1

  0
INSERT
  5
4868
  8
2
  6
CONTINUOUS
 62
     3
  2
_OPEN
 10
13.99814640201526
 20
5.3665784530508631
 30
0.0
 41
2.0
 42
2.0
 43
2.0
 50
230.95735216037889
  0
POLYLINE
  5
4869
  8
2
  6
CONTINUOUS
 62
     3
 66
     1
 10
0.0
 20
0.0
 30
0.0
  0
VERTEX
  5
486A
  8
2
  6
CONTINUOUS
 62
     3
 10
15.25794376509697
 20
6.919933082223598
 30
0.0
  0
VERTEX
  5
486B
  8
2
  6
CONTINUOUS
 62
     3
 10
21.00000000000006
 20
14.00000000000008
 30
0.0
  0
SEQEND
  5
486C
  8
2
  6
CONTINUOUS
 62
     3
  0
ENDBLK
  5
486E
  8
0
  0
BLOCK
  8
0
  2
*U69
 70
     1
 10
0.0
 20
0.0
 30
0.0
  3
*U69
  1

  0
TEXT
  5
4870
  8
2
 62
    40
 10
21.65377803067361
 20
14.793542067128691
 30
0.0
 40
2.7999999999999989
  1
文字高さ2.0 浮き出し高さ0.3
  7
YOKO
  0
ENDBLK
  5
4872
  8
0
  0
BLOCK
  8
0
  2
*U70
 70
     1
 10
0.0
 20
0.0
 30
0.0
  3
*U70
  1

  0
TEXT
  5
4874
  8
250
 62
    40
 10
30.973460072376071
 20
-14.022601858110651
 30
0.0
 40
2.7999999999999989
  1
文字高さ2.0　浮き出し高さ0.3
  7
YOKO
  0
ENDBLK
  5
4876
  8
0
  0
BLOCK
  8
0
  2
*U71
 70
     1
 10
0.0
 20
0.0
 30
0.0
  3
*U71
  1

  0
INSERT
  5
4878
  8
250
  2
_OPEN
 10
22.738401020483309
 20
-1.901904571178249
 30
0.0
 41
2.0
 42
2.0
 43
2.0
 50
119.868234343956
  0
POLYLINE
  5
4879
  8
250
 66
     1
 10
0.0
 20
0.0
 30
0.0
  0
VERTEX
  5
487A
  8
250
 10
23.734415105197129
 20
-3.6362505410042472
 30
0.0
  0
VERTEX
  5
487B
  8
250
 10
30.273460072376079
 20
-15.022601858110651
 30
0.0
  0
VERTEX
  5
487C
  8
250
 10
81.566793405709461
 20
-15.022601858110651
 30
0.0
  0
SEQEND
  5
487D
  8
250
  0
ENDBLK
  5
487F
  8
0
  0
BLOCK
  8
0
  2
*U72
 70
     1
 10
0.0
 20
0.0
 30
0.0
  3
*U72
  1

  0
TEXT
  5
4881
  8
250
 62
    40
 10
75.092309414825706
 20
-69.017484643581554
 30
0.0
 40
2.7999999999999989
  1
10\U+00B0
 50
354.74634494999839
  0
ENDBLK
  5
4883
  8
0
  0
BLOCK
  8
0
  2
*U73
 70
     1
 10
0.0
 20
0.0
 30
0.0
  3
*U73
  1

  0
TEXT
  5
4885
  8
250
 62
    40
 10
104.0000000000001
 20
-53.307615460772233
 30
0.0
 40
2.7999999999999989
  1
5
 50
90.0
  0
TEXT
  5
4886
  8
250
 62
    40
 10
101.7600000000001
 20
-50.960948794105562
 30
0.0
 40
1.679999999999999
  1
+0.5
 50
90.0
  0
TEXT
  5
4887
  8
250
 62
    40
 10
104.0000000000001
 20
-50.640948794105562
 30
0.0
 40
1.679999999999999
  1
 0
 50
90.0
  0
ENDBLK
  5
4889
  8
0
  0
BLOCK
  8
0
  2
*U74
 70
     1
 10
0.0
 20
0.0
 30
0.0
  3
*U74
  1

  0
TEXT
  5
488B
  8
250
 62
    40
 10
-8.4933333333332222
 20
-75.999999999999957
 30
0.0
 40
2.7999999999999989
  1
\U+220514
  0
TEXT
  5
488C
  8
250
 62
    40
 10
-0.9466666666665549
 20
-73.759999999999962
 30
0.0
 40
1.679999999999999
  1
-0.009
  0
TEXT
  5
488D
  8
250
 62
    40
 10
-0.9466666666665549
 20
-75.999999999999972
 30
0.0
 40
1.679999999999999
  1
-0.020
  0
ENDBLK
  5
488F
  8
0
  0
BLOCK
  8
0
  2
*U75
 70
     1
 10
0.0
 20
0.0
 30
0.0
  3
*U75
  1

  0
TEXT
  5
4891
  8
250
 62
    40
 10
-28.99999999999995
 20
-54.8409487941056
 30
0.0
 40
2.7999999999999989
  1
12
 50
90.0
  0
TEXT
  5
4892
  8
250
 62
    40
 10
-31.239999999999942
 20
-49.827615460772272
 30
0.0
 40
1.679999999999999
  1
+0.5
 50
90.0
  0
TEXT
  5
4893
  8
250
 62
    40
 10
-28.99999999999995
 20
-49.507615460772271
 30
0.0
 40
1.679999999999999
  1
 0
 50
90.0
  0
ENDBLK
  5
4895
  8
0
  0
BLOCK
  8
0
  2
*U76
 70
     1
 10
0.0
 20
0.0
 30
0.0
  3
*U76
  1

  0
TEXT
  5
4897
  8
250
 62
    40
 10
23.939927385081042
 20
-44.536534565394149
 30
0.0
 40
2.7999999999999989
  1
R10
 50
85.238383184552234
  0
ENDBLK
  5
4899
  8
0
  0
BLOCK
  8
0
  2
*U77
 70
     1
 10
0.0
 20
0.0
 30
0.0
  3
*U77
  1

  0
TEXT
  5
489B
  8
250
 62
    40
 10
-3.933333333333207
 20
-82.999999999999929
 30
0.0
 40
2.7999999999999989
  1
\U+220522
  0
ENDBLK
  5
489D
  8
0
  0
BLOCK
  8
0
  2
*U78
 70
     1
 10
0.0
 20
0.0
 30
0.0
  3
*U78
  1

  0
TEXT
  5
489F
  8
250
 62
    40
 10
83.785560651057423
 20
-54.288948900004627
 30
0.0
 40
2.7999999999999989
  1
R1
 50
311.51867205981893
  0
ENDBLK
  5
48A1
  8
0
  0
BLOCK
  8
0
  2
*U79
 70
     1
 10
0.0
 20
0.0
 30
0.0
  3
*U79
  1

  0
TEXT
  5
48A3
  8
250
 62
    40
 10
97.011144662119293
 20
-66.707615460772217
 30
0.0
 40
2.7999999999999989
  1
バリ厚1
 50
90.0
  0
ENDBLK
  5
48A5
  8
0
  0
BLOCK
  8
0
  2
*U80
 70
     1
 10
0.0
 20
0.0
 30
0.0
  3
*U80
  1

  0
TEXT
  5
48A7
  8
250
 62
    40
 10
81.246587031834125
 20
-41.897087351423338
 30
0.0
 40
2.7999999999999989
  1
R1
 50
59.58204026167472
  0
ENDBLK
  5
48A9
  8
0
  0
BLOCK
  8
0
  2
*U81
 70
     1
 10
0.0
 20
0.0
 30
0.0
  3
*U81
  1

  0
TEXT
  5
48AB
  8
250
 62
    40
 10
3.7143707980734249
 20
-49.377845246499803
 30
0.0
 40
2.7999999999999989
  1
14\U+00B0
 50
85.817531648454946
  0
ENDBLK
  5
48AD
  8
0
  0
BLOCK
  8
0
  2
*U82
 70
     1
 10
0.0
 20
0.0
 30
0.0
  3
*U82
  1

  0
TEXT
  5
48AF
  8
250
 62
    40
 10
-43.528420887990357
 20
-36.641727346282657
 30
0.0
 40
2.7999999999999989
  1
(R16.914)
 50
348.17088667195111
  0
ENDBLK
  5
48B1
  8
0
  0
BLOCK
  8
0
  2
*U83
 70
     1
 10
0.0
 20
0.0
 30
0.0
  3
*U83
  1

  0
TEXT
  5
48B3
  8
250
 62
    40
 10
-20.014847879813111
 20
-66.009055361318559
 30
0.0
 40
2.7999999999999989
  1
R1.5
 50
54.658318848217789
  0
ENDBLK
  5
48B5
  8
0
  0
BLOCK
  8
0
  2
*U84
 70
     1
 10
0.0
 20
0.0
 30
0.0
  3
*U84
  1

  0
TEXT
  5
48B7
  8
250
 62
    40
 10
-19.25577546716708
 20
-31.443102968583862
 30
0.0
 40
2.7999999999999989
  1
R1.5
 50
309.08116883261391
  0
ENDBLK
  5
48B9
  8
0
  0
BLOCK
  8
0
  2
*U85
 70
     1
 10
0.0
 20
0.0
 30
0.0
  3
*U85
  1

  0
TEXT
  5
48BE
  8
AM_5
 62
    40
 10
35.483333333333341
 20
22.0
 30
0.0
 40
2.7999999999999989
  1
80.3
  0
ENDBLK
  5
48C0
  8
0
  0
BLOCK
  8
0
  2
*U86
 70
     1
 10
0.0
 20
0.0
 30
0.0
  3
*U86
  1

  0
TEXT
  5
48C2
  8
AM_5
 62
    40
 10
-10.51666666666665
 20
22.0
 30
0.0
 40
2.7999999999999989
  1
12.1
  0
ENDBLK
  5
48C4
  8
0
  0
BLOCK
  8
0
  2
*U87
 70
     1
 10
0.0
 20
0.0
 30
0.0
  3
*U87
  1

  0
TEXT
  5
48C6
  8
AM_5
 62
    40
 10
29.366666666666681
 20
29.0
 30
0.0
 40
2.7999999999999989
  1
92.4
  0
ENDBLK
  5
48C8
  8
0
  0
BLOCK
  8
0
  2
*U88
 70
     1
 10
0.0
 20
0.0
 30
0.0
  3
*U88
  1

  0
TEXT
  5
48CA
  8
AM_5
 62
    40
 10
-3.9333333333332172
 20
64.000000000000014
 30
0.0
 40
2.7999999999999989
  1
\U+220510
  0
ENDBLK
  5
48CC
  8
0
  0
ENDSEC
  0
SECTION
  2
ENTITIES
  0
LINE
  5
4354
  8
245
  6
CENTER2
 10
-13.74188623658341
 20
48.985717872561082
 30
0.0
 11
81.407795244957526
 21
48.985717872561082
 31
0.0
  0
LINE
  5
4355
  8
241
  6
CONTINUOUS
 10
-12.09999999999985
 20
49.485717872561082
 30
0.0
 11
80.300000000000097
 21
49.485717872561082
 31
0.0
  0
LINE
  5
4356
  8
241
  6
CONTINUOUS
 10
-12.09999999999985
 20
48.485717872561082
 30
0.0
 11
80.300000000000054
 21
48.485717872561082
 31
0.0
  0
LINE
  5
4357
  8
240
  6
CONTINUOUS
 10
25.611626201504979
 20
51.485717872561679
 30
0.0
 11
79.108246407405844
 21
51.485717872561061
 31
0.0
  0
LINE
  5
4358
  8
240
  6
CONTINUOUS
 10
25.611626201505011
 20
46.485717872560429
 30
0.0
 11
79.108246407405844
 21
46.485717872561111
 31
0.0
  0
LINE
  5
4359
  8
240
  6
CONTINUOUS
 10
80.300000000000097
 20
48.485717872561082
 30
0.0
 11
80.093054160418063
 21
47.312069694894149
 31
0.0
  0
LINE
  5
435A
  8
240
  6
CONTINUOUS
 10
80.300000000000097
 20
49.485717872561082
 30
0.0
 11
80.093054160418063
 21
50.659366050228023
 31
0.0
  0
ARC
  5
435B
  8
240
  6
CONTINUOUS
 10
79.108246407405844
 20
50.485717872561082
 30
0.0
 40
1.0
 50
9.9999999999985398
 51
90.0
  0
ARC
  5
435C
  8
240
  6
CONTINUOUS
 10
79.108246407405844
 20
47.485717872561082
 30
0.0
 40
1.0
 50
270.0
 51
350.00000000000142
  0
LINE
  5
435D
  8
240
  6
CONTINUOUS
 10
24.39293276745363
 20
46.411179388974567
 30
0.0
 11
11.919876602408999
 21
44.879680664632019
 31
0.0
  0
ARC
  5
435E
  8
240
  6
CONTINUOUS
 10
25.611626201505121
 20
36.485717872561082
 30
0.0
 40
10.0
 50
90.0
 51
96.999999999999375
  0
ARC
  5
435F
  8
240
  6
CONTINUOUS
 10
25.611626201505089
 20
61.485717872561082
 30
0.0
 40
10.0
 50
263.00000000000063
 51
270.0
  0
LINE
  5
4360
  8
245
  6
CENTER2
 10
0.0000000000001137
 20
58.092345609884831
 30
0.0
 11
0.0000000000001137
 21
39.252916527813959
 31
0.0
  0
LINE
  5
436A
  8
240
  6
CONTINUOUS
 10
12.403072380949
 20
53.032426098991969
 30
0.0
 11
11.91987660240903
 21
53.091755080490152
 31
0.0
  0
LINE
  5
436B
  8
240
  6
CONTINUOUS
 10
24.392932767453551
 20
51.560256356148102
 30
0.0
 11
20.962535649266641
 21
51.981456160027051
 31
0.0
  0
LINE
  5
436C
  8
240
  6
CONTINUOUS
 10
20.962535649266641
 20
51.981456160027051
 30
0.0
 11
12.403072380949
 21
53.032426098991969
 31
0.0
  0
LINE
  5
436D
  8
240
  6
CONTINUOUS
 10
-9.9284864804594122
 20
54.985717872561082
 30
0.0
 11
9.9284864804596662
 21
54.985717872561082
 31
0.0
  0
LINE
  5
436E
  8
240
  6
CONTINUOUS
 10
9.9284864804596662
 20
42.985717872561047
 30
0.0
 11
-9.9284864804594122
 21
42.985717872561047
 31
0.0
  0
ARC
  5
4371
  8
240
  6
CONTINUOUS
 10
-4.813636363636447
 20
48.985717872561061
 30
0.0
 40
16.913636363636581
 50
343.02530748026192
 51
344.67502542207859
  0
ARC
  5
4372
  8
240
  6
CONTINUOUS
 10
-4.813636363636447
 20
48.985717872561061
 30
0.0
 40
16.913636363636581
 50
15.32497457792137
 51
16.97469251973811
  0
ARC
  5
4373
  8
240
  6
CONTINUOUS
 10
11.9808112741116
 20
53.588028156310791
 30
0.0
 40
0.5
 50
195.3249745779213
 51
263.00000000000063
  0
ARC
  5
4374
  8
240
  6
CONTINUOUS
 10
11.9808112741116
 20
44.383407588811338
 30
0.0
 40
0.5
 50
97.000000000002714
 51
164.67502542207859
  0
ARC
  5
4375
  8
240
  6
CONTINUOUS
 10
4.8136363636367028
 20
48.985717872561082
 30
0.0
 40
16.913636363636591
 50
163.02530748026189
 51
178.30597847862731
  0
ARC
  5
4376
  8
240
  6
CONTINUOUS
 10
4.8136363636367028
 20
48.985717872561082
 30
0.0
 40
16.913636363636591
 50
181.6940215213726
 51
196.97469251973811
  0
ARC
  5
438B
  8
240
  6
CONTINUOUS
 10
-9.9284864804594122
 20
53.485717872561047
 30
0.0
 40
1.5
 50
90.0
 51
163.02530748026189
  0
ARC
  5
438C
  8
240
  6
CONTINUOUS
 10
-9.9284864804594122
 20
44.485717872561047
 30
0.0
 40
1.5
 50
196.97469251973811
 51
270.0
  0
ARC
  5
438F
  8
240
  6
CONTINUOUS
 10
9.9284864804596662
 20
53.485717872561047
 30
0.0
 40
1.5
 50
16.97469251973811
 51
90.0
  0
ARC
  5
4390
  8
240
  6
CONTINUOUS
 10
9.9284864804596662
 20
44.485717872561047
 30
0.0
 40
1.5
 50
270.0
 51
343.02530748026192
  0
LINE
  5
4395
  8
245
  6
CENTER2
 10
-14.73066359356176
 20
0.0
 30
0.0
 11
82.178440598962823
 21
0.0
 31
0.0
  0
LINE
  5
4396
  8
240
  6
CONTINUOUS
 10
29.763109576350161
 20
4.905425453452807
 30
0.0
 11
74.953749361858712
 21
5.299798192240103
 31
0.0
  0
LINE
  5
4397
  8
240
  6
CONTINUOUS
 10
29.763109576350221
 20
-4.9054254534527777
 30
0.0
 11
74.953749361858712
 21
-5.299798192240103
 31
0.0
  0
ARC
  5
4398
  8
240
  6
CONTINUOUS
 10
0.0000000000000284
 20
0.0
 30
0.0
 40
12.1
 50
63.586654239531477
 51
296.41334576046847
  0
CIRCLE
  5
4399
  8
241
  6
CONTINUOUS
 10
0.0000000000000284
 20
0.0
 30
0.0
 40
11.0
  0
ARC
  5
439A
  8
241
  6
CONTINUOUS
 10
0.0000000000000284
 20
0.0
 30
0.0
 40
12.1
 50
315.25991944419349
 51
48.979787660650011
  0
LINE
  5
439B
  8
241
  6
CONTINUOUS
 10
25.000000000000028
 20
5.1891236323384362
 30
0.0
 11
25.000000000000028
 21
-5.1891236323384069
 31
0.0
  0
LINE
  5
439C
  8
245
  6
CENTER2
 10
75.000000000000028
 20
6.5249757490992124
 30
0.0
 11
75.0
 21
-6.6710648180337548
 31
0.0
  0
ARC
  5
439D
  8
240
  6
CONTINUOUS
 10
75.0
 20
0.0
 30
0.0
 40
5.2999999999999989
 50
269.49999999999869
 51
90.500000000001322
  0
LINE
  5
439E
  8
245
  6
CENTER2
 10
0.0
 20
14.35283705111271
 30
0.0
 11
0.0
 21
-15.36737540688909
 31
0.0
  0
LINE
  5
43A2
  8
240
  6
CONTINUOUS
 10
20.399014255319571
 20
6.0966888405813497
 30
0.0
 11
11.893476542125541
 21
8.3757408020241257
 31
0.0
  0
LINE
  5
43A3
  8
240
  6
CONTINUOUS
 10
20.399014255319631
 20
-6.0966888405813222
 30
0.0
 11
11.89347654212585
 21
-8.3757408020240121
 31
0.0
  0
ARC
  5
43A4
  8
240
  6
CONTINUOUS
 10
29.457680833907599
 20
-39.904092760698802
 30
0.0
 40
35.0
 50
89.499999999998664
 51
105.00000000000109
  0
ARC
  5
43A5
  8
240
  6
CONTINUOUS
 10
29.457680833907581
 20
39.904092760698802
 30
0.0
 40
35.0
 50
254.99999999999881
 51
270.49999999999801
  0
ARC
  5
43A6
  8
240
  6
CONTINUOUS
 10
20.952143120713831
 20
-42.183144722141428
 30
0.0
 40
35.0
 50
105.00000000000109
 51
116.4133457604685
  0
ARC
  5
43A7
  8
240
  6
CONTINUOUS
 10
20.9521431207136
 20
42.183144722141549
 30
0.0
 40
35.0
 50
243.5866542395315
 51
254.99999999999881
  0
LINE
  5
4431
  8
241
  6
CONTINUOUS
 10
14.240649528801439
 20
2.305379137396812
 30
0.0
 11
14.16358165442943
 21
2.015601377934217
 31
0.0
  0
ARC
  5
4432
  8
241
  6
CONTINUOUS
 10
14.02342645791259
 20
1.5168451497382589
 30
0.0
 40
0.8179069092623684
 50
270.5204649316114
 51
74.598336967548775
  0
LINE
  5
4433
  8
241
  6
CONTINUOUS
 10
13.66692222654819
 20
0.6998730241321028
 30
0.0
 11
14.03085608035326
 21
0.6998730241321028
 31
0.0
  0
ARC
  5
4434
  8
241
  6
CONTINUOUS
 10
13.674352127383649
 20
1.5168449651075091
 30
0.0
 40
0.8179071611998704
 50
105.40167839913239
 51
269.4795157258805
  0
LINE
  5
4435
  8
241
  6
CONTINUOUS
 10
13.534195721149439
 20
2.015601377934217
 30
0.0
 11
13.45712877810001
 21
2.305379137396812
 31
0.0
  0
ARC
  5
4436
  8
241
  6
CONTINUOUS
 10
13.67162234018684
 20
1.516732657114658
 30
0.0
 40
0.5174515206589129
 50
105.401631139107
 51
269.47956404196049
  0
LINE
  5
4437
  8
241
  6
CONTINUOUS
 10
14.03085608035326
 20
0.9998730383813381
 30
0.0
 11
13.66692222654819
 21
0.9998730383813381
 31
0.0
  0
ARC
  5
4438
  8
241
  6
CONTINUOUS
 10
14.026154754815931
 20
1.516732968730252
 30
0.0
 40
0.5174512947506289
 50
270.52057038058098
 51
74.598329745509147
  0
LINE
  5
4439
  8
241
  6
CONTINUOUS
 10
12.856342829763889
 20
3.1777778640389438
 30
0.0
 11
14.84143547713756
 21
3.1777778640389722
 31
0.0
  0
LINE
  5
443A
  8
241
  6
CONTINUOUS
 10
12.856342829763889
 20
3.4777778200805178
 30
0.0
 11
12.856342829763889
 21
3.1777778640389438
 31
0.0
  0
LINE
  5
443B
  8
241
  6
CONTINUOUS
 10
13.72712012380361
 20
3.4777778200805178
 30
0.0
 11
12.856342829763889
 21
3.4777778200805178
 31
0.0
  0
LINE
  5
443C
  8
241
  6
CONTINUOUS
 10
12.856342829763889
 20
4.4386480003595352
 30
0.0
 11
13.72712012380361
 21
3.4777778200805178
 31
0.0
  0
LINE
  5
443D
  8
241
  6
CONTINUOUS
 10
13.07623740285635
 20
4.6409289352595797
 30
0.0
 11
12.856342829763889
 21
4.4386480003595352
 31
0.0
  0
LINE
  5
443E
  8
241
  6
CONTINUOUS
 10
13.72244581580162
 20
3.927860874682664
 30
0.0
 11
13.07623740285635
 21
4.6409289352595797
 31
0.0
  0
LINE
  5
443F
  8
241
  6
CONTINUOUS
 10
14.652260579168789
 20
4.6985489316284941
 30
0.0
 11
13.72244581580162
 21
3.927860874682664
 31
0.0
  0
LINE
  5
4440
  8
241
  6
CONTINUOUS
 10
14.84143547713756
 20
4.4668735936284341
 30
0.0
 11
14.652260579168789
 21
4.6985489316284941
 31
0.0
  0
LINE
  5
4441
  8
241
  6
CONTINUOUS
 10
13.923485763370991
 20
3.7060207687318321
 30
0.0
 11
14.84143547713756
 21
4.4668735936284341
 31
0.0
  0
LINE
  5
4442
  8
241
  6
CONTINUOUS
 10
14.13032878190279
 20
3.4777778200805178
 30
0.0
 11
13.923485763370991
 21
3.7060207687318321
 31
0.0
  0
LINE
  5
4443
  8
241
  6
CONTINUOUS
 10
14.84143547713756
 20
3.4777778200805471
 30
0.0
 11
14.13032878190279
 21
3.4777778200805178
 31
0.0
  0
LINE
  5
4444
  8
241
  6
CONTINUOUS
 10
14.84143547713756
 20
3.1777778640389722
 30
0.0
 11
14.84143547713756
 21
3.4777778200805471
 31
0.0
  0
ARC
  5
4445
  8
241
  6
CONTINUOUS
 10
14.026456181594771
 20
-1.516920630820294
 30
0.0
 40
0.5166854157874724
 50
270.48791521565022
 51
89.512084784349753
  0
LINE
  5
4446
  8
241
  6
CONTINUOUS
 10
14.03085608035326
 20
-1.000253949314355
 30
0.0
 11
13.66692222654819
 21
-1.000253949314355
 31
0.0
  0
ARC
  5
4447
  8
241
  6
CONTINUOUS
 10
13.67132074296808
 20
-1.5169206308179921
 30
0.0
 40
0.516685404019693
 50
90.487761932246002
 51
269.51223806775403
  0
LINE
  5
4448
  8
241
  6
CONTINUOUS
 10
13.66692222654819
 20
-2.0335873123258348
 30
0.0
 11
14.03085608035326
 21
-2.0335873123258348
 31
0.0
  0
LINE
  5
4449
  8
241
  6
CONTINUOUS
 10
14.03085608035326
 20
-0.7002539350651205
 30
0.0
 11
13.66692222654819
 21
-0.7002539350651205
 31
0.0
  0
ARC
  5
444A
  8
241
  6
CONTINUOUS
 10
14.0239984110737
 20
-1.516838491463147
 30
0.0
 40
0.8167775659275356
 50
270.4810613560486
 51
89.518938643951358
  0
LINE
  5
444B
  8
241
  6
CONTINUOUS
 10
13.66692222654819
 20
-2.3335872683674088
 30
0.0
 11
14.03085608035326
 21
-2.3335872683674088
 31
0.0
  0
ARC
  5
444C
  8
241
  6
CONTINUOUS
 10
13.67377989651777
 20
-1.517002765451223
 30
0.0
 40
0.816777619413342
 50
90.481061372952468
 51
269.51893862704748
  0
LINE
  5
444D
  8
241
  6
CONTINUOUS
 10
14.84143547713756
 20
-3.0277778860181281
 30
0.0
 11
14.54367116093635
 21
-3.0277778860181281
 31
0.0
  0
LINE
  5
444E
  8
241
  6
CONTINUOUS
 10
14.84143547713756
 20
-4.661111161112756
 30
0.0
 11
14.84143547713756
 21
-3.0277778860181281
 31
0.0
  0
LINE
  5
444F
  8
241
  6
CONTINUOUS
 10
12.856342829763889
 20
-4.6611111611127853
 30
0.0
 11
14.84143547713756
 21
-4.661111161112756
 31
0.0
  0
LINE
  5
4450
  8
241
  6
CONTINUOUS
 10
12.856342829763889
 20
-4.36111120507121
 30
0.0
 11
12.856342829763889
 21
-4.6611111611127853
 31
0.0
  0
LINE
  5
4451
  8
241
  6
CONTINUOUS
 10
14.54367116093635
 20
-4.3611112050711824
 30
0.0
 11
12.856342829763889
 21
-4.36111120507121
 31
0.0
  0
LINE
  5
4452
  8
241
  6
CONTINUOUS
 10
14.54367116093635
 20
-3.0277778860181281
 30
0.0
 11
14.54367116093635
 21
-4.3611112050711824
 31
0.0
  0
LINE
  5
4453
  8
241
  6
CONTINUOUS
 10
14.50711023062467
 20
-4.359380807727546
 30
0.0
 11
14.50711023062467
 21
-4.3611112050711824
 31
0.0
  0
ARC
  5
4454
  8
241
  6
CONTINUOUS
 10
-1.063685688792531
 20
-0.1709394749263993
 30
0.0
 40
17.583454448267808
 50
351.84093304870493
 51
11.91106708337848
  0
LINE
  5
4455
  8
241
  6
CONTINUOUS
 10
16.84726029634475
 20
3.6092936061322969
 30
0.0
 11
16.141181811690331
 21
3.458085004240302
 31
0.0
  0
LINE
  5
4456
  8
241
  6
CONTINUOUS
 10
17.93253980576992
 20
-3.036426845937938
 30
0.0
 11
17.047492787241929
 21
-2.830563578754635
 31
0.0
  0
LINE
  5
4457
  8
241
  6
CONTINUOUS
 10
16.427414491772652
 20
-4.1791377589106267
 30
0.0
 11
17.93253980576992
 21
-3.036426845937938
 31
0.0
  0
LINE
  5
4458
  8
241
  6
CONTINUOUS
 10
15.571814030408859
 20
-2.4873176589607899
 30
0.0
 11
16.427414491772652
 21
-4.1791377589106267
 31
0.0
  0
LINE
  5
4459
  8
241
  6
CONTINUOUS
 10
16.341786831617348
 20
-2.6664147153496449
 30
0.0
 11
15.571814030408859
 21
-2.4873176589607899
 31
0.0
  0
ARC
  5
445A
  8
241
  6
CONTINUOUS
 10
-1.074535644621164
 20
-0.1709383791843493
 30
0.0
 40
18.316154637025878
 50
351.6507611206502
 51
11.91100768470465
  0
LINE
  5
445B
  8
241
  6
CONTINUOUS
 10
16.84726029634475
 20
3.6092936061322969
 30
0.0
 11
16.814528033137321
 21
3.6092936061322969
 31
0.0
  0
CIRCLE
  5
4462
  8
241
  6
CONTINUOUS
 10
0.0
 20
0.0
 30
0.0
 40
7.0
  0
CIRCLE
  5
4551
  8
246
  6
PHANTOM2
 10
0.0
 20
0.0
 30
0.0
 40
5.0
  0
LINE
  5
4552
  8
246
  6
PHANTOM2
 10
-4.9999999999998836
 20
54.985717872561082
 30
0.0
 11
-4.9999999999998854
 21
42.985717872561047
 31
0.0
  0
LINE
  5
4553
  8
246
  6
PHANTOM2
 10
5.0000000000001119
 20
54.985717872561082
 30
0.0
 11
5.0000000000001119
 21
42.985717872561061
 31
0.0
  0
LINE
  5
4554
  8
240
  6
CONTINUOUS
 10
-12.09999999999985
 20
49.485717872561082
 30
0.0
 11
-12.09999999999985
 21
48.485717872561082
 31
0.0
  0
LINE
  5
4555
  8
240
  6
CONTINUOUS
 10
80.300000000000097
 20
49.485717872561082
 30
0.0
 11
80.300000000000097
 21
48.485717872561082
 31
0.0
  0
LINE
  5
4631
  8
250
  6
CONTINUOUS
 10
-4.9999999999998836
 20
55.485717872561082
 30
0.0
 11
-4.9999999999998828
 21
64.0
 31
0.0
  0
LINE
  5
4632
  8
250
  6
CONTINUOUS
 10
5.0000000000001128
 20
55.485717872561082
 30
0.0
 11
5.0000000000001137
 21
64.0
 31
0.0
  0
LINE
  5
4633
  8
250
  6
CONTINUOUS
 10
-2.7699999999998828
 20
63.0
 30
0.0
 11
2.7700000000001141
 21
63.0
 31
0.0
  0
LINE
  5
4637
  8
250
  6
CONTINUOUS
 10
-12.099999999999969
 20
0.5
 30
0.0
 11
-12.099999999999969
 21
29.0
 31
0.0
  0
LINE
  5
4638
  8
250
  6
CONTINUOUS
 10
80.299999999999983
 20
0.5
 30
0.0
 11
80.299999999999983
 21
29.0
 31
0.0
  0
LINE
  5
4639
  8
250
  6
CONTINUOUS
 10
-9.8699999999999708
 20
28.0
 30
0.0
 11
78.069999999999993
 21
28.0
 31
0.0
  0
LINE
  5
463D
  8
250
  6
CONTINUOUS
 10
0.0
 20
14.85283705111271
 30
0.0
 11
0.0000000000000005
 21
22.0
 31
0.0
  0
LINE
  5
463E
  8
250
  6
CONTINUOUS
 10
80.299999999999983
 20
0.5
 30
0.0
 11
80.299999999999983
 21
22.0
 31
0.0
  0
LINE
  5
463F
  8
250
  6
CONTINUOUS
 10
2.23
 20
21.0
 30
0.0
 11
78.069999999999993
 21
21.0
 31
0.0
  0
LINE
  5
4643
  8
250
  6
CONTINUOUS
 10
-12.099999999999969
 20
0.5
 30
0.0
 11
-12.099999999999969
 21
22.0
 31
0.0
  0
LINE
  5
4644
  8
250
  6
CONTINUOUS
 10
0.0
 20
14.85283705111271
 30
0.0
 11
0.0000000000000005
 21
22.0
 31
0.0
  0
LINE
  5
4645
  8
250
  6
CONTINUOUS
 10
-9.8699999999999708
 20
21.0
 30
0.0
 11
-2.2299999999999991
 21
21.0
 31
0.0
  0
TEXT
  5
4649
  8
250
  6
CONTINUOUS
 10
-3.9333333333332172
 20
64.000000000000014
 30
0.0
 40
2.7999999999999989
  1
\U+220510
  0
LINE
  5
464A
  8
250
  6
CONTINUOUS
 10
2.7700000000001141
 20
63.37166666666667
 30
0.0
 11
5.0000000000001137
 21
63.0
 31
0.0
  0
LINE
  5
464B
  8
250
  6
CONTINUOUS
 10
2.7700000000001141
 20
62.62833333333333
 30
0.0
 11
5.0000000000001137
 21
63.0
 31
0.0
  0
LINE
  5
464C
  8
250
  6
CONTINUOUS
 10
5.0000000000001137
 20
63.0
 30
0.0
 11
2.7700000000001141
 21
63.0
 31
0.0
  0
LINE
  5
464D
  8
250
  6
CONTINUOUS
 10
-2.7699999999998828
 20
62.62833333333333
 30
0.0
 11
-4.9999999999998828
 21
63.0
 31
0.0
  0
LINE
  5
464E
  8
250
  6
CONTINUOUS
 10
-2.7699999999998828
 20
63.37166666666667
 30
0.0
 11
-4.9999999999998828
 21
63.0
 31
0.0
  0
LINE
  5
464F
  8
250
  6
CONTINUOUS
 10
-4.9999999999998828
 20
63.0
 30
0.0
 11
-2.7699999999998828
 21
63.0
 31
0.0
  0
TEXT
  5
4650
  8
250
  6
CONTINUOUS
 10
29.366666666666681
 20
29.0
 30
0.0
 40
2.7999999999999989
  1
92.4
  0
LINE
  5
4651
  8
250
  6
CONTINUOUS
 10
78.069999999999993
 20
28.371666666666659
 30
0.0
 11
80.299999999999983
 21
28.0
 31
0.0
  0
LINE
  5
4652
  8
250
  6
CONTINUOUS
 10
78.069999999999993
 20
27.62833333333333
 30
0.0
 11
80.299999999999983
 21
28.0
 31
0.0
  0
LINE
  5
4653
  8
250
  6
CONTINUOUS
 10
80.299999999999983
 20
28.0
 30
0.0
 11
78.069999999999993
 21
28.0
 31
0.0
  0
LINE
  5
4654
  8
250
  6
CONTINUOUS
 10
-9.8699999999999708
 20
27.62833333333333
 30
0.0
 11
-12.099999999999969
 21
28.0
 31
0.0
  0
LINE
  5
4655
  8
250
  6
CONTINUOUS
 10
-9.8699999999999708
 20
28.371666666666659
 30
0.0
 11
-12.099999999999969
 21
28.0
 31
0.0
  0
LINE
  5
4656
  8
250
  6
CONTINUOUS
 10
-12.099999999999969
 20
28.0
 30
0.0
 11
-9.8699999999999708
 21
28.0
 31
0.0
  0
TEXT
  5
4657
  8
250
  6
CONTINUOUS
 10
35.483333333333341
 20
22.0
 30
0.0
 40
2.7999999999999989
  1
80.3
  0
LINE
  5
4658
  8
250
  6
CONTINUOUS
 10
78.069999999999993
 20
21.37166666666667
 30
0.0
 11
80.299999999999983
 21
21.0
 31
0.0
  0
LINE
  5
4659
  8
250
  6
CONTINUOUS
 10
78.069999999999993
 20
20.62833333333333
 30
0.0
 11
80.299999999999983
 21
21.0
 31
0.0
  0
LINE
  5
465A
  8
250
  6
CONTINUOUS
 10
80.299999999999983
 20
21.0
 30
0.0
 11
78.069999999999993
 21
21.0
 31
0.0
  0
LINE
  5
465B
  8
250
  6
CONTINUOUS
 10
2.23
 20
20.62833333333333
 30
0.0
 11
0.0000000000000004
 21
21.0
 31
0.0
  0
LINE
  5
465C
  8
250
  6
CONTINUOUS
 10
2.23
 20
21.37166666666667
 30
0.0
 11
0.0000000000000004
 21
21.0
 31
0.0
  0
LINE
  5
465D
  8
250
  6
CONTINUOUS
 10
0.0000000000000004
 20
21.0
 30
0.0
 11
2.23
 21
21.0
 31
0.0
  0
TEXT
  5
465E
  8
250
  6
CONTINUOUS
 10
-10.51666666666665
 20
22.0
 30
0.0
 40
2.7999999999999989
  1
12.1
  0
LINE
  5
465F
  8
250
  6
CONTINUOUS
 10
-2.2299999999999991
 20
21.37166666666667
 30
0.0
 11
0.0000000000000004
 21
21.0
 31
0.0
  0
LINE
  5
4660
  8
250
  6
CONTINUOUS
 10
-2.2299999999999991
 20
20.62833333333333
 30
0.0
 11
0.0000000000000004
 21
21.0
 31
0.0
  0
LINE
  5
4661
  8
250
  6
CONTINUOUS
 10
0.0000000000000004
 20
21.0
 30
0.0
 11
-2.2299999999999991
 21
21.0
 31
0.0
  0
LINE
  5
4662
  8
250
  6
CONTINUOUS
 10
-9.8699999999999708
 20
20.62833333333333
 30
0.0
 11
-12.099999999999969
 21
21.0
 31
0.0
  0
LINE
  5
4663
  8
250
  6
CONTINUOUS
 10
-9.8699999999999708
 20
21.37166666666667
 30
0.0
 11
-12.099999999999969
 21
21.0
 31
0.0
  0
LINE
  5
4664
  8
250
  6
CONTINUOUS
 10
-12.099999999999969
 20
21.0
 30
0.0
 11
-9.8699999999999708
 21
21.0
 31
0.0
  0
TEXT
  5
471D
  8
241
  6
CONTINUOUS
 10
-14.0
 20
77.0
 30
0.0
 40
4.0
  1
MGR10
  7
YOKO
  0
VIEWPORT
  5
22
 67
     1
  8
0
 10
261.51769911504419
 20
148.5
 30
0.0
 40
523.0353982300885
 41
297.0
 68
     1
 69
     1
1001
ACAD
1000
MVIEW
1002
{
1070
    16
1010
0.0
1020
0.0
1030
0.0
1010
0.0
1020
0.0
1030
1.0
1040
0.0
1040
297.0
1040
261.51769911504419
1040
148.5
1040
50.0
1040
0.0
1040
0.0
1070
     0
1070
   100
1070
     1
1070
     1
1070
     0
1070
     0
1070
     0
1070
     0
1040
0.0
1040
0.0
1040
0.0
1040
1.0
1040
1.0
1040
10.0
1040
10.0
1070
     0
1002
{
1002
}
1002
}
1001
GENIUS_GENODEF_13
1002
{
1000
HIER
1070
     0
1002
}
1002
{
1000
MANEDIT
1070
     0
1002
}
1002
{
1000
NOSEL
1070
     0
1002
}
1002
{
1000
BEHIND
1070
     0
1002
}
1002
{
1000
OTHER
1070
     0
1002
}
1002
{
1000
REACTOR
1002
}
1001
GENIUS_GENOBJ-N-SDF_13
1002
{
1000
OWNER
1000
GEN
1002
}
1001
GENIUS_GENSCREG_15
1000
PF
1040
1.0
1000
DF
1040
1.0
1000
MIN
1011
0.0
1021
0.0
1031
0.0
1021
0.0
1031
0.0
1000
MAX
1011
523.0353982300885
1021
0.0
1031
0.0
1021
297.0
1031
0.0
1000
FLAGS
1070
     4
  0
ENDSEC
  0
EOF
