  0
SECTION
  2
HEADER
  9
$ACADVER
  1
AC1009
  9
$INSBASE
 10
0.0
 20
0.0
 30
0.0
  9
$EXTMIN
 10
-46.459811489700002
 20
-21.599998848409012
 30
0.0
  9
$EXTMAX
 10
132.55435804247361
 20
64.906919313900005
 30
0.0
  9
$LIMMIN
 10
0.0
 20
0.0
  9
$LIMMAX
 10
420.0
 20
297.0
  9
$ORTHOMODE
 70
     0
  9
$REGENMODE
 70
     1
  9
$FILLMODE
 70
     1
  9
$QTEXTMODE
 70
     0
  9
$MIRRTEXT
 70
     0
  9
$DRAGMODE
 70
     2
  9
$LTSCALE
 40
23.100000000000001
  9
$OSMODE
 70
    39
  9
$ATTMODE
 70
     1
  9
$TEXTSIZE
 40
0.2
  9
$TRACEWID
 40
0.05
  9
$TEXTSTYLE
  7
STANDARD
  9
$CLAYER
  8
1
  9
$CELTYPE
  6
BYLAYER
  9
$CECOLOR
 62
   256
  9
$DIMSCALE
 40
1.0
  9
$DIMASZ
 40
3.5
  9
$DIMEXO
 40
1.0
  9
$DIMDLI
 40
15.960000000000001
  9
$DIMRND
 40
0.0
  9
$DIMDLE
 40
0.0
  9
$DIMEXE
 40
1.5
  9
$DIMTP
 40
0.01
  9
$DIMTM
 40
0.01
  9
$DIMTXT
 40
3.5
  9
$DIMCEN
 40
3.779999999999998
  9
$DIMTSZ
 40
0.0
  9
$DIMTOL
 70
     1
  9
$DIMLIM
 70
     0
  9
$DIMTIH
 70
     1
  9
$DIMTOH
 70
     1
  9
$DIMSE1
 70
     0
  9
$DIMSE2
 70
     0
  9
$DIMTAD
 70
     0
  9
$DIMZIN
 70
     0
  9
$DIMBLK
  1
_FILLED
  9
$DIMASO
 70
     1
  9
$DIMSHO
 70
     1
  9
$DIMPOST
  1

  9
$DIMAPOST
  1

  9
$DIMALT
 70
     0
  9
$DIMALTD
 70
     2
  9
$DIMALTF
 40
25.399999999999999
  9
$DIMLFAC
 40
1.0
  9
$DIMTOFL
 70
     0
  9
$DIMTVP
 40
0.0
  9
$DIMTIX
 70
     0
  9
$DIMSOXD
 70
     0
  9
$DIMSAH
 70
     0
  9
$DIMBLK1
  1

  9
$DIMBLK2
  1

  9
$DIMSTYLE
  2
STANDARD
  9
$DIMCLRD
 70
     0
  9
$DIMCLRE
 70
     0
  9
$DIMCLRT
 70
     0
  9
$DIMTFAC
 40
1.0
  9
$DIMGAP
 40
0.625
  9
$LUNITS
 70
     2
  9
$LUPREC
 70
     2
  9
$SKETCHINC
 40
0.1
  9
$FILLETRAD
 40
0.0
  9
$AUNITS
 70
     0
  9
$AUPREC
 70
     0
  9
$MENU
  1
.
  9
$ELEVATION
 40
0.0
  9
$PELEVATION
 40
0.0
  9
$THICKNESS
 40
0.0
  9
$LIMCHECK
 70
     0
  9
$BLIPMODE
 70
     0
  9
$CHAMFERA
 40
0.0
  9
$CHAMFERB
 40
0.0
  9
$SKPOLY
 70
     0
  9
$TDCREATE
 40
2458360.6444212971
  9
$TDUPDATE
 40
2460768.5887739589
  9
$TDINDWG
 40
0.0259146065
  9
$TDUSRTIMER
 40
0.0259145023
  9
$USRTIMER
 70
     1
  9
$ANGBASE
 50
0.0
  9
$ANGDIR
 70
     0
  9
$PDMODE
 70
     3
  9
$PDSIZE
 40
8.0
  9
$PLINEWID
 40
0.0
  9
$COORDS
 70
     1
  9
$SPLFRAME
 70
     0
  9
$SPLINETYPE
 70
     6
  9
$SPLINESEGS
 70
     8
  9
$ATTDIA
 70
     1
  9
$ATTREQ
 70
     1
  9
$HANDLING
 70
     1
  9
$HANDSEED
  5
E67
  9
$SURFTAB1
 70
     6
  9
$SURFTAB2
 70
     6
  9
$SURFTYPE
 70
     6
  9
$SURFU
 70
     6
  9
$SURFV
 70
     6
  9
$UCSNAME
  2

  9
$UCSORG
 10
0.0
 20
0.0
 30
0.0
  9
$UCSXDIR
 10
1.0
 20
0.0
 30
0.0
  9
$UCSYDIR
 10
0.0
 20
1.0
 30
0.0
  9
$PUCSNAME
  2

  9
$PUCSORG
 10
0.0
 20
0.0
 30
0.0
  9
$PUCSXDIR
 10
1.0
 20
0.0
 30
0.0
  9
$PUCSYDIR
 10
0.0
 20
1.0
 30
0.0
  9
$USERI1
 70
     0
  9
$USERI2
 70
     0
  9
$USERI3
 70
     0
  9
$USERI4
 70
     0
  9
$USERI5
 70
     0
  9
$USERR1
 40
0.0
  9
$USERR2
 40
0.0
  9
$USERR3
 40
0.0
  9
$USERR4
 40
0.0
  9
$USERR5
 40
0.0
  9
$WORLDVIEW
 70
     1
  9
$SHADEDGE
 70
     3
  9
$SHADEDIF
 70
    70
  9
$TILEMODE
 70
     1
  9
$MAXACTVP
 70
    64
  9
$PLIMCHECK
 70
     0
  9
$PEXTMIN
 10
1.0000000000000000E+020
 20
1.0000000000000000E+020
 30
1.0000000000000000E+020
  9
$PEXTMAX
 10
-1.0000000000000000E+020
 20
-1.0000000000000000E+020
 30
-1.0000000000000000E+020
  9
$PLIMMIN
 10
0.0
 20
0.0
  9
$PLIMMAX
 10
12.0
 20
9.0
  9
$UNITMODE
 70
     0
  9
$VISRETAIN
 70
     1
  9
$PLINEGEN
 70
     0
  9
$PSLTSCALE
 70
     1
  0
ENDSEC
  0
SECTION
  2
TABLES
  0
TABLE
  2
VPORT
 70
     1
  0
VPORT
  2
*ACTIVE
 70
     0
 10
0.0
 20
0.0
 11
1.0
 21
1.0
 12
50.893530427390267
 22
15.63025623103937
 13
0.0
 23
0.0
 14
1.0
 24
1.0
 15
0.0
 25
0.0
 16
0.0
 26
0.0
 36
1.0
 17
0.0
 27
0.0
 37
0.0
 40
130.9365136738929
 41
1.868146214099216
 42
50.0
 43
0.0
 44
0.0
 50
0.0
 51
0.0
 71
     0
 72
   100
 73
     1
 74
     1
 75
     1
 76
     1
 77
     0
 78
     0
  0
ENDTAB
  0
TABLE
  2
LTYPE
 70
    22
  0
LTYPE
  2
CONTINUOUS
 70
     0
  3
Solid line
 72
    65
 73
     0
 40
0.0
  0
LTYPE
  2
CENTER
 70
     0
  3
____ _ ____ _ ____ _ ____ _ ____ _ ____ _ ____
 72
    65
 73
     4
 40
0.6
 49
0.375
 49
-0.075
 49
0.075
 49
-0.075
  0
LTYPE
  2
AMCONSTR
 70
     0
  3
_______________________
 72
    65
 73
     2
 40
9999.0
 49
9999.0
 49
0.0
  0
LTYPE
  2
HIDDEN
 70
     0
  3
Hidden __ __ __ __ __ __ __ __ __ __ __ __ __ _
 72
    65
 73
     2
 40
0.375
 49
0.25
 49
-0.125
  0
LTYPE
  2
PHANTOM2
 70
     0
  3
Phantom (.5x) ___ _ _ ___ _ _ ___ _ _ ___ _ _
 72
    65
 73
     6
 40
1.25
 49
0.625
 49
-0.125
 49
0.125
 49
-0.125
 49
0.125
 49
-0.125
  0
LTYPE
  2
CENTER2
 70
     0
  3
Center (.5x) ___ _ ___ _ ___ _ ___ _ ___ _ ___
 72
    65
 73
     4
 40
1.125
 49
0.75
 49
-0.125
 49
0.125
 49
-0.125
  0
LTYPE
  2
HIDDEN2
 70
     0
  3
Hidden (.5x) _ _ _ _ _ _ _ _ _ _ _ _ _ _ _ _ _
 72
    65
 73
     2
 40
0.1875
 49
0.125
 49
-0.0625
  0
LTYPE
  2
AMZIGZAG2
 70
     0
  3
/\/-/\/-/\/-/\/-/\/-/\/
 72
    65
 73
     2
 40
0.4401
 49
0.0001
 49
-0.4400000000000003
  0
LTYPE
  2
ACANSTGB
 70
     0
  3
__ . . __ . .
 72
    65
 73
     6
 40
0.35433070866
 49
0.15748031496
 49
-0.03937007874
 49
0.03937007874
 49
-0.03937007874
 49
0.03937007874
 49
-0.03937007874
  0
LTYPE
  2
ACANSTGL
 70
     0
  3
_ _ _ _ _
 72
    65
 73
     2
 40
0.11811023622
 49
0.07874015748
 49
-0.03937007874
  0
ENDTAB
  0
TABLE
  2
LAYER
 70
    25
  0
LAYER
  2
0
 70
     0
 62
     7
  6
CONTINUOUS
  0
LAYER
  2
1
 70
     0
 62
     4
  6
CONTINUOUS
  0
LAYER
  2
2
 70
     0
 62
     7
  6
CONTINUOUS
  0
LAYER
  2
4
 70
     0
 62
     2
  6
CENTER
  0
LAYER
  2
6
 70
     0
 62
     5
  6
CONTINUOUS
  0
LAYER
  2
NOCUT
 70
     0
 62
     7
  6
CONTINUOUS
  0
LAYER
  2
SK1
 70
     0
 62
     4
  6
CONTINUOUS
  0
LAYER
  2
SK4
 70
     0
 62
     2
  6
CENTER
  0
LAYER
  2
DEFPOINTS
 70
     0
 62
     7
  6
CONTINUOUS
  0
LAYER
  2
SK6
 70
     0
 62
     5
  6
CONTINUOUS
  0
LAYER
  2
7
 70
     0
 62
     5
  6
CONTINUOUS
  0
LAYER
  2
CUT
 70
     0
 62
     1
  6
CONTINUOUS
  0
ENDTAB
  0
TABLE
  2
STYLE
 70
     7
  0
STYLE
  2
STANDARD
 70
     0
 40
0.0
 41
0.85
 50
0.0
 71
     0
 42
0.2
  3
txt
  4

  0
STYLE
  2
ACANSGDT
 70
     0
 40
0.0
 41
1.0
 50
0.0
 71
     0
 42
0.2
  3
amgdt.shx
  4

  0
STYLE
  2
YOKO
 70
     0
 40
0.0
 41
1.0
 50
0.0
 71
     0
 42
3.0
  3
romans.shx
  4
extfont.shx
  0
ENDTAB
  0
TABLE
  2
VIEW
 70
     0
  0
ENDTAB
  0
TABLE
  2
UCS
 70
     0
  0
ENDTAB
  0
TABLE
  2
APPID
 70
    22
  0
APPID
  2
ACAD
 70
     0
  0
APPID
  2
ACADANNOTATIVE
 70
     0
  0
APPID
  2
MCAD_NO_VIS
 70
     0
  0
APPID
  2
ACAD_TEMP_GRAPHIC
 70
     0
  0
APPID
  2
ACATTRIBSERVICES
 70
     0
  0
APPID
  2
DESIGNERASSEMBLIES
 70
     0
  0
APPID
  2
ACAD_DSTYLE_DIMJAG
 70
     0
  0
APPID
  2
ACAD_DSTYLE_DIMBREAK
 70
     0
  0
APPID
  2
ACAD_NAV_VCDISPLAY
 70
     0
  0
APPID
  2
ACAD_MLEADERVER
 70
     0
  0
APPID
  2
ACAD_DSTYLE_DIMARC_LENGTH_
 70
     0
  0
APPID
  2
ACAD_DSTYLE_DIM_LINETYPE
 70
     0
  0
APPID
  2
ACAD_DSTYLE_DIM_EXT1_LINETYPE
 70
     0
  0
APPID
  2
ACAD_DSTYLE_DIM_EXT2_LINETYPE
 70
     0
  0
APPID
  2
ACAECLAYERSTANDARD
 70
     0
  0
APPID
  2
GRPNAME
 70
     0
  0
APPID
  2
GENIUS_GENODEF_13
 70
     0
  0
APPID
  2
ITEMNAME
 70
     0
  0
APPID
  2
GENIUS_GENOBJ-N-FIL_13
 70
     0
  0
APPID
  2
ACAD_EXEMPT_FROM_CAD_STANDARDS
 70
     0
  0
APPID
  2
GENIUS_GENOBJ-N-HTC_13
 70
     0
  0
APPID
  2
GENIUS_GENHATCH_13
 70
     0
  0
ENDTAB
  0
TABLE
  2
DIMSTYLE
 70
    20
  0
DIMSTYLE
  2
STANDARD
 70
     0
  3

  4

  5

  6

  7

 40
1.0
 41
3.5
 42
1.0
 43
0.38
 44
1.5
 45
0.0
 46
0.0
 47
0.01
 48
0.01
140
3.5
141
0.09
142
0.0
143
25.399999999999999
144
1.0
145
0.0
146
1.0
147
0.625
 71
     1
 72
     0
 73
     0
 74
     0
 75
     0
 76
     0
 77
     1
 78
     8
170
     0
171
     1
172
     0
173
     0
174
     0
175
     0
176
     0
177
     0
178
     0
  0
DIMSTYLE
  2
AM_ANSI
 70
     0
  3

  4
mm
  5

  6

  7

 40
1.0
 41
0.12
 42
0.05
 43
0.5
 44
0.1
 45
0.0
 46
0.0
 47
0.1
 48
0.1
140
0.12
141
0.0
142
0.0
143
25.399999999999999
144
1.0
145
0.0
146
0.71
147
0.06
 71
     0
 72
     0
 73
     1
 74
     1
 75
     0
 76
     0
 77
     0
 78
     7
170
     0
171
     2
172
     0
173
     0
174
     0
175
     0
176
   256
177
   256
178
     2
  0
DIMSTYLE
  2
AM_ANSI$3
 70
     0
  3

  4
mm
  5

  6

  7

 40
1.0
 41
0.12
 42
0.05
 43
0.5
 44
0.1
 45
0.0
 46
0.0
 47
0.1
 48
0.1
140
0.12
141
0.0
142
0.0
143
25.399999999999999
144
1.0
145
0.0
146
0.71
147
0.06
 71
     0
 72
     0
 73
     1
 74
     1
 75
     0
 76
     0
 77
     0
 78
     7
170
     0
171
     2
172
     0
173
     0
174
     0
175
     0
176
   256
177
   256
178
     2
  0
DIMSTYLE
  2
AM_ANSI$4
 70
     0
  3

  4
mm
  5

  6

  7

 40
1.0
 41
0.12
 42
0.05
 43
0.5
 44
0.1
 45
0.0
 46
0.0
 47
0.1
 48
0.1
140
0.12
141
0.0
142
0.0
143
25.399999999999999
144
1.0
145
0.0
146
0.71
147
0.06
 71
     0
 72
     0
 73
     1
 74
     1
 75
     0
 76
     0
 77
     0
 78
     7
170
     0
171
     2
172
     0
173
     0
174
     0
175
     0
176
   256
177
   256
178
     2
  0
DIMSTYLE
  2
AM_ANSI$7
 70
     0
  3

  4
mm
  5

  6

  7

 40
1.0
 41
0.12
 42
0.05
 43
0.5
 44
0.1
 45
0.0
 46
0.0
 47
0.1
 48
0.1
140
0.12
141
0.0
142
0.0
143
25.399999999999999
144
1.0
145
0.0
146
0.71
147
0.06
 71
     0
 72
     0
 73
     1
 74
     1
 75
     0
 76
     0
 77
     0
 78
     7
170
     0
171
     2
172
     0
173
     0
174
     0
175
     0
176
   256
177
   256
178
     2
  0
DIMSTYLE
  2
AM_ANSI$SF
 70
     0
  3

  4
mm
  5

  6

  7

 40
1.0
 41
0.12
 42
0.05
 43
0.5
 44
0.1
 45
0.0
 46
0.0
 47
0.1
 48
0.1
140
0.12
141
0.0
142
0.0
143
25.399999999999999
144
1.0
145
0.0
146
0.71
147
0.06
 71
     0
 72
     0
 73
     1
 74
     1
 75
     1
 76
     1
 77
     0
 78
     7
170
     0
171
     2
172
     0
173
     0
174
     0
175
     0
176
   256
177
   256
178
     2
  0
DIMSTYLE
  2
AM_ANSI$SH
 70
     0
  3

  4
mm
  5

  6

  7

 40
1.0
 41
0.12
 42
0.05
 43
0.5
 44
0.1
 45
0.0
 46
0.0
 47
0.1
 48
0.1
140
0.12
141
0.0
142
0.0
143
25.399999999999999
144
1.0
145
0.0
146
0.71
147
0.06
 71
     0
 72
     0
 73
     1
 74
     1
 75
     1
 76
     1
 77
     0
 78
     7
170
     0
171
     2
172
     0
173
     1
174
     0
175
     0
176
   256
177
   256
178
     2
  0
ENDTAB
  0
ENDSEC
  0
SECTION
  2
BLOCKS
  0
BLOCK
  8
0
  2
$MODEL_SPACE
 70
     0
 10
0.0
 20
0.0
 30
0.0
  3
$MODEL_SPACE
  1

  0
ENDBLK
  5
ABC
  8
0
  0
BLOCK
 67
     1
  8
0
  2
$PAPER_SPACE
 70
     0
 10
0.0
 20
0.0
 30
0.0
  3
$PAPER_SPACE
  1

  0
ENDBLK
  5
AB8
 67
     1
  8
0
  0
BLOCK
  8
0
  2
_FILLED
 70
     0
 10
0.0
 20
0.0
 30
0.0
  3
_FILLED
  1

  0
SOLID
  5
215
  8
0
  6
BYBLOCK
 62
     0
 10
0.0
 20
0.0
 30
0.0
 11
-1.0
 21
0.2142857143
 31
0.0
 12
-1.0
 22
-0.2142857143
 32
0.0
 13
-1.0
 23
-0.2142857143
 33
0.0
  0
ENDBLK
  5
216
  8
0
  6
BYBLOCK
 62
     0
  0
BLOCK
  8
0
  2
_ACMFILLEDHALF
 70
     0
 10
0.0
 20
0.0
 30
0.0
  3
_ACMFILLEDHALF
  1

  0
TRACE
  5
679
  8
0
 62
     0
 10
-0.8
 20
0.0
 30
0.0
 11
-1.0
 21
0.166666666
 31
0.0
 12
0.0
 22
0.0
 32
0.0
 13
0.0
 23
0.0
 33
0.0
  0
LINE
  5
67A
  8
0
 62
     0
 10
-1.0
 20
0.0
 30
0.0
 11
-0.8
 21
0.0
 31
0.0
  0
ENDBLK
  5
678
  8
0
  0
BLOCK
  8
0
  2
*X23
 70
     1
 10
0.0
 20
0.0
 30
0.0
  3
*X23
  1

  0
LINE
  5
DF4
  8
0
 62
     0
 10
12.794000000000301
 20
9.2855378675723053
 30
0.0
 11
12.57953786757256
 21
9.5000000000000462
 31
0.0
  0
LINE
  5
DF5
  8
0
 62
     0
 10
12.794000000000301
 20
8.4900427387374435
 30
0.0
 11
11.7840427387377
 21
9.5000000000000462
 31
0.0
  0
LINE
  5
DF6
  8
0
 62
     0
 10
12.794000000000301
 20
7.6945476099025667
 30
0.0
 11
10.98854760990284
 21
9.5000000000000249
 31
0.0
  0
LINE
  5
DF7
  8
0
 62
     0
 10
12.687870954226939
 20
7.0051815268410671
 30
0.0
 11
10.193052481067969
 21
9.5000000000000391
 31
0.0
  0
LINE
  5
DF8
  8
0
 62
     0
 10
12.5157032107302
 20
6.3818541415029451
 30
0.0
 11
9.3975573522331111
 21
9.5000000000000302
 31
0.0
  0
LINE
  5
DF9
  8
0
 62
     0
 10
12.51570321073018
 20
5.5863590126681011
 30
0.0
 11
8.6020622233982458
 21
9.5000000000000426
 31
0.0
  0
LINE
  5
DFA
  8
0
 62
     0
 10
12.515703210730161
 20
4.7908638838332456
 30
0.0
 11
7.8065670945633796
 21
9.5000000000000284
 31
0.0
  0
LINE
  5
DFB
  8
0
 62
     0
 10
12.51570321073013
 20
3.9953687549984158
 30
0.0
 11
7.0110719657285223
 21
9.5000000000000213
 31
0.0
  0
LINE
  5
DFC
  8
0
 62
     0
 10
12.515703210730109
 20
3.1998736261635718
 30
0.0
 11
6.215576836893649
 21
9.5000000000000355
 31
0.0
  0
LINE
  5
DFD
  8
0
 62
     0
 10
12.51570321073009
 20
2.4043784973287141
 30
0.0
 11
5.4200817080587909
 21
9.5000000000000142
 31
0.0
  0
LINE
  5
DFE
  8
0
 62
     0
 10
12.515703210730059
 20
1.6088833684938839
 30
0.0
 11
4.6245865792239327
 21
9.5000000000000142
 31
0.0
  0
LINE
  5
DFF
  8
0
 62
     0
 10
12.51570321073004
 20
0.8133882396590408
 30
0.0
 11
3.8290914503890612
 21
9.5000000000000213
 31
0.0
  0
LINE
  5
E00
  8
0
 62
     0
 10
12.51570321073002
 20
0.0178931108241969
 30
0.0
 11
3.0335963215542061
 21
9.5000000000000178
 31
0.0
  0
LINE
  5
E01
  8
0
 62
     0
 10
11.738101192719309
 20
0.0000000000000284
 30
0.0
 11
2.2381011927193439
 21
9.5
 31
0.0
  0
LINE
  5
E02
  8
0
 62
     0
 10
10.942606063884449
 20
0.0000000000000355
 30
0.0
 11
1.4426060638844751
 21
9.5000000000000107
 31
0.0
  0
LINE
  5
E03
  8
0
 62
     0
 10
10.147110935049581
 20
0.0000000000000355
 30
0.0
 11
0.6471109350496143
 21
9.5000000000000071
 31
0.0
  0
LINE
  5
E04
  8
0
 62
     0
 10
9.3516158062147152
 20
0.0000000000000426
 30
0.0
 11
0.2782967892702892
 21
9.0733190169444669
 31
0.0
  0
LINE
  5
E05
  8
0
 62
     0
 10
8.5561206773798588
 20
0.0000000000000213
 30
0.0
 11
0.2782967892702928
 21
8.2778238881095891
 31
0.0
  0
LINE
  5
E06
  8
0
 62
     0
 10
7.7606255485449926
 20
0.0000000000000213
 30
0.0
 11
0.2782967892702892
 21
7.4823287592747292
 31
0.0
  0
LINE
  5
E07
  8
0
 62
     0
 10
6.9651304197101309
 20
0.0000000000000249
 30
0.0
 11
0.2782967892702928
 21
6.686833630439863
 31
0.0
  0
LINE
  5
E08
  8
0
 62
     0
 10
6.1696352908752656
 20
0.0000000000000178
 30
0.0
 11
0.2782967892702963
 21
5.8913385016049871
 31
0.0
  0
LINE
  5
E09
  8
0
 62
     0
 10
5.3741401620404012
 20
0.0000000000000249
 30
0.0
 11
0.2782967892702928
 21
5.0958433727701289
 31
0.0
  0
LINE
  5
E0A
  8
0
 62
     0
 10
4.5786450332055386
 20
0.0000000000000107
 30
0.0
 11
0.2782967892702892
 21
4.3003482439352601
 31
0.0
  0
LINE
  5
E0B
  8
0
 62
     0
 10
3.7831499043706769
 20
0.0000000000000142
 30
0.0
 11
0.2782967892702999
 21
3.5048531151003952
 31
0.0
  0
LINE
  5
E0C
  8
0
 62
     0
 10
2.987654775535808
 20
0.0000000000000142
 30
0.0
 11
0.2782967892702963
 21
2.7093579862655259
 31
0.0
  0
LINE
  5
E0D
  8
0
 62
     0
 10
2.1921596467009432
 20
0.0000000000000107
 30
0.0
 11
0.0
 21
2.192159646700957
 31
0.0
  0
LINE
  5
E0E
  8
0
 62
     0
 10
1.3966645178660779
 20
0.0000000000000142
 30
0.0
 11
0.0000000000000036
 21
1.396664517866089
 31
0.0
  0
LINE
  5
E0F
  8
0
 62
     0
 10
0.6011693890312202
 20
0.0000000000000071
 30
0.0
 11
0.0
 21
0.6011693890312239
 31
0.0
  0
LINE
  5
E10
  8
0
 62
     0
 10
12.188177119431661
 20
0.0000000000000284
 30
0.0
 11
12.515703210730029
 21
0.3275260912983953
 31
0.0
  0
LINE
  5
E11
  8
0
 62
     0
 10
11.392681990596779
 20
0.0000000000000142
 30
0.0
 11
12.515703210730051
 21
1.123021220133281
 31
0.0
  0
LINE
  5
E12
  8
0
 62
     0
 10
10.59718686176191
 20
0.0000000000000213
 30
0.0
 11
12.515703210730059
 21
1.9185163489681749
 31
0.0
  0
LINE
  5
E13
  8
0
 62
     0
 10
9.8016917329270541
 20
0.0000000000000213
 30
0.0
 11
12.51570321073009
 21
2.7140114778030551
 31
0.0
  0
LINE
  5
E14
  8
0
 62
     0
 10
9.0061966040921817
 20
0.0000000000000142
 30
0.0
 11
12.515703210730109
 21
3.5095066066379408
 31
0.0
  0
LINE
  5
E15
  8
0
 62
     0
 10
8.2107014752573235
 20
0.0000000000000284
 30
0.0
 11
12.515703210730139
 21
4.3050017354728416
 31
0.0
  0
LINE
  5
E16
  8
0
 62
     0
 10
7.4152063464224511
 20
0.0000000000000213
 30
0.0
 11
12.515703210730161
 21
5.1004968643077291
 31
0.0
  0
LINE
  5
E17
  8
0
 62
     0
 10
6.6197112175875779
 20
0.0000000000000071
 30
0.0
 11
12.51570321073018
 21
5.8959919931426077
 31
0.0
  0
LINE
  5
E18
  8
0
 62
     0
 10
5.8242160887527126
 20
0.0000000000000071
 30
0.0
 11
12.51570321073021
 21
6.6914871219775023
 31
0.0
  0
LINE
  5
E19
  8
0
 62
     0
 10
5.0287209599178411
 20
0.0000000000000071
 30
0.0
 11
12.79400000000029
 21
7.7652790400824543
 31
0.0
  0
LINE
  5
E1A
  8
0
 62
     0
 10
4.2332258310829749
 20
0.0000000000000071
 30
0.0
 11
12.79400000000029
 21
8.5607741689173196
 31
0.0
  0
LINE
  5
E1B
  8
0
 62
     0
 10
3.4377307022481101
 20
0.0
 30
0.0
 11
12.79400000000029
 21
9.3562692977521849
 31
0.0
  0
LINE
  5
E1C
  8
0
 62
     0
 10
2.6422355734132381
 20
0.0
 30
0.0
 11
12.14223557341327
 21
9.5000000000000355
 31
0.0
  0
LINE
  5
E1D
  8
0
 62
     0
 10
1.8467404445783651
 20
0.0
 30
0.0
 11
11.346740444578391
 21
9.5000000000000284
 31
0.0
  0
LINE
  5
E1E
  8
0
 62
     0
 10
1.0512453157435071
 20
0.0
 30
0.0
 11
10.55124531574352
 21
9.5000000000000142
 31
0.0
  0
LINE
  5
E1F
  8
0
 62
     0
 10
0.2557501869086423
 20
-0.0000000000000071
 30
0.0
 11
9.7557501869086636
 21
9.5000000000000142
 31
0.0
  0
LINE
  5
E20
  8
0
 62
     0
 10
0.0000000000000071
 20
0.5397449419262302
 30
0.0
 11
8.9602550580738054
 21
9.5000000000000213
 31
0.0
  0
LINE
  5
E21
  8
0
 62
     0
 10
0.0
 20
1.335240070761095
 30
0.0
 11
8.1647599292389241
 21
9.5000000000000142
 31
0.0
  0
LINE
  5
E22
  8
0
 62
     0
 10
0.0000000000000071
 20
2.1307351995959598
 30
0.0
 11
7.3692648004040597
 21
9.5000000000000142
 31
0.0
  0
LINE
  5
E23
  8
0
 62
     0
 10
0.2782967892702928
 20
3.2045271177011179
 30
0.0
 11
6.5737696715691882
 21
9.5000000000000142
 31
0.0
  0
LINE
  5
E24
  8
0
 62
     0
 10
0.2782967892702786
 20
4.000022246535976
 30
0.0
 11
5.7782745427343221
 21
9.5000000000000213
 31
0.0
  0
LINE
  5
E25
  8
0
 62
     0
 10
0.2782967892702928
 20
4.7955173753708493
 30
0.0
 11
4.9827794138994497
 21
9.5000000000000071
 31
0.0
  0
LINE
  5
E26
  8
0
 62
     0
 10
0.2782967892702928
 20
5.5910125042057066
 30
0.0
 11
4.1872842850645853
 21
9.5
 31
0.0
  0
LINE
  5
E27
  8
0
 62
     0
 10
0.2782967892702857
 20
6.3865076330405719
 30
0.0
 11
3.3917891562297191
 21
9.5000000000000071
 31
0.0
  0
LINE
  5
E28
  8
0
 62
     0
 10
0.2782967892702857
 20
7.1820027618754452
 30
0.0
 11
2.5962940273948401
 21
9.5
 31
0.0
  0
LINE
  5
E29
  8
0
 62
     0
 10
0.2782967892702857
 20
7.9774978907103034
 30
0.0
 11
1.800798898559975
 21
9.4999999999999911
 31
0.0
  0
LINE
  5
E2A
  8
0
 62
     0
 10
0.2782967892702928
 20
8.7729930195451686
 30
0.0
 11
1.005303769725117
 21
9.4999999999999911
 31
0.0
  0
ENDBLK
  5
E2C
  8
0
  0
BLOCK
  8
0
  2
*X24
 70
     1
 10
0.0
 20
0.0
 30
0.0
  3
*X24
  1

  0
LINE
  5
E2E
  8
0
 62
     0
 10
40.000000000000227
 20
19.808790114725792
 30
0.0
 11
39.808790114726023
 21
20.000000000000011
 31
0.0
  0
LINE
  5
E2F
  8
0
 62
     0
 10
40.000000000000227
 20
19.013294985890919
 30
0.0
 11
39.01329498589115
 21
20.0
 31
0.0
  0
LINE
  5
E30
  8
0
 62
     0
 10
40.000000000000227
 20
18.217799857056061
 30
0.0
 11
38.217799857056292
 21
20.0
 31
0.0
  0
LINE
  5
E31
  8
0
 62
     0
 10
39.904479923789907
 20
17.517824804431498
 30
0.0
 11
37.422304728221427
 21
19.999999999999989
 31
0.0
  0
LINE
  5
E32
  8
0
 62
     0
 10
39.721703210730141
 20
16.905106388656421
 30
0.0
 11
36.626809599386561
 21
20.0
 31
0.0
  0
LINE
  5
E33
  8
0
 62
     0
 10
39.721703210730112
 20
16.10961125982158
 30
0.0
 11
35.831314470551703
 21
19.999999999999989
 31
0.0
  0
LINE
  5
E34
  8
0
 62
     0
 10
39.721703210730077
 20
15.31411613098674
 30
0.0
 11
35.035819341716831
 21
19.999999999999989
 31
0.0
  0
LINE
  5
E35
  8
0
 62
     0
 10
39.721703210730062
 20
14.5186210021519
 30
0.0
 11
34.24032421288198
 21
19.999999999999989
 31
0.0
  0
LINE
  5
E36
  8
0
 62
     0
 10
39.721703210730027
 20
13.723125873317059
 30
0.0
 11
33.4448290840471
 21
19.999999999999979
 31
0.0
  0
LINE
  5
E37
  8
0
 62
     0
 10
39.721703210730013
 20
12.92763074448221
 30
0.0
 11
32.649333955212242
 21
19.999999999999989
 31
0.0
  0
LINE
  5
E38
  8
0
 62
     0
 10
39.721703210729991
 20
12.132135615647361
 30
0.0
 11
31.85383882637738
 21
19.999999999999979
 31
0.0
  0
LINE
  5
E39
  8
0
 62
     0
 10
39.721703210729963
 20
11.336640486812531
 30
0.0
 11
31.058343697542519
 21
19.999999999999979
 31
0.0
  0
LINE
  5
E3A
  8
0
 62
     0
 10
39.721703210729942
 20
10.54114535797769
 30
0.0
 11
30.26284856870765
 21
19.999999999999972
 31
0.0
  0
LINE
  5
E3B
  8
0
 62
     0
 10
38.967353439872767
 20
10.5
 30
0.0
 11
29.467353439872792
 21
19.999999999999979
 31
0.0
  0
LINE
  5
E3C
  8
0
 62
     0
 10
38.171858311037902
 20
10.499999999999989
 30
0.0
 11
28.671858311037919
 21
19.999999999999972
 31
0.0
  0
LINE
  5
E3D
  8
0
 62
     0
 10
37.376363182203029
 20
10.5
 30
0.0
 11
27.876363182203061
 21
19.999999999999972
 31
0.0
  0
LINE
  5
E3E
  8
0
 62
     0
 10
36.580868053368171
 20
10.499999999999989
 30
0.0
 11
27.484296789270221
 21
19.596571264097939
 31
0.0
  0
LINE
  5
E3F
  8
0
 62
     0
 10
35.785372924533313
 20
10.49999999999998
 30
0.0
 11
27.484296789270221
 21
18.80107613526307
 31
0.0
  0
LINE
  5
E40
  8
0
 62
     0
 10
34.989877795698447
 20
10.49999999999998
 30
0.0
 11
27.484296789270221
 21
18.005581006428208
 31
0.0
  0
LINE
  5
E41
  8
0
 62
     0
 10
34.194382666863582
 20
10.49999999999998
 30
0.0
 11
27.484296789270221
 21
17.21008587759335
 31
0.0
  0
LINE
  5
E42
  8
0
 62
     0
 10
33.39888753802871
 20
10.5
 30
0.0
 11
27.484296789270221
 21
16.414590748758481
 31
0.0
  0
LINE
  5
E43
  8
0
 62
     0
 10
32.603392409193852
 20
10.49999999999998
 30
0.0
 11
27.484296789270221
 21
15.619095619923611
 31
0.0
  0
LINE
  5
E44
  8
0
 62
     0
 10
31.80789728035899
 20
10.49999999999998
 30
0.0
 11
27.484296789270221
 21
14.823600491088751
 31
0.0
  0
LINE
  5
E45
  8
0
 62
     0
 10
31.012402151524121
 20
10.49999999999998
 30
0.0
 11
27.484296789270221
 21
14.02810536225388
 31
0.0
  0
LINE
  5
E46
  8
0
 62
     0
 10
30.216907022689259
 20
10.49999999999998
 30
0.0
 11
27.484296789270221
 21
13.23261023341902
 31
0.0
  0
LINE
  5
E47
  8
0
 62
     0
 10
29.42141189385439
 20
10.49999999999998
 30
0.0
 11
27.205999999999939
 21
12.71541189385443
 31
0.0
  0
LINE
  5
E48
  8
0
 62
     0
 10
28.625916765019529
 20
10.49999999999998
 30
0.0
 11
27.205999999999928
 21
11.91991676501957
 31
0.0
  0
LINE
  5
E49
  8
0
 62
     0
 10
27.830421636184671
 20
10.49999999999997
 30
0.0
 11
27.205999999999939
 21
11.124421636184699
 31
0.0
  0
LINE
  5
E4A
  8
0
 62
     0
 10
39.013497938881287
 20
10.5
 30
0.0
 11
39.72170321072997
 21
11.20820527184868
 31
0.0
  0
LINE
  5
E4B
  8
0
 62
     0
 10
38.218002810046407
 20
10.499999999999989
 30
0.0
 11
39.721703210729991
 21
12.003700400683559
 31
0.0
  0
LINE
  5
E4C
  8
0
 62
     0
 10
37.422507681211563
 20
10.5
 30
0.0
 11
39.721703210729999
 21
12.799195529518441
 31
0.0
  0
LINE
  5
E4D
  8
0
 62
     0
 10
36.627012552376677
 20
10.499999999999989
 30
0.0
 11
39.721703210730027
 21
13.59469065835334
 31
0.0
  0
LINE
  5
E4E
  8
0
 62
     0
 10
35.831517423541811
 20
10.49999999999998
 30
0.0
 11
39.721703210730062
 21
14.390185787188219
 31
0.0
  0
LINE
  5
E4F
  8
0
 62
     0
 10
35.036022294706953
 20
10.49999999999998
 30
0.0
 11
39.721703210730077
 21
15.18568091602312
 31
0.0
  0
LINE
  5
E50
  8
0
 62
     0
 10
34.240527165872066
 20
10.49999999999998
 30
0.0
 11
39.721703210730112
 21
15.981176044858019
 31
0.0
  0
LINE
  5
E51
  8
0
 62
     0
 10
33.445032037037201
 20
10.49999999999998
 30
0.0
 11
39.721703210730119
 21
16.7766711736929
 31
0.0
  0
LINE
  5
E52
  8
0
 62
     0
 10
32.649536908202343
 20
10.49999999999997
 30
0.0
 11
40.000000000000227
 21
17.85046309179786
 31
0.0
  0
LINE
  5
E53
  8
0
 62
     0
 10
31.854041779367471
 20
10.49999999999998
 30
0.0
 11
40.00000000000022
 21
18.645958220632728
 31
0.0
  0
LINE
  5
E54
  8
0
 62
     0
 10
31.058546650532609
 20
10.49999999999998
 30
0.0
 11
40.000000000000227
 21
19.441453349467601
 31
0.0
  0
LINE
  5
E55
  8
0
 62
     0
 10
30.263051521697729
 20
10.49999999999997
 30
0.0
 11
39.763051521697768
 21
20.000000000000011
 31
0.0
  0
LINE
  5
E56
  8
0
 62
     0
 10
29.467556392862871
 20
10.49999999999997
 30
0.0
 11
38.967556392862903
 21
20.0
 31
0.0
  0
LINE
  5
E57
  8
0
 62
     0
 10
28.672061264027992
 20
10.499999999999959
 30
0.0
 11
38.172061264028031
 21
19.999999999999989
 31
0.0
  0
LINE
  5
E58
  8
0
 62
     0
 10
27.87656613519313
 20
10.499999999999959
 30
0.0
 11
37.376566135193158
 21
19.999999999999979
 31
0.0
  0
LINE
  5
E59
  8
0
 62
     0
 10
27.205999999999928
 20
10.624928993641641
 30
0.0
 11
36.581071006358293
 21
19.999999999999989
 31
0.0
  0
LINE
  5
E5A
  8
0
 62
     0
 10
27.205999999999939
 20
11.420424122476501
 30
0.0
 11
35.785575877523428
 21
20.0
 31
0.0
  0
LINE
  5
E5B
  8
0
 62
     0
 10
27.205999999999928
 20
12.215919251311361
 30
0.0
 11
34.990080748688563
 21
19.999999999999989
 31
0.0
  0
LINE
  5
E5C
  8
0
 62
     0
 10
27.484296789270221
 20
13.28971116941652
 30
0.0
 11
34.19458561985369
 21
19.999999999999979
 31
0.0
  0
LINE
  5
E5D
  8
0
 62
     0
 10
27.484296789270221
 20
14.08520629825138
 30
0.0
 11
33.399090491018832
 21
19.999999999999989
 31
0.0
  0
LINE
  5
E5E
  8
0
 62
     0
 10
27.484296789270221
 20
14.880701427086249
 30
0.0
 11
32.603595362183952
 21
19.999999999999979
 31
0.0
  0
LINE
  5
E5F
  8
0
 62
     0
 10
27.484296789270221
 20
15.676196555921109
 30
0.0
 11
31.80810023334908
 21
19.999999999999972
 31
0.0
  0
LINE
  5
E60
  8
0
 62
     0
 10
27.484296789270221
 20
16.471691684755982
 30
0.0
 11
31.012605104514218
 21
19.999999999999979
 31
0.0
  0
LINE
  5
E61
  8
0
 62
     0
 10
27.484296789270211
 20
17.26718681359084
 30
0.0
 11
30.217109975679339
 21
19.999999999999972
 31
0.0
  0
LINE
  5
E62
  8
0
 62
     0
 10
27.484296789270221
 20
18.062681942425709
 30
0.0
 11
29.42161484684447
 21
19.999999999999972
 31
0.0
  0
LINE
  5
E63
  8
0
 62
     0
 10
27.484296789270221
 20
18.858177071260581
 30
0.0
 11
28.626119718009608
 21
19.999999999999972
 31
0.0
  0
LINE
  5
E64
  8
0
 62
     0
 10
27.484296789270221
 20
19.653672200095439
 30
0.0
 11
27.830624589174729
 21
19.999999999999961
 31
0.0
  0
ENDBLK
  5
E66
  8
0
  0
ENDSEC
  0
SECTION
  2
ENTITIES
  0
LINE
  5
84D
  8
4
  6
CENTER2
 10
0.0
 20
0.0
 30
0.0
 11
39.554358042473638
 21
0.0000000000000007
 31
0.0
  0
LINE
  5
84E
  8
0
 10
3.0
 20
3.0
 30
0.0
 11
-3.0
 21
-3.0
 31
0.0
  0
LINE
  5
84F
  8
0
 10
-3.0
 20
3.0
 30
0.0
 11
3.0
 21
-3.0
 31
0.0
  0
CIRCLE
  5
852
  8
0
 10
0.0
 20
0.0
 30
0.0
 40
2.5
  0
LINE
  5
C33
  8
1
  6
CONTINUOUS
 10
39.100000000000023
 20
10.50000000000003
 30
0.0
 11
39.100000000000023
 21
9.9526865712153914
 31
0.0
  0
LINE
  5
C34
  8
1
  6
CONTINUOUS
 10
39.100000000000023
 20
9.9526865712153914
 30
0.0
 11
15.31727666023516
 21
17.5
 31
0.0
  0
LINE
  5
C35
  8
SK4
  6
CENTER2
 10
-0.0000000000001137
 20
-0.0000011515909941
 30
0.0
 11
-23.0
 21
0.0000000000001705
 31
0.0
1001
GRPNAME
1000
PASTMD01
  0
LINE
  5
C37
  8
1
  6
CONTINUOUS
 10
0.0000000000003093
 20
-14.5
 30
0.0
 11
-0.0000000000002311
 21
14.5
 31
0.0
  0
LINE
  5
C38
  8
1
  6
CONTINUOUS
 10
39.400000000000098
 20
-19.300000000000001
 30
0.0
 11
28.100000000000001
 21
-19.600000000000009
 31
0.0
  0
LINE
  5
C39
  8
1
  6
CONTINUOUS
 10
27.353589838485789
 20
-19.39999999999991
 30
0.0
 11
23.400000000012479
 21
-19.40000000000714
 31
0.0
  0
LINE
  5
C3A
  8
1
  6
CONTINUOUS
 10
27.353589838485789
 20
-19.39999999999991
 30
0.0
 11
28.100000000000001
 21
-19.600000000000009
 31
0.0
  0
LINE
  5
C3B
  8
1
  6
CONTINUOUS
 10
27.35358983848554
 20
19.39999999999991
 30
0.0
 11
23.400000000013961
 21
19.40000000000714
 31
0.0
  0
LINE
  5
C3C
  8
1
  6
CONTINUOUS
 10
27.35358983848554
 20
19.39999999999991
 30
0.0
 11
27.484296789270221
 21
19.435022821907761
 31
0.0
  0
LINE
  5
C3D
  8
1
  6
CONTINUOUS
 10
19.898130525275288
 20
17.5
 30
0.0
 11
4.9999999999999112
 21
17.5
 31
0.0
  0
LINE
  5
C3E
  8
1
  6
CONTINUOUS
 10
19.898130525275182
 20
-17.5
 30
0.0
 11
4.9999999999999112
 21
-17.5
 31
0.0
  0
LINE
  5
C3F
  8
1
  6
CONTINUOUS
 10
5.0
 20
-17.40076818024102
 30
0.0
 11
5.0
 21
17.316496580927769
 31
0.0
  0
LINE
  5
C40
  8
1
  6
CONTINUOUS
 10
3.2679491924311481
 20
14.5
 30
0.0
 11
-0.0000000000002309
 21
14.5
 31
0.0
  0
LINE
  5
C41
  8
1
  6
CONTINUOUS
 10
3.2679491924311481
 20
-14.5
 30
0.0
 11
0.0
 21
-14.5
 31
0.0
  0
LINE
  5
C42
  8
1
  6
CONTINUOUS
 10
23.400000000010671
 20
-19.40000000000526
 30
0.0
 11
23.400000000010671
 21
-8.1806169446350676
 31
0.0
  0
LINE
  5
C43
  8
1
  6
CONTINUOUS
 10
21.300000000005241
 20
-17.29999999999982
 30
0.0
 11
21.300000000005241
 21
-16.732917920942409
 31
0.0
  0
LINE
  5
C44
  8
1
  6
CONTINUOUS
 10
23.400000000012479
 20
-19.40000000000714
 30
0.0
 11
21.300000000005241
 21
-17.299999999999891
 31
0.0
  0
LINE
  5
C45
  8
1
  6
CONTINUOUS
 10
23.400000000010671
 20
19.400000000005321
 30
0.0
 11
21.300000000005351
 21
17.300000000000011
 31
0.0
  0
LINE
  5
C46
  8
1
  6
CONTINUOUS
 10
21.300000000005351
 20
17.300000000000011
 30
0.0
 11
20.290652626376531
 21
17.300000000000011
 31
0.0
  0
LINE
  5
C47
  8
1
  6
CONTINUOUS
 10
19.898130525275288
 20
17.5
 30
0.0
 11
20.290652626376531
 21
17.300000000000011
 31
0.0
  0
LINE
  5
C48
  8
1
  6
CONTINUOUS
 10
21.300000000005241
 20
-17.299999999999891
 30
0.0
 11
20.290652626376531
 21
-17.299999999999891
 31
0.0
  0
LINE
  5
C49
  8
1
  6
CONTINUOUS
 10
19.898130525275288
 20
-17.499999999999879
 30
0.0
 11
20.290652626376531
 21
-17.299999999999891
 31
0.0
  0
LINE
  5
C4A
  8
1
  6
CONTINUOUS
 10
4.9999999999999112
 20
-17.5
 30
0.0
 11
3.2679491924311481
 21
-14.5
 31
0.0
  0
LINE
  5
C4B
  8
1
  6
CONTINUOUS
 10
3.267949192431046
 20
-14.5
 30
0.0
 11
3.267949192431046
 21
14.499999999999821
 31
0.0
  0
LINE
  5
C4C
  8
1
  6
CONTINUOUS
 10
4.9999999999999112
 20
17.5
 30
0.0
 11
3.2679491924311481
 21
14.5
 31
0.0
  0
LINE
  5
C4D
  8
SK1
  6
CONTINUOUS
 10
-5.499999999999992
 20
-8.5000000000000568
 30
0.0
 11
-0.9999999999998864
 21
-8.5000000000000568
 31
0.0
  0
LINE
  5
C4E
  8
SK1
  6
CONTINUOUS
 10
-0.9999999999998864
 20
8.4999999999999432
 30
0.0
 11
-5.500000000000389
 21
8.4999999999999432
 31
0.0
  0
LINE
  5
C4F
  8
SK1
  6
CONTINUOUS
 10
-0.4112168483483174
 20
8.1999999999999336
 30
0.0
 11
0.0
 21
8.1999999999999336
 31
0.0
  0
LINE
  5
C50
  8
SK1
  6
CONTINUOUS
 10
-0.4112168483483174
 20
8.1999999999999336
 30
0.0
 11
-0.4112168483483174
 21
-8.2000000000000455
 31
0.0
  0
LINE
  5
C51
  8
SK1
  6
CONTINUOUS
 10
-0.4112168483483174
 20
8.1999999999999336
 30
0.0
 11
-0.9999999999998864
 21
8.4999999999999432
 31
0.0
  0
LINE
  5
C52
  8
SK1
  6
CONTINUOUS
 10
-5.500000000000111
 20
-8.5000000000000568
 30
0.0
 11
-5.500000000000111
 21
8.4817165220011912
 31
0.0
  0
LINE
  5
C53
  8
SK1
  6
CONTINUOUS
 10
-6.3660254037846471
 20
8.0000000000000568
 30
0.0
 11
-21.267949192431391
 21
8.0
 31
0.0
  0
LINE
  5
C54
  8
SK1
  6
CONTINUOUS
 10
-21.267949192431391
 20
8.0
 30
0.0
 11
-22.999999999999758
 21
7.0000000000002141
 31
0.0
  0
LINE
  5
C55
  8
SK1
  6
CONTINUOUS
 10
-8.4999999999998863
 20
-8.0
 30
0.0
 11
-8.5000000000001137
 21
8.0000000000000568
 31
0.0
  0
LINE
  5
C56
  8
SK1
  6
CONTINUOUS
 10
-21.26794919243185
 20
-8.0
 30
0.0
 11
-21.267949192431391
 21
8.0
 31
0.0
  0
LINE
  5
C57
  8
SK1
  6
CONTINUOUS
 10
-8.4980762113534638
 20
-7.0
 30
0.0
 11
-22.999999999999929
 21
-7.000000000000056
 31
0.0
  0
LINE
  5
C58
  8
SK1
  6
CONTINUOUS
 10
-6.3660254037846471
 20
-8.0
 30
0.0
 11
-21.267949192431391
 21
-8.0
 31
0.0
  0
LINE
  5
C59
  8
SK1
  6
CONTINUOUS
 10
-22.999999999999758
 20
7.0000000000002141
 30
0.0
 11
-23.000000000000242
 21
-6.999999999999873
 31
0.0
  0
LINE
  5
C5A
  8
SK1
  6
CONTINUOUS
 10
-8.4980762113534638
 20
-7.0
 30
0.0
 11
-6.7660254037846244
 21
-8.0
 31
0.0
  0
LINE
  5
C5B
  8
SK1
  6
CONTINUOUS
 10
-8.4980762113533501
 20
7.000000000000056
 30
0.0
 11
-22.99999999999995
 21
7.000000000000111
 31
0.0
  0
LINE
  5
C5C
  8
SK1
  6
CONTINUOUS
 10
-8.4980762113533501
 20
7.000000000000056
 30
0.0
 11
-6.7660254037843961
 21
8.0000000000001137
 31
0.0
  0
LINE
  5
C5D
  8
SK1
  6
CONTINUOUS
 10
-6.366025403784529
 20
8.0000000000001137
 30
0.0
 11
-5.500000000000389
 21
8.4999999999999432
 31
0.0
  0
LINE
  5
C5E
  8
SK1
  6
CONTINUOUS
 10
-21.267949192431391
 20
-8.0
 30
0.0
 11
-23.000000000000242
 21
-6.999999999999873
 31
0.0
  0
LINE
  5
C5F
  8
SK1
  6
CONTINUOUS
 10
-6.366025403784529
 20
-8.0
 30
0.0
 11
-5.499999999999992
 21
-8.5000000000000568
 31
0.0
  0
LINE
  5
C60
  8
SK1
  6
CONTINUOUS
 10
-0.4112168483460505
 20
-8.2000000000000455
 30
0.0
 11
0.000000000002267
 21
-8.1999999999999336
 31
0.0
  0
LINE
  5
C61
  8
SK1
  6
CONTINUOUS
 10
-0.4112168483460505
 20
-8.2000000000000455
 30
0.0
 11
-0.9999999999975363
 21
-8.5000000000002203
 31
0.0
  0
LINE
  5
C62
  8
SK1
  6
CONTINUOUS
 10
-0.9999999999998864
 20
8.4999999999999432
 30
0.0
 11
-0.9999999999998864
 21
-8.5000000000000568
 31
0.0
  0
LINE
  5
C64
  8
1
  6
CONTINUOUS
 10
39.721703210730148
 20
17.299999999999951
 30
0.0
 11
39.72170321073002
 21
10.50000000000003
 31
0.0
1001
GRPNAME
1000
PASTMD03
  0
LINE
  5
C65
  8
1
  6
CONTINUOUS
 10
40.000000000000227
 20
17.631661198420041
 30
0.0
 11
39.721703210730148
 21
17.299999999999951
 31
0.0
1001
GRPNAME
1000
PASTMD03
  0
LINE
  5
C66
  8
1
  6
CONTINUOUS
 10
40.000000000000227
 20
20.0
 30
0.0
 11
40.000000000000227
 21
17.631661198420041
 31
0.0
1001
GRPNAME
1000
PASTMD03
  0
LINE
  5
C67
  8
1
  6
CONTINUOUS
 10
27.484296789270221
 20
19.999999999999972
 30
0.0
 11
40.000000000000227
 21
20.0
 31
0.0
1001
GRPNAME
1000
PASTMD03
  0
LINE
  5
C68
  8
1
  6
CONTINUOUS
 10
27.484296789270221
 20
13.63886462469916
 30
0.0
 11
27.484296789270221
 21
19.999999999999972
 31
0.0
1001
GRPNAME
1000
PASTMD03
  0
CIRCLE
  5
C6A
  8
1
  6
CONTINUOUS
 10
33.60300000000008
 20
15.159999999999981
 30
0.0
 40
2.8999999999999999
  0
LINE
  5
C6C
  8
1
  6
CONTINUOUS
 10
37.375332808191203
 20
10.50000000000003
 30
0.0
 11
39.72170321073002
 21
10.50000000000003
 31
0.0
  0
LINE
  5
C6D
  8
1
  6
CONTINUOUS
 10
27.484296789270221
 20
19.999999999999972
 30
0.0
 11
33.003221757405427
 21
17.997299078297839
 31
0.0
  0
LINE
  5
C6E
  8
1
  6
CONTINUOUS
 10
35.882785716557812
 20
16.952366337158711
 30
0.0
 11
39.721703210730148
 21
15.559304527420929
 31
0.0
  0
LINE
  5
C6F
  8
1
  6
CONTINUOUS
 10
27.484296789270221
 20
14.94069547257906
 30
0.0
 11
31.152167762623431
 21
13.60970282067114
 31
0.0
  0
LINE
  5
C70
  8
1
  6
CONTINUOUS
 10
34.489260445280031
 20
12.398742601072421
 30
0.0
 11
39.72170321073002
 21
10.50000000000003
 31
0.0
  0
LINE
  5
C71
  8
1
  6
CONTINUOUS
 10
39.721703210730148
 20
-17.299999999999979
 30
0.0
 11
39.72170321073002
 21
-10.50000000000003
 31
0.0
1001
GRPNAME
1000
PASTMD03
  0
LINE
  5
C72
  8
1
  6
CONTINUOUS
 10
40.000000000000227
 20
-17.63166119842009
 30
0.0
 11
39.721703210730148
 21
-17.299999999999979
 31
0.0
1001
GRPNAME
1000
PASTMD03
  0
LINE
  5
C73
  8
1
  6
CONTINUOUS
 10
40.000000000000227
 20
-20.0
 30
0.0
 11
40.000000000000227
 21
-17.63166119842009
 31
0.0
1001
GRPNAME
1000
PASTMD03
  0
LINE
  5
C74
  8
1
  6
CONTINUOUS
 10
27.484296789270221
 20
-20.0
 30
0.0
 11
40.000000000000227
 21
-20.0
 31
0.0
1001
GRPNAME
1000
PASTMD03
  0
LINE
  5
C75
  8
1
  6
CONTINUOUS
 10
39.400000000000098
 20
-10.50000000000003
 30
0.0
 11
39.72170321073002
 21
-10.50000000000003
 31
0.0
  0
LINE
  5
C76
  8
1
  6
CONTINUOUS
 10
27.484296789270221
 20
-19.43502282190774
 30
0.0
 11
27.484296789270221
 21
-20.0
 31
0.0
1001
GRPNAME
1000
PASTMD03
  0
LINE
  5
C77
  8
1
  6
CONTINUOUS
 10
19.898130525275182
 20
-10.31204474086212
 30
0.0
 11
19.898130525275182
 21
-7.5631428733198138
 31
0.0
  0
LINE
  5
C78
  8
1
  6
CONTINUOUS
 10
39.400000000000098
 20
9.8574832592864325
 30
0.0
 11
39.400000000000098
 21
1.4686186725338071
 31
0.0
1001
GRPNAME
1000
PASTMD01
  0
LINE
  5
C7A
  8
1
  6
CONTINUOUS
 10
39.400000000000112
 20
-4.0216178594402834
 30
0.0
 11
39.400000000000098
 21
-19.300000000000001
 31
0.0
  0
LINE
  5
C7B
  8
1
  6
CONTINUOUS
 10
39.100000000000023
 20
9.9526865712153914
 30
0.0
 11
39.400000000000098
 21
9.8574832592864325
 31
0.0
  0
LINE
  5
C7C
  8
2
  6
CONTINUOUS
 10
29.00000000000021
 20
20.5
 30
0.0
 11
29.00000000000021
 21
29.0
 31
0.0
  0
LINE
  5
C7D
  8
2
  6
CONTINUOUS
 10
31.230000000000221
 20
28.0
 30
0.0
 11
37.770000000000188
 21
28.0
 31
0.0
  0
LINE
  5
C7E
  8
2
  6
CONTINUOUS
 10
40.500000000000213
 20
-20.0
 30
0.0
 11
54.500000000000199
 21
-20.0
 31
0.0
  0
LINE
  5
C7F
  8
2
  6
CONTINUOUS
 10
40.500000000000213
 20
20.0
 30
0.0
 11
54.500000000000199
 21
20.0
 31
0.0
  0
LINE
  5
C80
  8
2
  6
CONTINUOUS
 10
53.500000000000199
 20
-17.77000000000001
 30
0.0
 11
53.500000000000199
 21
17.769999999999989
 31
0.0
  0
TEXT
  5
C81
  8
2
  6
CONTINUOUS
 10
52.500000000000213
 20
-4.0714285714285827
 30
0.0
 40
3.0
  1
\U+2205
 50
90.0
1001
ACAD
1000
MTEXTBEGIN
1070
    73
1070
     1
1070
    44
1040
1.0
1070
    74
1070
     0
1000
MTEXTEND
1000
MTEXTBEGIN
1070
    73
1070
     1
1070
    44
1040
1.0
1070
    74
1070
     0
1000
MTEXTEND
1000
MTEXTBEGIN
1070
    73
1070
     1
1070
    44
1040
1.0
1070
    74
1070
     0
1000
MTEXTEND
  0
TEXT
  5
C82
  8
2
  6
CONTINUOUS
 10
52.500000000000213
 20
-1.3571428571428601
 30
0.0
 40
3.0
  1
40
 50
90.0
1001
ACAD
1000
MTEXTBEGIN
1070
    73
1070
     1
1070
    44
1040
1.0
1070
    74
1070
     0
1000
MTEXTEND
1000
MTEXTBEGIN
1070
    73
1070
     1
1070
    44
1040
1.0
1070
    74
1070
     0
1000
MTEXTEND
1000
MTEXTBEGIN
1070
    73
1070
     1
1070
    44
1040
1.0
1070
    74
1070
     0
1000
MTEXTEND
  0
LINE
  5
C83
  8
2
  6
CONTINUOUS
 10
53.128333333333551
 20
17.769999999999989
 30
0.0
 11
53.500000000000199
 21
20.0
 31
0.0
  0
LINE
  5
C84
  8
2
  6
CONTINUOUS
 10
53.871666666666819
 20
17.769999999999989
 30
0.0
 11
53.500000000000199
 21
20.0
 31
0.0
  0
LINE
  5
C85
  8
2
  6
CONTINUOUS
 10
53.500000000000199
 20
20.0
 30
0.0
 11
53.500000000000199
 21
17.769999999999989
 31
0.0
  0
LINE
  5
C86
  8
2
  6
CONTINUOUS
 10
53.871666666666819
 20
-17.77000000000001
 30
0.0
 11
53.500000000000199
 21
-20.0
 31
0.0
  0
LINE
  5
C87
  8
2
  6
CONTINUOUS
 10
53.128333333333551
 20
-17.77000000000001
 30
0.0
 11
53.500000000000199
 21
-20.0
 31
0.0
  0
LINE
  5
C88
  8
2
  6
CONTINUOUS
 10
53.500000000000199
 20
-20.0
 30
0.0
 11
53.500000000000199
 21
-17.77000000000001
 31
0.0
  0
TEXT
  5
C89
  8
2
  6
CONTINUOUS
 10
32.412142737927269
 20
29.052361442763811
 30
0.0
 40
3.5
  1
11
1001
ACAD
1000
MTEXTBEGIN
1070
    73
1070
     1
1070
    44
1040
1.0
1070
    74
1070
     0
1000
MTEXTEND
1000
MTEXTBEGIN
1070
    73
1070
     1
1070
    44
1040
1.0
1070
    74
1070
     0
1000
MTEXTEND
1000
MTEXTBEGIN
1070
    73
1070
     1
1070
    44
1040
1.0
1070
    74
1070
     0
1000
MTEXTEND
  0
LINE
  5
C8A
  8
2
  6
CONTINUOUS
 10
37.770000000000188
 20
28.37166666666667
 30
0.0
 11
40.000000000000199
 21
28.0
 31
0.0
  0
LINE
  5
C8B
  8
2
  6
CONTINUOUS
 10
37.770000000000188
 20
27.62833333333333
 30
0.0
 11
40.000000000000199
 21
28.0
 31
0.0
  0
LINE
  5
C8C
  8
2
  6
CONTINUOUS
 10
40.000000000000199
 20
28.0
 30
0.0
 11
37.770000000000188
 21
28.0
 31
0.0
  0
LINE
  5
C8D
  8
2
  6
CONTINUOUS
 10
31.230000000000221
 20
27.62833333333333
 30
0.0
 11
29.00000000000021
 21
28.0
 31
0.0
  0
LINE
  5
C8E
  8
2
  6
CONTINUOUS
 10
31.230000000000221
 20
28.37166666666667
 30
0.0
 11
29.00000000000021
 21
28.0
 31
0.0
  0
LINE
  5
C8F
  8
2
  6
CONTINUOUS
 10
29.00000000000021
 20
28.0
 30
0.0
 11
31.230000000000221
 21
28.0
 31
0.0
  0
LINE
  5
C91
  8
SK6
  6
CONTINUOUS
 10
-16.623942255849379
 20
-15.131456390000009
 30
0.0
 11
-25.918636046832511
 21
-15.131456390000009
 31
0.0
1001
ITEMNAME
1000
LNSP2
  0
TEXT
  5
C92
  8
SK6
  6
CONTINUOUS
 10
-25.667822075131941
 20
-14.131456390000009
 30
0.0
 40
2.799999999999998
  1
M16
  7
YOKO
1001
ITEMNAME
1000
LNSP3
1001
ACAD
1000
MTEXTBEGIN
1070
    73
1070
     1
1070
    44
1040
1.0
1070
    74
1070
     0
1000
MTEXTEND
1000
MTEXTBEGIN
1070
    73
1070
     1
1070
    44
1040
1.0
1070
    74
1070
     0
1000
MTEXTEND
  0
LINE
  5
C93
  8
SK6
  6
CONTINUOUS
 10
-13.621593994942639
 20
-9.9312366509628163
 30
0.0
 11
-16.24319912584938
 21
-14.47198994
 31
0.0
1001
ACAD
1000
DSTYLE
1002
{
1070
     6
1000
OPEN
1070
   343
1005
0
1002
}
  0
LINE
  5
C94
  8
SK6
  6
CONTINUOUS
 10
-16.24319912584938
 20
-14.47198994
 30
0.0
 11
-16.623942255849379
 21
-15.131456390000009
 31
0.0
1001
ACAD
1000
DSTYLE
1002
{
1070
     6
1000
OPEN
1070
   343
1005
0
1002
}
  0
LINE
  5
C95
  8
SK6
  6
CONTINUOUS
 10
-13.9434667701031
 20
-9.7454033177805997
 30
0.0
 11
-12.50659399584938
 21
-8.0000000000000142
 31
0.0
  0
LINE
  5
C96
  8
SK6
  6
CONTINUOUS
 10
-13.29972121978218
 20
-10.11706998414502
 30
0.0
 11
-12.50659399584938
 21
-8.0000000000000142
 31
0.0
  0
LINE
  5
C97
  8
SK6
  6
CONTINUOUS
 10
-12.50659399584938
 20
-8.0000000000000142
 30
0.0
 11
-13.621593994942639
 21
-9.9312366509628163
 31
0.0
  0
LINE
  5
CAC
  8
1
  6
CONTINUOUS
 10
19.898130525275182
 20
1.955665068066595
 30
0.0
 11
19.898130525275182
 21
16.04629180195235
 31
0.0
  0
LINE
  5
CAD
  8
1
  6
CONTINUOUS
 10
21.300000000005291
 20
1.873212260098432
 30
0.0
 11
21.300000000005351
 21
15.60141641233097
 31
0.0
  0
LINE
  5
CAE
  8
2
  6
CONTINUOUS
 10
-0.0000000000002309
 20
15.0
 30
0.0
 11
-0.0000000000002296
 21
36.0
 31
0.0
  0
LINE
  5
CAF
  8
2
  6
CONTINUOUS
 10
40.000000000000227
 20
20.5
 30
0.0
 11
40.000000000000227
 21
36.0
 31
0.0
  0
LINE
  5
CB0
  8
2
  6
CONTINUOUS
 10
2.2299999999997682
 20
35.0
 30
0.0
 11
37.770000000000231
 21
35.0
 31
0.0
  0
TEXT
  5
CB1
  8
2
  6
CONTINUOUS
 10
17.333333333333329
 20
36.0
 30
0.0
 40
2.799999999999998
  1
40
  0
LINE
  5
CB2
  8
2
  6
CONTINUOUS
 10
37.770000000000231
 20
35.37166666666667
 30
0.0
 11
40.000000000000227
 21
35.0
 31
0.0
  0
LINE
  5
CB3
  8
2
  6
CONTINUOUS
 10
37.770000000000231
 20
34.62833333333333
 30
0.0
 11
40.000000000000227
 21
35.0
 31
0.0
  0
LINE
  5
CB4
  8
2
  6
CONTINUOUS
 10
40.000000000000227
 20
35.0
 30
0.0
 11
37.770000000000231
 21
35.0
 31
0.0
  0
LINE
  5
CB5
  8
2
  6
CONTINUOUS
 10
2.2299999999997682
 20
34.62833333333333
 30
0.0
 11
-0.0000000000002297
 21
35.0
 31
0.0
  0
LINE
  5
CB6
  8
2
  6
CONTINUOUS
 10
2.2299999999997682
 20
35.37166666666667
 30
0.0
 11
-0.0000000000002297
 21
35.0
 31
0.0
  0
LINE
  5
CB7
  8
2
  6
CONTINUOUS
 10
-0.0000000000002297
 20
35.0
 30
0.0
 11
2.2299999999997682
 21
35.0
 31
0.0
  0
LINE
  5
CB8
  8
1
  6
CONTINUOUS
 10
39.400000000000148
 20
1.592802279460626
 30
0.0
 11
28.590494189148909
 21
3.498809802038636
 31
0.0
  0
LINE
  5
CB9
  8
1
  6
CONTINUOUS
 10
27.105124597070201
 20
0.4533508212379047
 30
0.0
 11
39.400000000000098
 21
-4.0216178594402834
 31
0.0
  0
LINE
  5
CBA
  8
1
  6
CONTINUOUS
 10
39.400000000000098
 20
-4.0216178594402834
 30
0.0
 11
40.00000000000005
 21
-4.2400000000000091
 31
0.0
  0
LINE
  5
CBB
  8
1
  6
CONTINUOUS
 10
17.27319191595527
 20
-7.1002953737933581
 30
0.0
 11
39.400000000000098
 21
-11.001848635968649
 31
0.0
  0
ARC
  5
CBC
  8
1
  6
CONTINUOUS
 10
18.087097930055851
 20
-2.4844049931469661
 30
0.0
 40
4.687097930055768
 50
79.999982399904269
 51
259.99999999999818
  0
LINE
  5
CBD
  8
1
  6
CONTINUOUS
 10
27.209105346751642
 20
0.6665429517598512
 30
0.0
 11
18.901003944156631
 21
2.1314853874994082
 31
0.0
  0
LINE
  5
CBE
  8
1
  6
CONTINUOUS
 10
28.590494189148909
 20
3.498809802038636
 30
0.0
 11
27.105124597070201
 21
0.4533508212379047
 31
0.0
  0
LINE
  5
CBF
  8
1
  6
CONTINUOUS
 10
39.386701316280003
 20
1.5951471962084141
 30
0.0
 11
39.400000000000098
 21
1.4686186725338339
 31
0.0
  0
LINE
  5
CC0
  8
1
  6
CONTINUOUS
 10
39.400000000000098
 20
1.4686186725338071
 30
0.0
 11
40.00000000000005
 21
-4.2400000000000357
 31
0.0
  0
LINE
  5
CC2
  8
1
  6
CONTINUOUS
 10
20.899999999999999
 20
-17.299999999999891
 30
0.0
 11
20.899999999999999
 21
-10.31204474086212
 31
0.0
  0
LINE
  5
CC3
  8
1
  6
CONTINUOUS
 10
5.0
 20
-10.31204474086212
 30
0.0
 11
20.899999999999999
 21
-10.31204474086212
 31
0.0
  0
LINE
  5
CC4
  8
1
  6
CONTINUOUS
 10
5.0
 20
-17.40076818024102
 30
0.0
 11
20.092883937214541
 21
-17.400768180241009
 31
0.0
  0
ARC
  5
CC5
  8
1
  6
CONTINUOUS
 10
11.52779903415931
 20
-13.85640646055157
 30
0.0
 40
7.4279647434792757
 50
151.49962019873129
 51
208.50037980126851
  0
ARC
  5
CC6
  8
1
  6
CONTINUOUS
 10
15.73977272727276
 20
-13.85640646055157
 30
0.0
 40
6.2602272727272412
 50
326.6278522795746
 51
34.483675907520222
  0
LINE
  5
CC7
  8
1
  6
CONTINUOUS
 10
21.300000000005241
 20
-10.97989500016075
 30
0.0
 11
21.300000000005259
 21
-7.8103302851463319
 31
0.0
  0
LINE
  5
CC8
  8
1
  6
CONTINUOUS
 10
23.400000000010671
 20
1.3381909967512571
 30
0.0
 11
23.400000000010671
 21
14.93499322882672
 31
0.0
  0
LINE
  5
CC9
  8
1
  6
CONTINUOUS
 10
5.0
 20
-17.400768180241009
 30
0.0
 11
20.899999999999999
 21
-10.31204474086212
 31
0.0
  0
LINE
  5
CCA
  8
1
  6
CONTINUOUS
 10
5.0
 20
-10.31204474086212
 30
0.0
 11
20.899999999999999
 21
-17.299999999999891
 31
0.0
  0
LINE
  5
CE2
  8
CUT
  6
CONTINUOUS
 10
39.721703210730141
 20
17.299999999999951
 30
0.0
 11
39.721703210730027
 21
10.50000000000003
 31
0.0
1001
GRPNAME
1000
PASTMD03
  0
LINE
  5
CE3
  8
CUT
  6
CONTINUOUS
 10
40.000000000000227
 20
17.631661198420041
 30
0.0
 11
39.721703210730141
 21
17.299999999999951
 31
0.0
1001
GRPNAME
1000
PASTMD03
  0
LINE
  5
CE4
  8
CUT
  6
CONTINUOUS
 10
40.000000000000227
 20
20.0
 30
0.0
 11
40.000000000000227
 21
17.631661198420041
 31
0.0
1001
GRPNAME
1000
PASTMD03
  0
LINE
  5
CE5
  8
CUT
  6
CONTINUOUS
 10
27.484296789270221
 20
19.999999999999972
 30
0.0
 11
40.000000000000227
 21
20.0
 31
0.0
1001
GRPNAME
1000
PASTMD03
  0
LINE
  5
CE6
  8
CUT
  6
CONTINUOUS
 10
27.484296789270221
 20
13.20000000000025
 30
0.0
 11
27.484296789270221
 21
19.999999999999972
 31
0.0
1001
GRPNAME
1000
PASTMD03
  0
LINE
  5
D2A
  8
CUT
  6
CONTINUOUS
 10
27.205999999999928
 20
12.868338801579929
 30
0.0
 11
27.484296789270221
 21
13.20000000000025
 31
0.0
1001
GRPNAME
1000
PASTMD03
  0
LINE
  5
D2B
  8
CUT
  6
CONTINUOUS
 10
27.205999999999928
 20
10.49999999999997
 30
0.0
 11
27.205999999999928
 21
12.868338801579929
 31
0.0
1001
GRPNAME
1000
PASTMD03
  0
LINE
  5
D2C
  8
CUT
  6
CONTINUOUS
 10
39.721703210729942
 20
10.5
 30
0.0
 11
27.205999999999928
 21
10.49999999999997
 31
0.0
1001
GRPNAME
1000
PASTMD03
  0
LINE
  5
D42
  8
NOCUT
  6
CONTINUOUS
 10
0.0
 20
0.0
 30
0.0
 11
39.400000000000063
 21
-0.0000000000000009
 31
0.0
  0
LINE
  5
D43
  8
NOCUT
  6
CONTINUOUS
 10
0.00000000000027
 20
14.5
 30
0.0
 11
0.0
 21
0.0
 31
0.0
  0
LINE
  5
D44
  8
NOCUT
  6
CONTINUOUS
 10
39.400000000000063
 20
19.300000000000001
 30
0.0
 11
28.099999999999969
 21
19.600000000000009
 31
0.0
  0
LINE
  5
D45
  8
NOCUT
  6
CONTINUOUS
 10
27.35358983848575
 20
19.39999999999991
 30
0.0
 11
23.40000000001244
 21
19.40000000000714
 31
0.0
  0
LINE
  5
D46
  8
NOCUT
  6
CONTINUOUS
 10
27.35358983848575
 20
19.39999999999991
 30
0.0
 11
28.099999999999969
 21
19.600000000000009
 31
0.0
  0
LINE
  5
D47
  8
NOCUT
  6
CONTINUOUS
 10
19.89813052527515
 20
17.5
 30
0.0
 11
4.9999999999998721
 21
17.5
 31
0.0
  0
LINE
  5
D48
  8
NOCUT
  6
CONTINUOUS
 10
3.2679491924311028
 20
14.5
 30
0.0
 11
-0.0000000000000426
 21
14.5
 31
0.0
  0
LINE
  5
D4A
  8
NOCUT
  6
CONTINUOUS
 10
23.40000000001244
 20
19.40000000000714
 30
0.0
 11
21.300000000005198
 21
17.299999999999891
 31
0.0
  0
LINE
  5
D4B
  8
NOCUT
  6
CONTINUOUS
 10
21.300000000005198
 20
17.299999999999891
 30
0.0
 11
20.290652626376492
 21
17.299999999999891
 31
0.0
  0
LINE
  5
D4C
  8
NOCUT
  6
CONTINUOUS
 10
19.898130525275249
 20
17.499999999999879
 30
0.0
 11
20.290652626376492
 21
17.299999999999891
 31
0.0
  0
LINE
  5
D4D
  8
NOCUT
  6
CONTINUOUS
 10
4.9999999999998721
 20
17.5
 30
0.0
 11
3.2679491924311028
 21
14.5
 31
0.0
  0
LINE
  5
D4E
  8
NOCUT
  6
CONTINUOUS
 10
39.400000000000063
 20
-0.0000000000000009
 30
0.0
 11
39.400000000000063
 21
19.300000000000001
 31
0.0
  0
INSERT
  5
D89
  8
7
  6
CONTINUOUS
  2
*X24
 10
0.0
 20
0.0
 30
0.0
1001
GENIUS_GENODEF_13
1002
{
1000
HIER
1070
     0
1002
}
1002
{
1000
MANEDIT
1070
     0
1002
}
1002
{
1000
NOSEL
1070
     0
1002
}
1002
{
1000
BEHIND
1070
     0
1002
}
1002
{
1000
OTHER
1070
     0
1002
}
1002
{
1000
REACTOR
1002
}
1001
GENIUS_GENOBJ-N-HTC_13
1002
{
1000
OWNER
1000
GEN
1002
}
1001
GENIUS_GENHATCH_13
1002
{
1000
DATA
1040
0.0
1042
4.5
1000
ANSI37
1070
     1
1011
33.915639862686248
1021
0.0
1031
0.0
1021
14.21989269317009
1031
0.0
1002
}
1002
{
1000
UCS
1010
0.0
1020
0.0
1030
0.0
1010
1.0
1020
0.0
1030
0.0
1010
0.0
1020
1.0
1030
0.0
1002
}
1001
ACAD
1000
HATCH
1002
{
1070
    19
1000
ANSI37
1040
4.5
1040
0.0
1000
R14_HATCH_DATA
1000
D89
1011
1.0
1021
0.0
1031
0.0
1021
0.0
1031
0.0
1011
0.0
1021
0.0
1031
0.0
1021
1.0
1031
0.0
1011
0.0
1021
0.0
1031
0.0
1021
0.0
1031
1.0
1040
0.0
1010
0.0
1020
0.0
1030
1.0
1000
ANSI37
1070
     0
1070
     0
1071
        1
1071
        1
1071
        8
1070
     1
1040
39.721703210730141
1040
17.299999999999951
1040
40.000000000000227
1040
17.631661198420041
1070
     1
1040
40.000000000000227
1040
17.631661198420041
1040
40.000000000000227
1040
20.0
1070
     1
1040
40.000000000000227
1040
20.0
1040
27.484296789270221
1040
19.999999999999972
1070
     1
1040
27.484296789270221
1040
19.999999999999972
1040
27.484296789270221
1040
13.20000000000025
1070
     1
1040
27.484296789270221
1040
13.20000000000025
1040
27.205999999999928
1040
12.868338801579929
1070
     1
1040
27.205999999999928
1040
12.868338801579929
1040
27.205999999999928
1040
10.49999999999997
1070
     1
1040
27.205999999999928
1040
10.49999999999997
1040
39.721703210729942
1040
10.5
1070
     1
1040
39.721703210729942
1040
10.5
1040
39.721703210730141
1040
17.299999999999951
1071
        0
1070
     0
1070
     1
1040
0.0
1040
4.5
1070
     0
1070
     2
1040
0.7853981633974483
1040
-45.332057967118772
1040
-0.660004053192381
1040
-0.397747564417433
1040
0.397747564417433
1070
     0
1040
2.3561944901923439
1040
-45.332057967118772
1040
-0.660004053192381
1040
-0.397747564417433
1040
-0.397747564417433
1070
     0
1071
        1
1040
-45.332057967118772
1040
-0.660004053192381
1040
0.0
1002
}
  0
TEXT
  5
D8A
  8
6
  6
CONTINUOUS
 10
-29.459811489700002
 20
61.406919313900012
 30
0.0
 40
3.5
  1
BIG DAISHOWA
 41
0.85
  0
TEXT
  5
D8B
  8
6
  6
CONTINUOUS
 10
-29.459811489700002
 20
56.156919313899998
 30
0.0
 40
3.5
  1
M16-FCM40114-40
 41
0.85
  0
ENDSEC
  0
EOF
