  0
SECTION
  2
HEADER
  9
$ACADVER
  1
AC1009
  9
$INSBASE
 10
0.0
 20
0.0
 30
0.0
  9
$EXTMIN
 10
-46.459811489700002
 20
-24.600000000000009
 30
0.0
  9
$EXTMAX
 10
116.40000000000011
 20
64.906919313900005
 30
0.0
  9
$LIMMIN
 10
0.0
 20
0.0
  9
$LIMMAX
 10
420.0
 20
297.0
  9
$ORTHOMODE
 70
     1
  9
$REGENMODE
 70
     1
  9
$FILLMODE
 70
     1
  9
$QTEXTMODE
 70
     0
  9
$MIRRTEXT
 70
     0
  9
$DRAGMODE
 70
     2
  9
$LTSCALE
 40
23.100000000000001
  9
$OSMODE
 70
    39
  9
$ATTMODE
 70
     1
  9
$TEXTSIZE
 40
0.2
  9
$TRACEWID
 40
0.05
  9
$TEXTSTYLE
  7
STANDARD
  9
$CLAYER
  8
1
  9
$CELTYPE
  6
BYLAYER
  9
$CECOLOR
 62
   256
  9
$DIMSCALE
 40
1.0
  9
$DIMASZ
 40
3.5
  9
$DIMEXO
 40
1.0
  9
$DIMDLI
 40
15.960000000000001
  9
$DIMRND
 40
0.0
  9
$DIMDLE
 40
0.0
  9
$DIMEXE
 40
1.5
  9
$DIMTP
 40
0.01
  9
$DIMTM
 40
0.01
  9
$DIMTXT
 40
3.5
  9
$DIMCEN
 40
3.779999999999998
  9
$DIMTSZ
 40
0.0
  9
$DIMTOL
 70
     1
  9
$DIMLIM
 70
     0
  9
$DIMTIH
 70
     1
  9
$DIMTOH
 70
     1
  9
$DIMSE1
 70
     0
  9
$DIMSE2
 70
     0
  9
$DIMTAD
 70
     0
  9
$DIMZIN
 70
     0
  9
$DIMBLK
  1
_FILLED
  9
$DIMASO
 70
     1
  9
$DIMSHO
 70
     1
  9
$DIMPOST
  1

  9
$DIMAPOST
  1

  9
$DIMALT
 70
     0
  9
$DIMALTD
 70
     2
  9
$DIMALTF
 40
25.399999999999999
  9
$DIMLFAC
 40
1.0
  9
$DIMTOFL
 70
     0
  9
$DIMTVP
 40
0.0
  9
$DIMTIX
 70
     0
  9
$DIMSOXD
 70
     0
  9
$DIMSAH
 70
     0
  9
$DIMBLK1
  1

  9
$DIMBLK2
  1

  9
$DIMSTYLE
  2
STANDARD
  9
$DIMCLRD
 70
     0
  9
$DIMCLRE
 70
     0
  9
$DIMCLRT
 70
     0
  9
$DIMTFAC
 40
1.0
  9
$DIMGAP
 40
0.625
  9
$LUNITS
 70
     2
  9
$LUPREC
 70
     2
  9
$SKETCHINC
 40
0.1
  9
$FILLETRAD
 40
0.0
  9
$AUNITS
 70
     0
  9
$AUPREC
 70
     0
  9
$MENU
  1
.
  9
$ELEVATION
 40
0.0
  9
$PELEVATION
 40
0.0
  9
$THICKNESS
 40
0.0
  9
$LIMCHECK
 70
     0
  9
$BLIPMODE
 70
     0
  9
$CHAMFERA
 40
0.0
  9
$CHAMFERB
 40
0.0
  9
$SKPOLY
 70
     0
  9
$TDCREATE
 40
2458360.6444212971
  9
$TDUPDATE
 40
2460768.5757887042
  9
$TDINDWG
 40
0.030725463
  9
$TDUSRTIMER
 40
0.0307253588
  9
$USRTIMER
 70
     1
  9
$ANGBASE
 50
0.0
  9
$ANGDIR
 70
     0
  9
$PDMODE
 70
     3
  9
$PDSIZE
 40
8.0
  9
$PLINEWID
 40
0.0
  9
$COORDS
 70
     1
  9
$SPLFRAME
 70
     0
  9
$SPLINETYPE
 70
     6
  9
$SPLINESEGS
 70
     8
  9
$ATTDIA
 70
     1
  9
$ATTREQ
 70
     1
  9
$HANDLING
 70
     1
  9
$HANDSEED
  5
F68
  9
$SURFTAB1
 70
     6
  9
$SURFTAB2
 70
     6
  9
$SURFTYPE
 70
     6
  9
$SURFU
 70
     6
  9
$SURFV
 70
     6
  9
$UCSNAME
  2

  9
$UCSORG
 10
0.0
 20
0.0
 30
0.0
  9
$UCSXDIR
 10
1.0
 20
0.0
 30
0.0
  9
$UCSYDIR
 10
0.0
 20
1.0
 30
0.0
  9
$PUCSNAME
  2

  9
$PUCSORG
 10
0.0
 20
0.0
 30
0.0
  9
$PUCSXDIR
 10
1.0
 20
0.0
 30
0.0
  9
$PUCSYDIR
 10
0.0
 20
1.0
 30
0.0
  9
$USERI1
 70
     0
  9
$USERI2
 70
     0
  9
$USERI3
 70
     0
  9
$USERI4
 70
     0
  9
$USERI5
 70
     0
  9
$USERR1
 40
0.0
  9
$USERR2
 40
0.0
  9
$USERR3
 40
0.0
  9
$USERR4
 40
0.0
  9
$USERR5
 40
0.0
  9
$WORLDVIEW
 70
     1
  9
$SHADEDGE
 70
     3
  9
$SHADEDIF
 70
    70
  9
$TILEMODE
 70
     1
  9
$MAXACTVP
 70
    64
  9
$PLIMCHECK
 70
     0
  9
$PEXTMIN
 10
1.0000000000000000E+020
 20
1.0000000000000000E+020
 30
1.0000000000000000E+020
  9
$PEXTMAX
 10
-1.0000000000000000E+020
 20
-1.0000000000000000E+020
 30
-1.0000000000000000E+020
  9
$PLIMMIN
 10
0.0
 20
0.0
  9
$PLIMMAX
 10
12.0
 20
9.0
  9
$UNITMODE
 70
     0
  9
$VISRETAIN
 70
     1
  9
$PLINEGEN
 70
     0
  9
$PSLTSCALE
 70
     1
  0
ENDSEC
  0
SECTION
  2
TABLES
  0
TABLE
  2
VPORT
 70
     1
  0
VPORT
  2
*ACTIVE
 70
     0
 10
0.0
 20
0.0
 11
1.0
 21
1.0
 12
34.268181490594138
 22
25.122333854449181
 13
0.0
 23
0.0
 14
1.0
 24
1.0
 15
0.0
 25
0.0
 16
0.0
 26
0.0
 36
1.0
 17
0.0
 27
0.0
 37
0.0
 40
132.3868984143854
 41
1.868146214099216
 42
50.0
 43
0.0
 44
0.0
 50
0.0
 51
0.0
 71
     0
 72
   100
 73
     1
 74
     1
 75
     1
 76
     1
 77
     0
 78
     0
  0
ENDTAB
  0
TABLE
  2
LTYPE
 70
    22
  0
LTYPE
  2
CONTINUOUS
 70
     0
  3
Solid line
 72
    65
 73
     0
 40
0.0
  0
LTYPE
  2
CENTER
 70
     0
  3
____ _ ____ _ ____ _ ____ _ ____ _ ____ _ ____
 72
    65
 73
     4
 40
0.6
 49
0.375
 49
-0.075
 49
0.075
 49
-0.075
  0
LTYPE
  2
AMCONSTR
 70
     0
  3
_______________________
 72
    65
 73
     2
 40
9999.0
 49
9999.0
 49
0.0
  0
LTYPE
  2
HIDDEN
 70
     0
  3
Hidden __ __ __ __ __ __ __ __ __ __ __ __ __ _
 72
    65
 73
     2
 40
0.375
 49
0.25
 49
-0.125
  0
LTYPE
  2
PHANTOM2
 70
     0
  3
Phantom (.5x) ___ _ _ ___ _ _ ___ _ _ ___ _ _
 72
    65
 73
     6
 40
1.25
 49
0.625
 49
-0.125
 49
0.125
 49
-0.125
 49
0.125
 49
-0.125
  0
LTYPE
  2
CENTER2
 70
     0
  3
Center (.5x) ___ _ ___ _ ___ _ ___ _ ___ _ ___
 72
    65
 73
     4
 40
1.125
 49
0.75
 49
-0.125
 49
0.125
 49
-0.125
  0
LTYPE
  2
HIDDEN2
 70
     0
  3
Hidden (.5x) _ _ _ _ _ _ _ _ _ _ _ _ _ _ _ _ _
 72
    65
 73
     2
 40
0.1875
 49
0.125
 49
-0.0625
  0
LTYPE
  2
AMZIGZAG2
 70
     0
  3
/\/-/\/-/\/-/\/-/\/-/\/
 72
    65
 73
     2
 40
0.4401
 49
0.0001
 49
-0.4400000000000003
  0
LTYPE
  2
ACANSTGB
 70
     0
  3
__ . . __ . .
 72
    65
 73
     6
 40
0.35433070866
 49
0.15748031496
 49
-0.03937007874
 49
0.03937007874
 49
-0.03937007874
 49
0.03937007874
 49
-0.03937007874
  0
LTYPE
  2
ACANSTGL
 70
     0
  3
_ _ _ _ _
 72
    65
 73
     2
 40
0.11811023622
 49
0.07874015748
 49
-0.03937007874
  0
ENDTAB
  0
TABLE
  2
LAYER
 70
    25
  0
LAYER
  2
0
 70
     0
 62
     7
  6
CONTINUOUS
  0
LAYER
  2
1
 70
     0
 62
     4
  6
CONTINUOUS
  0
LAYER
  2
2
 70
     0
 62
     7
  6
CONTINUOUS
  0
LAYER
  2
4
 70
     0
 62
     2
  6
CENTER
  0
LAYER
  2
6
 70
     0
 62
     5
  6
CONTINUOUS
  0
LAYER
  2
NOCUT
 70
     0
 62
     7
  6
CONTINUOUS
  0
LAYER
  2
SK1
 70
     0
 62
     4
  6
CONTINUOUS
  0
LAYER
  2
SK4
 70
     0
 62
     2
  6
CENTER
  0
LAYER
  2
DEFPOINTS
 70
     0
 62
     7
  6
CONTINUOUS
  0
LAYER
  2
SK6
 70
     0
 62
     5
  6
CONTINUOUS
  0
LAYER
  2
7
 70
     0
 62
     5
  6
CONTINUOUS
  0
LAYER
  2
CUT
 70
     0
 62
     1
  6
CONTINUOUS
  0
ENDTAB
  0
TABLE
  2
STYLE
 70
     7
  0
STYLE
  2
STANDARD
 70
     0
 40
0.0
 41
0.85
 50
0.0
 71
     0
 42
0.2
  3
txt
  4

  0
STYLE
  2
ACANSGDT
 70
     0
 40
0.0
 41
1.0
 50
0.0
 71
     0
 42
0.2
  3
amgdt.shx
  4

  0
STYLE
  2
YOKO
 70
     0
 40
0.0
 41
1.0
 50
0.0
 71
     0
 42
3.0
  3
romans.shx
  4
extfont.shx
  0
ENDTAB
  0
TABLE
  2
VIEW
 70
     0
  0
ENDTAB
  0
TABLE
  2
UCS
 70
     0
  0
ENDTAB
  0
TABLE
  2
APPID
 70
    22
  0
APPID
  2
ACAD
 70
     0
  0
APPID
  2
ACADANNOTATIVE
 70
     0
  0
APPID
  2
MCAD_NO_VIS
 70
     0
  0
APPID
  2
ACAD_TEMP_GRAPHIC
 70
     0
  0
APPID
  2
ACATTRIBSERVICES
 70
     0
  0
APPID
  2
DESIGNERASSEMBLIES
 70
     0
  0
APPID
  2
ACAD_DSTYLE_DIMJAG
 70
     0
  0
APPID
  2
ACAD_DSTYLE_DIMBREAK
 70
     0
  0
APPID
  2
ACAD_NAV_VCDISPLAY
 70
     0
  0
APPID
  2
ACAD_MLEADERVER
 70
     0
  0
APPID
  2
ACAD_DSTYLE_DIMARC_LENGTH_
 70
     0
  0
APPID
  2
ACAD_DSTYLE_DIM_LINETYPE
 70
     0
  0
APPID
  2
ACAD_DSTYLE_DIM_EXT1_LINETYPE
 70
     0
  0
APPID
  2
ACAD_DSTYLE_DIM_EXT2_LINETYPE
 70
     0
  0
APPID
  2
ACAECLAYERSTANDARD
 70
     0
  0
APPID
  2
GRPNAME
 70
     0
  0
APPID
  2
GENIUS_GENODEF_13
 70
     0
  0
APPID
  2
ITEMNAME
 70
     0
  0
APPID
  2
GENIUS_GENOBJ-N-FIL_13
 70
     0
  0
APPID
  2
ACAD_EXEMPT_FROM_CAD_STANDARDS
 70
     0
  0
APPID
  2
GENIUS_GENOBJ-N-HTC_13
 70
     0
  0
APPID
  2
GENIUS_GENHATCH_13
 70
     0
  0
ENDTAB
  0
TABLE
  2
DIMSTYLE
 70
    20
  0
DIMSTYLE
  2
STANDARD
 70
     0
  3

  4

  5

  6

  7

 40
1.0
 41
3.5
 42
1.0
 43
0.38
 44
1.5
 45
0.0
 46
0.0
 47
0.01
 48
0.01
140
3.5
141
0.09
142
0.0
143
25.399999999999999
144
1.0
145
0.0
146
1.0
147
0.625
 71
     1
 72
     0
 73
     0
 74
     0
 75
     0
 76
     0
 77
     1
 78
     8
170
     0
171
     1
172
     0
173
     0
174
     0
175
     0
176
     0
177
     0
178
     0
  0
DIMSTYLE
  2
AM_ANSI
 70
     0
  3

  4
mm
  5

  6

  7

 40
1.0
 41
0.12
 42
0.05
 43
0.5
 44
0.1
 45
0.0
 46
0.0
 47
0.1
 48
0.1
140
0.12
141
0.0
142
0.0
143
25.399999999999999
144
1.0
145
0.0
146
0.71
147
0.06
 71
     0
 72
     0
 73
     1
 74
     1
 75
     0
 76
     0
 77
     0
 78
     7
170
     0
171
     2
172
     0
173
     0
174
     0
175
     0
176
   256
177
   256
178
     2
  0
DIMSTYLE
  2
AM_ANSI$3
 70
     0
  3

  4
mm
  5

  6

  7

 40
1.0
 41
0.12
 42
0.05
 43
0.5
 44
0.1
 45
0.0
 46
0.0
 47
0.1
 48
0.1
140
0.12
141
0.0
142
0.0
143
25.399999999999999
144
1.0
145
0.0
146
0.71
147
0.06
 71
     0
 72
     0
 73
     1
 74
     1
 75
     0
 76
     0
 77
     0
 78
     7
170
     0
171
     2
172
     0
173
     0
174
     0
175
     0
176
   256
177
   256
178
     2
  0
DIMSTYLE
  2
AM_ANSI$4
 70
     0
  3

  4
mm
  5

  6

  7

 40
1.0
 41
0.12
 42
0.05
 43
0.5
 44
0.1
 45
0.0
 46
0.0
 47
0.1
 48
0.1
140
0.12
141
0.0
142
0.0
143
25.399999999999999
144
1.0
145
0.0
146
0.71
147
0.06
 71
     0
 72
     0
 73
     1
 74
     1
 75
     0
 76
     0
 77
     0
 78
     7
170
     0
171
     2
172
     0
173
     0
174
     0
175
     0
176
   256
177
   256
178
     2
  0
DIMSTYLE
  2
AM_ANSI$7
 70
     0
  3

  4
mm
  5

  6

  7

 40
1.0
 41
0.12
 42
0.05
 43
0.5
 44
0.1
 45
0.0
 46
0.0
 47
0.1
 48
0.1
140
0.12
141
0.0
142
0.0
143
25.399999999999999
144
1.0
145
0.0
146
0.71
147
0.06
 71
     0
 72
     0
 73
     1
 74
     1
 75
     0
 76
     0
 77
     0
 78
     7
170
     0
171
     2
172
     0
173
     0
174
     0
175
     0
176
   256
177
   256
178
     2
  0
DIMSTYLE
  2
AM_ANSI$SF
 70
     0
  3

  4
mm
  5

  6

  7

 40
1.0
 41
0.12
 42
0.05
 43
0.5
 44
0.1
 45
0.0
 46
0.0
 47
0.1
 48
0.1
140
0.12
141
0.0
142
0.0
143
25.399999999999999
144
1.0
145
0.0
146
0.71
147
0.06
 71
     0
 72
     0
 73
     1
 74
     1
 75
     1
 76
     1
 77
     0
 78
     7
170
     0
171
     2
172
     0
173
     0
174
     0
175
     0
176
   256
177
   256
178
     2
  0
DIMSTYLE
  2
AM_ANSI$SH
 70
     0
  3

  4
mm
  5

  6

  7

 40
1.0
 41
0.12
 42
0.05
 43
0.5
 44
0.1
 45
0.0
 46
0.0
 47
0.1
 48
0.1
140
0.12
141
0.0
142
0.0
143
25.399999999999999
144
1.0
145
0.0
146
0.71
147
0.06
 71
     0
 72
     0
 73
     1
 74
     1
 75
     1
 76
     1
 77
     0
 78
     7
170
     0
171
     2
172
     0
173
     1
174
     0
175
     0
176
   256
177
   256
178
     2
  0
ENDTAB
  0
ENDSEC
  0
SECTION
  2
BLOCKS
  0
BLOCK
  8
0
  2
$MODEL_SPACE
 70
     0
 10
0.0
 20
0.0
 30
0.0
  3
$MODEL_SPACE
  1

  0
ENDBLK
  5
ABC
  8
0
  0
BLOCK
 67
     1
  8
0
  2
$PAPER_SPACE
 70
     0
 10
0.0
 20
0.0
 30
0.0
  3
$PAPER_SPACE
  1

  0
ENDBLK
  5
AB8
 67
     1
  8
0
  0
BLOCK
  8
0
  2
_FILLED
 70
     0
 10
0.0
 20
0.0
 30
0.0
  3
_FILLED
  1

  0
SOLID
  5
215
  8
0
  6
BYBLOCK
 62
     0
 10
0.0
 20
0.0
 30
0.0
 11
-1.0
 21
0.2142857143
 31
0.0
 12
-1.0
 22
-0.2142857143
 32
0.0
 13
-1.0
 23
-0.2142857143
 33
0.0
  0
ENDBLK
  5
216
  8
0
  6
BYBLOCK
 62
     0
  0
BLOCK
  8
0
  2
_ACMFILLEDHALF
 70
     0
 10
0.0
 20
0.0
 30
0.0
  3
_ACMFILLEDHALF
  1

  0
TRACE
  5
679
  8
0
 62
     0
 10
-0.8
 20
0.0
 30
0.0
 11
-1.0
 21
0.166666666
 31
0.0
 12
0.0
 22
0.0
 32
0.0
 13
0.0
 23
0.0
 33
0.0
  0
LINE
  5
67A
  8
0
 62
     0
 10
-1.0
 20
0.0
 30
0.0
 11
-0.8
 21
0.0
 31
0.0
  0
ENDBLK
  5
678
  8
0
  0
BLOCK
  8
0
  2
*X24
 70
     1
 10
0.0
 20
0.0
 30
0.0
  3
*X24
  1

  0
LINE
  5
EF5
  8
0
 62
     0
 10
0.0000000000000071
 20
-0.2415602379491162
 30
0.0
 11
-0.2415602379491233
 21
0.0000000000000071
 31
0.0
  0
LINE
  5
EF6
  8
0
 62
     0
 10
0.0000000000000071
 20
-1.037055366783981
 30
0.0
 11
-1.0370553667839739
 21
0.0000000000000071
 31
0.0
  0
LINE
  5
EF7
  8
0
 62
     0
 10
0.0000000000000071
 20
-1.832550495618853
 30
0.0
 11
-1.832550495618853
 21
0.0000000000000142
 31
0.0
  0
LINE
  5
EF8
  8
0
 62
     0
 10
-0.1184927100159925
 20
-2.509552914437712
 30
0.0
 11
-2.6280456244537258
 21
0.0000000000000213
 31
0.0
  0
LINE
  5
EF9
  8
0
 62
     0
 10
-0.2782967892700867
 20
-3.1452439640184902
 30
0.0
 11
-3.423540753288584
 21
0.0000000000000142
 31
0.0
  0
LINE
  5
EFA
  8
0
 62
     0
 10
-0.2782967892701009
 20
-3.9407390928533341
 30
0.0
 11
-4.2190358821234559
 21
0.0000000000000213
 31
0.0
  0
LINE
  5
EFB
  8
0
 62
     0
 10
-0.2782967892701151
 20
-4.7362342216881919
 30
0.0
 11
-5.0145310109583221
 21
0.0000000000000213
 31
0.0
  0
LINE
  5
EFC
  8
0
 62
     0
 10
-0.2782967892701365
 20
-5.5317293505230429
 30
0.0
 11
-5.8100261397931874
 21
0.0000000000000071
 31
0.0
  0
LINE
  5
EFD
  8
0
 62
     0
 10
-0.2782967892701507
 20
-6.3272244793578869
 30
0.0
 11
-6.6055212686280589
 21
0.0000000000000213
 31
0.0
  0
LINE
  5
EFE
  8
0
 62
     0
 10
-0.278296789270172
 20
-7.122719608192738
 30
0.0
 11
-7.4010163974629171
 21
0.0000000000000071
 31
0.0
  0
LINE
  5
EFF
  8
0
 62
     0
 10
-0.2782967892701862
 20
-7.9182147370275819
 30
0.0
 11
-8.1965115262977903
 21
0.0000000000000213
 31
0.0
  0
LINE
  5
F00
  8
0
 62
     0
 10
-0.2782967892702075
 20
-8.7137098658624321
 30
0.0
 11
-8.9920066551326627
 21
0.0000000000000284
 31
0.0
  0
LINE
  5
F01
  8
0
 62
     0
 10
-0.2875017839675138
 20
-9.4999999999999858
 30
0.0
 11
-9.7875017839675191
 21
0.0000000000000284
 31
0.0
  0
LINE
  5
F02
  8
0
 62
     0
 10
-1.0829969128023791
 20
-9.4999999999999911
 30
0.0
 11
-10.58299691280239
 21
0.0000000000000213
 31
0.0
  0
LINE
  5
F03
  8
0
 62
     0
 10
-1.8784920416372439
 20
-9.4999999999999858
 30
0.0
 11
-11.37849204163725
 21
0.0000000000000249
 31
0.0
  0
LINE
  5
F04
  8
0
 62
     0
 10
-2.6739871704721159
 20
-9.4999999999999858
 30
0.0
 11
-12.17398717047212
 21
0.0000000000000213
 31
0.0
  0
LINE
  5
F05
  8
0
 62
     0
 10
-3.4694822993069891
 20
-9.4999999999999787
 30
0.0
 11
-12.509703210730169
 21
-0.4597790885767879
 31
0.0
  0
LINE
  5
F06
  8
0
 62
     0
 10
-4.2649774281418544
 20
-9.4999999999999787
 30
0.0
 11
-12.509703210730169
 21
-1.25527421741166
 31
0.0
  0
LINE
  5
F07
  8
0
 62
     0
 10
-5.0604725569767188
 20
-9.4999999999999858
 30
0.0
 11
-12.509703210730169
 21
-2.0507693462465251
 31
0.0
  0
LINE
  5
F08
  8
0
 62
     0
 10
-5.8559676858115841
 20
-9.4999999999999787
 30
0.0
 11
-12.509703210730169
 21
-2.8462644750813899
 31
0.0
  0
LINE
  5
F09
  8
0
 62
     0
 10
-6.6514628146464574
 20
-9.4999999999999787
 30
0.0
 11
-12.509703210730169
 21
-3.6417596039162561
 31
0.0
  0
LINE
  5
F0A
  8
0
 62
     0
 10
-7.4469579434813076
 20
-9.4999999999999787
 30
0.0
 11
-12.509703210730169
 21
-4.4372547327511214
 31
0.0
  0
LINE
  5
F0B
  8
0
 62
     0
 10
-8.2424530723161862
 20
-9.4999999999999787
 30
0.0
 11
-12.509703210730169
 21
-5.2327498615859929
 31
0.0
  0
LINE
  5
F0C
  8
0
 62
     0
 10
-9.0379482011510532
 20
-9.4999999999999716
 30
0.0
 11
-12.50970321073016
 21
-6.028244990420859
 31
0.0
  0
LINE
  5
F0D
  8
0
 62
     0
 10
-9.8334433299859185
 20
-9.4999999999999716
 30
0.0
 11
-12.520534774705309
 21
-6.812908555280579
 31
0.0
  0
LINE
  5
F0E
  8
0
 62
     0
 10
-10.628938458820789
 20
-9.4999999999999716
 30
0.0
 11
-12.788000000000411
 21
-7.3409384588203528
 31
0.0
  0
LINE
  5
F0F
  8
0
 62
     0
 10
-11.424433587655651
 20
-9.4999999999999716
 30
0.0
 11
-12.7880000000004
 21
-8.1364335876552261
 31
0.0
  0
LINE
  5
F10
  8
0
 62
     0
 10
-12.21992871649052
 20
-9.4999999999999716
 30
0.0
 11
-12.7880000000004
 21
-8.9319287164900842
 31
0.0
  0
LINE
  5
F11
  8
0
 62
     0
 10
-0.7753483872695952
 20
-9.5000000000000071
 30
0.0
 11
-0.2782967892702217
 21
-9.0029484020006336
 31
0.0
  0
LINE
  5
F12
  8
0
 62
     0
 10
-1.5708435161044461
 20
-9.5
 30
0.0
 11
-0.2782967892701933
 21
-8.207453273165747
 31
0.0
  0
LINE
  5
F13
  8
0
 62
     0
 10
-2.3663386449393249
 20
-9.5000000000000071
 30
0.0
 11
-0.2782967892701862
 21
-7.4119581443308666
 31
0.0
  0
LINE
  5
F14
  8
0
 62
     0
 10
-3.161833773774176
 20
-9.5
 30
0.0
 11
-0.2782967892701649
 21
-6.616463015495988
 31
0.0
  0
LINE
  5
F15
  8
0
 62
     0
 10
-3.9573289026090488
 20
-9.5
 30
0.0
 11
-0.2782967892701507
 21
-5.8209678866611014
 31
0.0
  0
LINE
  5
F16
  8
0
 62
     0
 10
-4.7528240314439074
 20
-9.4999999999999911
 30
0.0
 11
-0.2782967892701222
 21
-5.0254727578262068
 31
0.0
  0
LINE
  5
F17
  8
0
 62
     0
 10
-5.5483191602787789
 20
-9.5
 30
0.0
 11
-0.2782967892701151
 21
-4.2299776289913353
 31
0.0
  0
LINE
  5
F18
  8
0
 62
     0
 10
-6.3438142891136371
 20
-9.4999999999999911
 30
0.0
 11
-0.2782967892700938
 21
-3.4344825001564478
 31
0.0
  0
LINE
  5
F19
  8
0
 62
     0
 10
-7.1393094179485033
 20
-9.4999999999999911
 30
0.0
 11
0.0000000000000071
 21
-2.3606905820514821
 31
0.0
  0
LINE
  5
F1A
  8
0
 62
     0
 10
-7.9348045467833819
 20
-9.5
 30
0.0
 11
0.0
 21
-1.565195453216617
 31
0.0
  0
LINE
  5
F1B
  8
0
 62
     0
 10
-8.7302996756182338
 20
-9.4999999999999911
 30
0.0
 11
0.0000000000000071
 21
-0.769700324381752
 31
0.0
  0
LINE
  5
F1C
  8
0
 62
     0
 10
-9.5257948044531133
 20
-9.5
 30
0.0
 11
-0.0257948044531133
 21
0.0
 31
0.0
  0
LINE
  5
F1D
  8
0
 62
     0
 10
-10.32128993328797
 20
-9.5
 30
0.0
 11
-0.8212899332879786
 21
-0.0000000000000071
 31
0.0
  0
LINE
  5
F1E
  8
0
 62
     0
 10
-11.11678506212283
 20
-9.4999999999999858
 30
0.0
 11
-1.616785062122843
 21
0.0
 31
0.0
  0
LINE
  5
F1F
  8
0
 62
     0
 10
-11.91228019095769
 20
-9.4999999999999858
 30
0.0
 11
-2.4122801909577092
 21
0.0
 31
0.0
  0
LINE
  5
F20
  8
0
 62
     0
 10
-12.70777531979256
 20
-9.4999999999999858
 30
0.0
 11
-3.207775319792574
 21
0.0
 31
0.0
  0
LINE
  5
F21
  8
0
 62
     0
 10
-12.7880000000004
 20
-8.7847295513729602
 30
0.0
 11
-4.0032704486274389
 21
0.0
 31
0.0
  0
LINE
  5
F22
  8
0
 62
     0
 10
-12.7880000000004
 20
-7.9892344225380958
 30
0.0
 11
-4.798765577462305
 21
-0.0000000000000071
 31
0.0
  0
LINE
  5
F23
  8
0
 62
     0
 10
-12.7880000000004
 20
-7.1937392937032243
 30
0.0
 11
-5.5942607062971703
 21
0.0
 31
0.0
  0
LINE
  5
F24
  8
0
 62
     0
 10
-12.509703210730169
 20
-6.1199473755981373
 30
0.0
 11
-6.3897558351320276
 21
0.0000000000000071
 31
0.0
  0
LINE
  5
F25
  8
0
 62
     0
 10
-12.50970321073018
 20
-5.324452246763272
 30
0.0
 11
-7.1852509639669
 21
0.0000000000000071
 31
0.0
  0
LINE
  5
F26
  8
0
 62
     0
 10
-12.509703210730169
 20
-4.5289571179284058
 30
0.0
 11
-7.9807460928017591
 21
0.0000000000000071
 31
0.0
  0
LINE
  5
F27
  8
0
 62
     0
 10
-12.509703210730169
 20
-3.7334619890935339
 30
0.0
 11
-8.7762412216366315
 21
0.0000000000000071
 31
0.0
  0
LINE
  5
F28
  8
0
 62
     0
 10
-12.509703210730169
 20
-2.937966860258669
 30
0.0
 11
-9.5717363504714896
 21
0.0000000000000142
 31
0.0
  0
LINE
  5
F29
  8
0
 62
     0
 10
-12.509703210730169
 20
-2.1424717314238029
 30
0.0
 11
-10.36723147930636
 21
0.0000000000000071
 31
0.0
  0
LINE
  5
F2A
  8
0
 62
     0
 10
-12.509703210730169
 20
-1.346976602588938
 30
0.0
 11
-11.16272660814122
 21
0.0000000000000142
 31
0.0
  0
LINE
  5
F2B
  8
0
 62
     0
 10
-12.509703210730169
 20
-0.5514814737540732
 30
0.0
 11
-11.95822173697608
 21
0.0000000000000142
 31
0.0
  0
ENDBLK
  5
F2D
  8
0
  0
BLOCK
  8
0
  2
*X25
 70
     1
 10
0.0
 20
0.0
 30
0.0
  3
*X25
  1

  0
LINE
  5
F2F
  8
0
 62
     0
 10
40.000000000000227
 20
19.78553786757227
 30
0.0
 11
39.785537867572486
 21
20.000000000000011
 31
0.0
  0
LINE
  5
F30
  8
0
 62
     0
 10
40.000000000000227
 20
18.990042738737412
 30
0.0
 11
38.990042738737642
 21
20.000000000000011
 31
0.0
  0
LINE
  5
F31
  8
0
 62
     0
 10
40.000000000000227
 20
18.194547609902539
 30
0.0
 11
38.194547609902777
 21
20.0
 31
0.0
  0
LINE
  5
F32
  8
0
 62
     0
 10
39.893870954226877
 20
17.505181526841039
 30
0.0
 11
37.399052481067898
 21
20.000000000000011
 31
0.0
  0
LINE
  5
F33
  8
0
 62
     0
 10
39.721703210730141
 20
16.88185414150291
 30
0.0
 11
36.60355735223304
 21
20.0
 31
0.0
  0
LINE
  5
F34
  8
0
 62
     0
 10
39.721703210730112
 20
16.086359012668069
 30
0.0
 11
35.808062223398181
 21
20.000000000000011
 31
0.0
  0
LINE
  5
F35
  8
0
 62
     0
 10
39.721703210730091
 20
15.29086388383322
 30
0.0
 11
35.012567094563309
 21
20.0
 31
0.0
  0
LINE
  5
F36
  8
0
 62
     0
 10
39.721703210730062
 20
14.495368754998379
 30
0.0
 11
34.217071965728451
 21
19.999999999999979
 31
0.0
  0
LINE
  5
F37
  8
0
 62
     0
 10
39.721703210730027
 20
13.699873626163541
 30
0.0
 11
33.4215768368936
 21
19.999999999999989
 31
0.0
  0
LINE
  5
F38
  8
0
 62
     0
 10
39.721703210730013
 20
12.90437849732869
 30
0.0
 11
32.62608170805872
 21
19.999999999999979
 31
0.0
  0
LINE
  5
F39
  8
0
 62
     0
 10
39.721703210729991
 20
12.108883368493849
 30
0.0
 11
31.830586579223858
 21
19.999999999999989
 31
0.0
  0
LINE
  5
F3A
  8
0
 62
     0
 10
39.721703210729963
 20
11.313388239659011
 30
0.0
 11
31.03509145038899
 21
19.999999999999979
 31
0.0
  0
LINE
  5
F3B
  8
0
 62
     0
 10
39.721703210729942
 20
10.51789311082417
 30
0.0
 11
30.239596321554139
 21
19.999999999999979
 31
0.0
  0
LINE
  5
F3C
  8
0
 62
     0
 10
38.944101192719238
 20
10.5
 30
0.0
 11
29.44410119271928
 21
19.999999999999972
 31
0.0
  0
LINE
  5
F3D
  8
0
 62
     0
 10
38.148606063884387
 20
10.5
 30
0.0
 11
28.648606063884412
 21
19.999999999999979
 31
0.0
  0
LINE
  5
F3E
  8
0
 62
     0
 10
37.353110935049529
 20
10.499999999999989
 30
0.0
 11
27.85311093504955
 21
19.999999999999972
 31
0.0
  0
LINE
  5
F3F
  8
0
 62
     0
 10
36.557615806214663
 20
10.499999999999989
 30
0.0
 11
27.484296789270221
 21
19.573319016944431
 31
0.0
  0
LINE
  5
F40
  8
0
 62
     0
 10
35.762120677379798
 20
10.49999999999998
 30
0.0
 11
27.484296789270221
 21
18.777823888109559
 31
0.0
  0
LINE
  5
F41
  8
0
 62
     0
 10
34.966625548544933
 20
10.49999999999998
 30
0.0
 11
27.484296789270221
 21
17.98232875927469
 31
0.0
  0
LINE
  5
F42
  8
0
 62
     0
 10
34.171130419710067
 20
10.49999999999998
 30
0.0
 11
27.484296789270228
 21
17.186833630439828
 31
0.0
  0
LINE
  5
F43
  8
0
 62
     0
 10
33.375635290875202
 20
10.49999999999998
 30
0.0
 11
27.484296789270221
 21
16.39133850160496
 31
0.0
  0
LINE
  5
F44
  8
0
 62
     0
 10
32.580140162040337
 20
10.499999999999989
 30
0.0
 11
27.484296789270228
 21
15.5958433727701
 31
0.0
  0
LINE
  5
F45
  8
0
 62
     0
 10
31.784645033205472
 20
10.49999999999998
 30
0.0
 11
27.484296789270221
 21
14.800348243935231
 31
0.0
  0
LINE
  5
F46
  8
0
 62
     0
 10
30.98914990437061
 20
10.49999999999998
 30
0.0
 11
27.484296789270221
 21
14.004853115100371
 31
0.0
  0
LINE
  5
F47
  8
0
 62
     0
 10
30.193654775535741
 20
10.49999999999997
 30
0.0
 11
27.484296789270228
 21
13.2093579862655
 31
0.0
  0
LINE
  5
F48
  8
0
 62
     0
 10
29.398159646700879
 20
10.49999999999998
 30
0.0
 11
27.205999999999928
 21
12.692159646700921
 31
0.0
  0
LINE
  5
F49
  8
0
 62
     0
 10
28.60266451786601
 20
10.49999999999998
 30
0.0
 11
27.205999999999939
 21
11.896664517866061
 31
0.0
  0
LINE
  5
F4A
  8
0
 62
     0
 10
27.807169389031149
 20
10.49999999999997
 30
0.0
 11
27.205999999999928
 21
11.10116938903119
 31
0.0
  0
LINE
  5
F4B
  8
0
 62
     0
 10
39.394177119431603
 20
10.5
 30
0.0
 11
39.721703210729963
 21
10.82752609129836
 31
0.0
  0
LINE
  5
F4C
  8
0
 62
     0
 10
38.598681990596717
 20
10.49999999999998
 30
0.0
 11
39.721703210729991
 21
11.62302122013325
 31
0.0
  0
LINE
  5
F4D
  8
0
 62
     0
 10
37.803186861761851
 20
10.49999999999998
 30
0.0
 11
39.721703210729999
 21
12.41851634896814
 31
0.0
  0
LINE
  5
F4E
  8
0
 62
     0
 10
37.007691732926993
 20
10.49999999999998
 30
0.0
 11
39.72170321073002
 21
13.21401147780302
 31
0.0
  0
LINE
  5
F4F
  8
0
 62
     0
 10
36.212196604092121
 20
10.49999999999998
 30
0.0
 11
39.721703210730041
 21
14.00950660663791
 31
0.0
  0
LINE
  5
F50
  8
0
 62
     0
 10
35.416701475257263
 20
10.499999999999989
 30
0.0
 11
39.721703210730077
 21
14.8050017354728
 31
0.0
  0
LINE
  5
F51
  8
0
 62
     0
 10
34.621206346422383
 20
10.49999999999998
 30
0.0
 11
39.721703210730091
 21
15.60049686430769
 31
0.0
  0
LINE
  5
F52
  8
0
 62
     0
 10
33.825711217587511
 20
10.49999999999998
 30
0.0
 11
39.721703210730112
 21
16.39599199314258
 31
0.0
  0
LINE
  5
F53
  8
0
 62
     0
 10
33.030216088752653
 20
10.49999999999998
 30
0.0
 11
39.721703210730141
 21
17.19148712197747
 31
0.0
  0
LINE
  5
F54
  8
0
 62
     0
 10
32.23472095991778
 20
10.49999999999997
 30
0.0
 11
40.000000000000227
 21
18.265279040082419
 31
0.0
  0
LINE
  5
F55
  8
0
 62
     0
 10
31.439225831082911
 20
10.49999999999998
 30
0.0
 11
40.000000000000227
 21
19.060774168917291
 31
0.0
  0
LINE
  5
F56
  8
0
 62
     0
 10
30.643730702248039
 20
10.49999999999997
 30
0.0
 11
40.000000000000227
 21
19.856269297752149
 31
0.0
  0
LINE
  5
F57
  8
0
 62
     0
 10
29.848235573413181
 20
10.49999999999997
 30
0.0
 11
39.348235573413213
 21
20.0
 31
0.0
  0
LINE
  5
F58
  8
0
 62
     0
 10
29.052740444578301
 20
10.499999999999959
 30
0.0
 11
38.55274044457834
 21
19.999999999999989
 31
0.0
  0
LINE
  5
F59
  8
0
 62
     0
 10
28.25724531574344
 20
10.49999999999997
 30
0.0
 11
37.757245315743461
 21
19.999999999999979
 31
0.0
  0
LINE
  5
F5A
  8
0
 62
     0
 10
27.461750186908571
 20
10.499999999999959
 30
0.0
 11
36.96175018690861
 21
19.999999999999989
 31
0.0
  0
LINE
  5
F5B
  8
0
 62
     0
 10
27.205999999999939
 20
11.0397449419262
 30
0.0
 11
36.166255058073723
 21
19.999999999999979
 31
0.0
  0
LINE
  5
F5C
  8
0
 62
     0
 10
27.205999999999939
 20
11.83524007076106
 30
0.0
 11
35.370759929238858
 21
19.999999999999979
 31
0.0
  0
LINE
  5
F5D
  8
0
 62
     0
 10
27.205999999999939
 20
12.63073519959593
 30
0.0
 11
34.575264800403993
 21
19.999999999999979
 31
0.0
  0
LINE
  5
F5E
  8
0
 62
     0
 10
27.484296789270228
 20
13.70452711770109
 30
0.0
 11
33.77976967156912
 21
19.999999999999979
 31
0.0
  0
LINE
  5
F5F
  8
0
 62
     0
 10
27.484296789270211
 20
14.50002224653594
 30
0.0
 11
32.984274542734262
 21
19.999999999999979
 31
0.0
  0
LINE
  5
F60
  8
0
 62
     0
 10
27.484296789270228
 20
15.29551737537081
 30
0.0
 11
32.188779413899383
 21
19.999999999999972
 31
0.0
  0
LINE
  5
F61
  8
0
 62
     0
 10
27.484296789270221
 20
16.091012504205679
 30
0.0
 11
31.39328428506451
 21
19.999999999999972
 31
0.0
  0
LINE
  5
F62
  8
0
 62
     0
 10
27.484296789270221
 20
16.886507633040541
 30
0.0
 11
30.597789156229659
 21
19.999999999999972
 31
0.0
  0
LINE
  5
F63
  8
0
 62
     0
 10
27.484296789270221
 20
17.68200276187541
 30
0.0
 11
29.80229402739478
 21
19.999999999999961
 31
0.0
  0
LINE
  5
F64
  8
0
 62
     0
 10
27.484296789270221
 20
18.477497890710271
 30
0.0
 11
29.006798898559911
 21
19.999999999999961
 31
0.0
  0
LINE
  5
F65
  8
0
 62
     0
 10
27.484296789270221
 20
19.27299301954514
 30
0.0
 11
28.211303769725049
 21
19.999999999999961
 31
0.0
  0
ENDBLK
  5
F67
  8
0
  0
ENDSEC
  0
SECTION
  2
ENTITIES
  0
LINE
  5
84D
  8
4
  6
CENTER2
 10
0.0
 20
0.0
 30
0.0
 11
39.400000000000098
 21
0.0
 31
0.0
  0
LINE
  5
84E
  8
0
 10
3.0
 20
3.0
 30
0.0
 11
-3.0
 21
-3.0
 31
0.0
  0
LINE
  5
84F
  8
0
 10
-3.0
 20
3.0
 30
0.0
 11
3.0
 21
-3.0
 31
0.0
  0
CIRCLE
  5
852
  8
0
 10
0.0
 20
0.0
 30
0.0
 40
2.5
  0
LINE
  5
C27
  8
1
  6
CONTINUOUS
 10
39.100000000000023
 20
10.50000000000003
 30
0.0
 11
39.100000000000023
 21
9.9526865712153914
 31
0.0
  0
LINE
  5
C28
  8
1
  6
CONTINUOUS
 10
39.100000000000023
 20
9.9526865712153914
 30
0.0
 11
15.31727666023516
 21
17.5
 31
0.0
  0
LINE
  5
C29
  8
SK4
  6
CENTER2
 10
0.0
 20
0.0
 30
0.0
 11
-23.0
 21
-0.0000000000000009
 31
0.0
1001
GRPNAME
1000
PASTMD01
  0
LINE
  5
C2A
  8
1
  6
CONTINUOUS
 10
-0.0000000000001453
 20
14.5
 30
0.0
 11
0.0
 21
-14.5
 31
0.0
  0
LINE
  5
C2C
  8
1
  6
CONTINUOUS
 10
39.400000000000098
 20
-19.300000000000001
 30
0.0
 11
28.100000000000001
 21
-19.600000000000009
 31
0.0
  0
LINE
  5
C2D
  8
1
  6
CONTINUOUS
 10
27.353589838485789
 20
-19.39999999999991
 30
0.0
 11
23.400000000012479
 21
-19.40000000000714
 31
0.0
  0
LINE
  5
C2E
  8
1
  6
CONTINUOUS
 10
27.353589838485789
 20
-19.39999999999991
 30
0.0
 11
28.100000000000001
 21
-19.600000000000009
 31
0.0
  0
LINE
  5
C2F
  8
1
  6
CONTINUOUS
 10
27.35358983848554
 20
19.39999999999991
 30
0.0
 11
23.400000000013961
 21
19.40000000000714
 31
0.0
  0
LINE
  5
C30
  8
1
  6
CONTINUOUS
 10
27.35358983848554
 20
19.39999999999991
 30
0.0
 11
27.484296789270221
 21
19.435022821907761
 31
0.0
  0
LINE
  5
C31
  8
1
  6
CONTINUOUS
 10
19.898130525275288
 20
17.5
 30
0.0
 11
4.9999999999999112
 21
17.5
 31
0.0
  0
LINE
  5
C32
  8
1
  6
CONTINUOUS
 10
19.898130525275182
 20
-17.5
 30
0.0
 11
4.9999999999999112
 21
-17.5
 31
0.0
  0
LINE
  5
C33
  8
1
  6
CONTINUOUS
 10
5.0
 20
-17.316496580927719
 30
0.0
 11
5.0
 21
17.316496580927769
 31
0.0
  0
LINE
  5
C34
  8
1
  6
CONTINUOUS
 10
3.2679491924311481
 20
14.5
 30
0.0
 11
-0.0000000000002309
 21
14.5
 31
0.0
  0
LINE
  5
C35
  8
1
  6
CONTINUOUS
 10
3.2679491924311481
 20
-14.5
 30
0.0
 11
0.0
 21
-14.5
 31
0.0
  0
LINE
  5
C36
  8
1
  6
CONTINUOUS
 10
23.400000000010671
 20
-19.40000000000526
 30
0.0
 11
23.400000000010671
 21
14.93499322882672
 31
0.0
  0
LINE
  5
C37
  8
1
  6
CONTINUOUS
 10
21.50000000000535
 20
-17.49999999999994
 30
0.0
 11
21.500000000005361
 21
-10.789035787655459
 31
0.0
  0
LINE
  5
C38
  8
1
  6
CONTINUOUS
 10
23.400000000012479
 20
-19.40000000000714
 30
0.0
 11
21.300000000005241
 21
-17.299999999999891
 31
0.0
  0
LINE
  5
C39
  8
1
  6
CONTINUOUS
 10
23.400000000010671
 20
19.400000000005321
 30
0.0
 11
21.300000000005351
 21
17.300000000000011
 31
0.0
  0
LINE
  5
C3A
  8
1
  6
CONTINUOUS
 10
21.300000000005351
 20
17.300000000000011
 30
0.0
 11
20.290652626376531
 21
17.300000000000011
 31
0.0
  0
LINE
  5
C3B
  8
1
  6
CONTINUOUS
 10
19.898130525275288
 20
17.5
 30
0.0
 11
20.290652626376531
 21
17.300000000000011
 31
0.0
  0
LINE
  5
C3C
  8
1
  6
CONTINUOUS
 10
21.300000000005241
 20
-17.299999999999891
 30
0.0
 11
20.290652626376531
 21
-17.299999999999891
 31
0.0
  0
LINE
  5
C3D
  8
1
  6
CONTINUOUS
 10
19.898130525275288
 20
-17.499999999999879
 30
0.0
 11
20.290652626376531
 21
-17.299999999999891
 31
0.0
  0
LINE
  5
C3E
  8
1
  6
CONTINUOUS
 10
4.9999999999999112
 20
-17.5
 30
0.0
 11
3.2679491924311481
 21
-14.5
 31
0.0
  0
LINE
  5
C3F
  8
1
  6
CONTINUOUS
 10
3.267949192431046
 20
-14.5
 30
0.0
 11
3.267949192431046
 21
14.499999999999821
 31
0.0
  0
LINE
  5
C40
  8
1
  6
CONTINUOUS
 10
4.9999999999999112
 20
17.5
 30
0.0
 11
3.2679491924311481
 21
14.5
 31
0.0
  0
LINE
  5
C41
  8
SK1
  6
CONTINUOUS
 10
-5.499999999999992
 20
-8.5000000000000568
 30
0.0
 11
-0.9999999999998864
 21
-8.5000000000000568
 31
0.0
  0
LINE
  5
C42
  8
SK1
  6
CONTINUOUS
 10
-0.9999999999998864
 20
8.4999999999999432
 30
0.0
 11
-5.500000000000389
 21
8.4999999999999432
 31
0.0
  0
LINE
  5
C43
  8
SK1
  6
CONTINUOUS
 10
-0.4112168483483174
 20
8.1999999999999336
 30
0.0
 11
0.0
 21
8.1999999999999336
 31
0.0
  0
LINE
  5
C44
  8
SK1
  6
CONTINUOUS
 10
-0.4112168483483174
 20
8.1999999999999336
 30
0.0
 11
-0.4112168483483174
 21
-8.2000000000000455
 31
0.0
  0
LINE
  5
C45
  8
SK1
  6
CONTINUOUS
 10
-0.4112168483483174
 20
8.1999999999999336
 30
0.0
 11
-0.9999999999998864
 21
8.4999999999999432
 31
0.0
  0
LINE
  5
C46
  8
SK1
  6
CONTINUOUS
 10
-5.500000000000111
 20
-8.5000000000000568
 30
0.0
 11
-5.500000000000111
 21
8.4817165220011912
 31
0.0
  0
LINE
  5
C47
  8
SK1
  6
CONTINUOUS
 10
-6.3660254037846471
 20
8.0000000000000568
 30
0.0
 11
-21.267949192431391
 21
8.0
 31
0.0
  0
LINE
  5
C48
  8
SK1
  6
CONTINUOUS
 10
-21.267949192431391
 20
8.0
 30
0.0
 11
-22.999999999999758
 21
7.0000000000002149
 31
0.0
  0
LINE
  5
C49
  8
SK1
  6
CONTINUOUS
 10
-8.4999999999998863
 20
-8.0
 30
0.0
 11
-8.5000000000001137
 21
8.0000000000000568
 31
0.0
  0
LINE
  5
C4A
  8
SK1
  6
CONTINUOUS
 10
-21.26794919243185
 20
-8.0
 30
0.0
 11
-21.267949192431391
 21
8.0
 31
0.0
  0
LINE
  5
C4B
  8
SK1
  6
CONTINUOUS
 10
-8.498076211353462
 20
-7.0
 30
0.0
 11
-22.999999999999929
 21
-7.000000000000056
 31
0.0
  0
LINE
  5
C4C
  8
SK1
  6
CONTINUOUS
 10
-6.3660254037846471
 20
-8.0
 30
0.0
 11
-21.267949192431391
 21
-8.0
 31
0.0
  0
LINE
  5
C4D
  8
SK1
  6
CONTINUOUS
 10
-22.999999999999758
 20
7.0000000000002149
 30
0.0
 11
-23.000000000000242
 21
-6.9999999999998739
 31
0.0
  0
LINE
  5
C4E
  8
SK1
  6
CONTINUOUS
 10
-8.498076211353462
 20
-7.0
 30
0.0
 11
-6.7660254037846244
 21
-8.0
 31
0.0
  0
LINE
  5
C4F
  8
SK1
  6
CONTINUOUS
 10
-8.4980762113533501
 20
7.000000000000056
 30
0.0
 11
-22.99999999999995
 21
7.000000000000111
 31
0.0
  0
LINE
  5
C50
  8
SK1
  6
CONTINUOUS
 10
-8.4980762113533501
 20
7.000000000000056
 30
0.0
 11
-6.7660254037843961
 21
8.0000000000001137
 31
0.0
  0
LINE
  5
C51
  8
SK1
  6
CONTINUOUS
 10
-6.3660254037845299
 20
8.0000000000001137
 30
0.0
 11
-5.500000000000389
 21
8.4999999999999432
 31
0.0
  0
LINE
  5
C52
  8
SK1
  6
CONTINUOUS
 10
-21.267949192431391
 20
-8.0
 30
0.0
 11
-23.000000000000242
 21
-6.9999999999998739
 31
0.0
  0
LINE
  5
C53
  8
SK1
  6
CONTINUOUS
 10
-6.3660254037845299
 20
-8.0
 30
0.0
 11
-5.499999999999992
 21
-8.5000000000000568
 31
0.0
  0
LINE
  5
C54
  8
SK1
  6
CONTINUOUS
 10
-0.4112168483460505
 20
-8.2000000000000455
 30
0.0
 11
0.000000000002267
 21
-8.1999999999999336
 31
0.0
  0
LINE
  5
C55
  8
SK1
  6
CONTINUOUS
 10
-0.4112168483460505
 20
-8.2000000000000455
 30
0.0
 11
-0.9999999999975363
 21
-8.5000000000002203
 31
0.0
  0
LINE
  5
C56
  8
SK1
  6
CONTINUOUS
 10
-0.9999999999998864
 20
8.4999999999999432
 30
0.0
 11
-0.9999999999998864
 21
-8.5000000000000568
 31
0.0
  0
LINE
  5
C58
  8
1
  6
CONTINUOUS
 10
39.721703210730148
 20
17.299999999999951
 30
0.0
 11
39.72170321073002
 21
10.50000000000003
 31
0.0
1001
GRPNAME
1000
PASTMD03
  0
LINE
  5
C59
  8
1
  6
CONTINUOUS
 10
40.000000000000227
 20
17.631661198420041
 30
0.0
 11
39.721703210730148
 21
17.299999999999951
 31
0.0
1001
GRPNAME
1000
PASTMD03
  0
LINE
  5
C5A
  8
1
  6
CONTINUOUS
 10
40.000000000000227
 20
20.0
 30
0.0
 11
40.000000000000227
 21
17.631661198420041
 31
0.0
1001
GRPNAME
1000
PASTMD03
  0
LINE
  5
C5B
  8
1
  6
CONTINUOUS
 10
27.484296789270221
 20
19.999999999999972
 30
0.0
 11
40.000000000000227
 21
20.0
 31
0.0
1001
GRPNAME
1000
PASTMD03
  0
LINE
  5
C5C
  8
1
  6
CONTINUOUS
 10
27.484296789270221
 20
13.63886462469916
 30
0.0
 11
27.484296789270221
 21
19.999999999999972
 31
0.0
1001
GRPNAME
1000
PASTMD03
  0
LINE
  5
C60
  8
1
  6
CONTINUOUS
 10
37.375332808191203
 20
10.50000000000003
 30
0.0
 11
39.72170321073002
 21
10.50000000000003
 31
0.0
  0
LINE
  5
C61
  8
1
  6
CONTINUOUS
 10
27.484296789270221
 20
19.999999999999972
 30
0.0
 11
32.853749296948713
 21
18.051539466789102
 31
0.0
  0
LINE
  5
C62
  8
1
  6
CONTINUOUS
 10
35.974540336081297
 20
16.919070530067462
 30
0.0
 11
39.721703210730148
 21
15.559304527420929
 31
0.0
  0
LINE
  5
C63
  8
1
  6
CONTINUOUS
 10
27.484296789270221
 20
14.94069547257906
 30
0.0
 11
31.231459663918759
 21
13.580929469932631
 31
0.0
  0
LINE
  5
C64
  8
1
  6
CONTINUOUS
 10
34.352250703051567
 20
12.4484605332109
 30
0.0
 11
39.72170321073002
 21
10.50000000000003
 31
0.0
  0
LINE
  5
C65
  8
1
  6
CONTINUOUS
 10
39.721703210730148
 20
-17.299999999999979
 30
0.0
 11
39.72170321073002
 21
-10.50000000000003
 31
0.0
1001
GRPNAME
1000
PASTMD03
  0
LINE
  5
C66
  8
1
  6
CONTINUOUS
 10
40.000000000000227
 20
-17.63166119842009
 30
0.0
 11
39.721703210730148
 21
-17.299999999999979
 31
0.0
1001
GRPNAME
1000
PASTMD03
  0
LINE
  5
C67
  8
1
  6
CONTINUOUS
 10
40.000000000000227
 20
-20.0
 30
0.0
 11
40.000000000000227
 21
-17.63166119842009
 31
0.0
1001
GRPNAME
1000
PASTMD03
  0
LINE
  5
C68
  8
1
  6
CONTINUOUS
 10
27.484296789270221
 20
-20.0
 30
0.0
 11
40.000000000000227
 21
-20.0
 31
0.0
1001
GRPNAME
1000
PASTMD03
  0
LINE
  5
C69
  8
1
  6
CONTINUOUS
 10
39.400000000000098
 20
-10.50000000000003
 30
0.0
 11
39.72170321073002
 21
-10.50000000000003
 31
0.0
  0
LINE
  5
C6A
  8
1
  6
CONTINUOUS
 10
27.484296789270221
 20
-19.43502282190774
 30
0.0
 11
27.484296789270221
 21
-20.0
 31
0.0
1001
GRPNAME
1000
PASTMD03
  0
LINE
  5
C6B
  8
1
  6
CONTINUOUS
 10
19.898130525275182
 20
-17.5
 30
0.0
 11
19.898130525275182
 21
-12.13354339998841
 31
0.0
  0
LINE
  5
C6E
  8
1
  6
CONTINUOUS
 10
39.400000000000098
 20
9.8574832592864325
 30
0.0
 11
39.400000000000098
 21
-19.300000000000001
 31
0.0
  0
LINE
  5
C6F
  8
1
  6
CONTINUOUS
 10
39.100000000000023
 20
9.9526865712153914
 30
0.0
 11
39.400000000000098
 21
9.8574832592864325
 31
0.0
  0
LINE
  5
C70
  8
2
  6
CONTINUOUS
 10
29.00000000000021
 20
20.5
 30
0.0
 11
29.00000000000021
 21
29.0
 31
0.0
  0
LINE
  5
C71
  8
2
  6
CONTINUOUS
 10
31.230000000000221
 20
28.0
 30
0.0
 11
37.770000000000188
 21
28.0
 31
0.0
  0
LINE
  5
C72
  8
2
  6
CONTINUOUS
 10
40.500000000000213
 20
-20.0
 30
0.0
 11
54.500000000000199
 21
-20.0
 31
0.0
  0
LINE
  5
C73
  8
2
  6
CONTINUOUS
 10
40.500000000000213
 20
20.0
 30
0.0
 11
54.500000000000199
 21
20.0
 31
0.0
  0
LINE
  5
C74
  8
2
  6
CONTINUOUS
 10
53.500000000000199
 20
-17.77000000000001
 30
0.0
 11
53.500000000000199
 21
17.769999999999989
 31
0.0
  0
TEXT
  5
C75
  8
2
  6
CONTINUOUS
 10
52.500000000000213
 20
-4.0714285714285827
 30
0.0
 40
3.0
  1
\U+2205
 50
90.0
1001
ACAD
1000
MTEXTBEGIN
1070
    73
1070
     1
1070
    44
1040
1.0
1070
    74
1070
     0
1000
MTEXTEND
1000
MTEXTBEGIN
1070
    73
1070
     1
1070
    44
1040
1.0
1070
    74
1070
     0
1000
MTEXTEND
1000
MTEXTBEGIN
1070
    73
1070
     1
1070
    44
1040
1.0
1070
    74
1070
     0
1000
MTEXTEND
  0
TEXT
  5
C76
  8
2
  6
CONTINUOUS
 10
52.500000000000213
 20
-1.3571428571428601
 30
0.0
 40
3.0
  1
40
 50
90.0
1001
ACAD
1000
MTEXTBEGIN
1070
    73
1070
     1
1070
    44
1040
1.0
1070
    74
1070
     0
1000
MTEXTEND
1000
MTEXTBEGIN
1070
    73
1070
     1
1070
    44
1040
1.0
1070
    74
1070
     0
1000
MTEXTEND
1000
MTEXTBEGIN
1070
    73
1070
     1
1070
    44
1040
1.0
1070
    74
1070
     0
1000
MTEXTEND
  0
LINE
  5
C77
  8
2
  6
CONTINUOUS
 10
53.128333333333551
 20
17.769999999999989
 30
0.0
 11
53.500000000000199
 21
20.0
 31
0.0
  0
LINE
  5
C78
  8
2
  6
CONTINUOUS
 10
53.871666666666819
 20
17.769999999999989
 30
0.0
 11
53.500000000000199
 21
20.0
 31
0.0
  0
LINE
  5
C79
  8
2
  6
CONTINUOUS
 10
53.500000000000199
 20
20.0
 30
0.0
 11
53.500000000000199
 21
17.769999999999989
 31
0.0
  0
LINE
  5
C7A
  8
2
  6
CONTINUOUS
 10
53.871666666666819
 20
-17.77000000000001
 30
0.0
 11
53.500000000000199
 21
-20.0
 31
0.0
  0
LINE
  5
C7B
  8
2
  6
CONTINUOUS
 10
53.128333333333551
 20
-17.77000000000001
 30
0.0
 11
53.500000000000199
 21
-20.0
 31
0.0
  0
LINE
  5
C7C
  8
2
  6
CONTINUOUS
 10
53.500000000000199
 20
-20.0
 30
0.0
 11
53.500000000000199
 21
-17.77000000000001
 31
0.0
  0
TEXT
  5
C7D
  8
2
  6
CONTINUOUS
 10
32.505685457043882
 20
29.0
 30
0.0
 40
3.5
  1
11
1001
ACAD
1000
MTEXTBEGIN
1070
    73
1070
     1
1070
    44
1040
1.0
1070
    74
1070
     0
1000
MTEXTEND
1000
MTEXTBEGIN
1070
    73
1070
     1
1070
    44
1040
1.0
1070
    74
1070
     0
1000
MTEXTEND
1000
MTEXTBEGIN
1070
    73
1070
     1
1070
    44
1040
1.0
1070
    74
1070
     0
1000
MTEXTEND
  0
LINE
  5
C7E
  8
2
  6
CONTINUOUS
 10
37.770000000000188
 20
28.37166666666667
 30
0.0
 11
40.000000000000199
 21
28.0
 31
0.0
  0
LINE
  5
C7F
  8
2
  6
CONTINUOUS
 10
37.770000000000188
 20
27.62833333333333
 30
0.0
 11
40.000000000000199
 21
28.0
 31
0.0
  0
LINE
  5
C80
  8
2
  6
CONTINUOUS
 10
40.000000000000199
 20
28.0
 30
0.0
 11
37.770000000000188
 21
28.0
 31
0.0
  0
LINE
  5
C81
  8
2
  6
CONTINUOUS
 10
31.230000000000221
 20
27.62833333333333
 30
0.0
 11
29.00000000000021
 21
28.0
 31
0.0
  0
LINE
  5
C82
  8
2
  6
CONTINUOUS
 10
31.230000000000221
 20
28.37166666666667
 30
0.0
 11
29.00000000000021
 21
28.0
 31
0.0
  0
LINE
  5
C83
  8
2
  6
CONTINUOUS
 10
29.00000000000021
 20
28.0
 30
0.0
 11
31.230000000000221
 21
28.0
 31
0.0
  0
LINE
  5
C85
  8
SK6
  6
CONTINUOUS
 10
-16.623942255849379
 20
-15.131456390000009
 30
0.0
 11
-25.918636046832511
 21
-15.131456390000009
 31
0.0
1001
ITEMNAME
1000
LNSP2
  0
TEXT
  5
C86
  8
SK6
  6
CONTINUOUS
 10
-25.667822075131941
 20
-14.131456390000009
 30
0.0
 40
2.799999999999998
  1
M16
  7
YOKO
1001
ITEMNAME
1000
LNSP3
1001
ACAD
1000
MTEXTBEGIN
1070
    73
1070
     1
1070
    44
1040
1.0
1070
    74
1070
     0
1000
MTEXTEND
1000
MTEXTBEGIN
1070
    73
1070
     1
1070
    44
1040
1.0
1070
    74
1070
     0
1000
MTEXTEND
  0
LINE
  5
C87
  8
SK6
  6
CONTINUOUS
 10
-13.621593994942639
 20
-9.9312366509628163
 30
0.0
 11
-16.24319912584938
 21
-14.47198994
 31
0.0
1001
ACAD
1000
DSTYLE
1002
{
1070
     6
1000
OPEN
1070
   343
1005
0
1002
}
  0
LINE
  5
C88
  8
SK6
  6
CONTINUOUS
 10
-16.24319912584938
 20
-14.47198994
 30
0.0
 11
-16.623942255849379
 21
-15.131456390000009
 31
0.0
1001
ACAD
1000
DSTYLE
1002
{
1070
     6
1000
OPEN
1070
   343
1005
0
1002
}
  0
LINE
  5
C89
  8
SK6
  6
CONTINUOUS
 10
-13.9434667701031
 20
-9.7454033177805997
 30
0.0
 11
-12.50659399584938
 21
-8.0000000000000142
 31
0.0
  0
LINE
  5
C8A
  8
SK6
  6
CONTINUOUS
 10
-13.29972121978218
 20
-10.11706998414502
 30
0.0
 11
-12.50659399584938
 21
-8.0000000000000142
 31
0.0
  0
LINE
  5
C8B
  8
SK6
  6
CONTINUOUS
 10
-12.50659399584938
 20
-8.0000000000000142
 30
0.0
 11
-13.621593994942639
 21
-9.9312366509628163
 31
0.0
  0
LINE
  5
CA0
  8
1
  6
CONTINUOUS
 10
20.899999999999999
 20
-12.13354339998841
 30
0.0
 11
20.899999999999999
 21
1.1888988135646761
 31
0.0
  0
LINE
  5
CA1
  8
1
  6
CONTINUOUS
 10
20.899999999999999
 20
-12.13354339998841
 30
0.0
 11
5.0
 21
-12.13354339998841
 31
0.0
  0
LINE
  5
CA2
  8
1
  6
CONTINUOUS
 10
5.0
 20
1.1888988135646761
 30
0.0
 11
20.899999999999999
 21
1.1888988135646761
 31
0.0
  0
LINE
  5
CA3
  8
1
  6
CONTINUOUS
 10
19.898130525275182
 20
1.1888988135646761
 30
0.0
 11
19.898130525275182
 21
16.04629180195235
 31
0.0
  0
ARC
  5
CA4
  8
1
  6
CONTINUOUS
 10
7.7796464573171971
 20
-5.4723222932118594
 30
0.0
 40
14.714467157133299
 50
333.08303381489651
 51
26.916966185103441
  0
LINE
  5
CA5
  8
1
  6
CONTINUOUS
 10
21.5000000000054
 20
-0.1556087987683465
 30
0.0
 11
21.500000000005461
 21
15.537947537711659
 31
0.0
  0
ARC
  5
CA6
  8
1
  6
CONTINUOUS
 10
31.124876722308109
 20
-5.4723222932118629
 30
0.0
 40
26.960731636755739
 50
165.69572995465671
 51
194.30427004534329
  0
LINE
  5
CA7
  8
1
  6
CONTINUOUS
 10
5.0
 20
-12.13354339998841
 30
0.0
 11
20.899999999999999
 21
1.1888988135646761
 31
0.0
  0
LINE
  5
CA8
  8
1
  6
CONTINUOUS
 10
5.0
 20
1.1888988135646801
 30
0.0
 11
20.899999999999991
 21
-12.13354339998841
 31
0.0
  0
LINE
  5
CA9
  8
2
  6
CONTINUOUS
 10
-0.0000000000002309
 20
15.0
 30
0.0
 11
-0.0000000000002296
 21
36.0
 31
0.0
  0
LINE
  5
CAA
  8
2
  6
CONTINUOUS
 10
40.000000000000227
 20
20.5
 30
0.0
 11
40.000000000000227
 21
36.0
 31
0.0
  0
LINE
  5
CAB
  8
2
  6
CONTINUOUS
 10
2.2299999999997682
 20
35.0
 30
0.0
 11
37.770000000000231
 21
35.0
 31
0.0
  0
TEXT
  5
CAC
  8
2
  6
CONTINUOUS
 10
17.333333333333329
 20
36.0
 30
0.0
 40
2.799999999999998
  1
40
  0
LINE
  5
CAD
  8
2
  6
CONTINUOUS
 10
37.770000000000231
 20
35.37166666666667
 30
0.0
 11
40.000000000000227
 21
35.0
 31
0.0
  0
LINE
  5
CAE
  8
2
  6
CONTINUOUS
 10
37.770000000000231
 20
34.62833333333333
 30
0.0
 11
40.000000000000227
 21
35.0
 31
0.0
  0
LINE
  5
CAF
  8
2
  6
CONTINUOUS
 10
40.000000000000227
 20
35.0
 30
0.0
 11
37.770000000000231
 21
35.0
 31
0.0
  0
LINE
  5
CB0
  8
2
  6
CONTINUOUS
 10
2.2299999999997682
 20
34.62833333333333
 30
0.0
 11
-0.0000000000002297
 21
35.0
 31
0.0
  0
LINE
  5
CB1
  8
2
  6
CONTINUOUS
 10
2.2299999999997682
 20
35.37166666666667
 30
0.0
 11
-0.0000000000002297
 21
35.0
 31
0.0
  0
LINE
  5
CB2
  8
2
  6
CONTINUOUS
 10
-0.0000000000002297
 20
35.0
 30
0.0
 11
2.2299999999997682
 21
35.0
 31
0.0
  0
LINE
  5
CE0
  8
CUT
  6
CONTINUOUS
 10
39.721703210730141
 20
17.299999999999951
 30
0.0
 11
39.721703210730027
 21
10.50000000000003
 31
0.0
1001
GRPNAME
1000
PASTMD03
  0
LINE
  5
CE1
  8
CUT
  6
CONTINUOUS
 10
40.000000000000227
 20
17.631661198420041
 30
0.0
 11
39.721703210730141
 21
17.299999999999951
 31
0.0
1001
GRPNAME
1000
PASTMD03
  0
LINE
  5
CE2
  8
CUT
  6
CONTINUOUS
 10
40.000000000000227
 20
20.0
 30
0.0
 11
40.000000000000227
 21
17.631661198420041
 31
0.0
1001
GRPNAME
1000
PASTMD03
  0
LINE
  5
CE3
  8
CUT
  6
CONTINUOUS
 10
27.484296789270221
 20
19.999999999999972
 30
0.0
 11
40.000000000000227
 21
20.0
 31
0.0
1001
GRPNAME
1000
PASTMD03
  0
LINE
  5
CE6
  8
CUT
  6
CONTINUOUS
 10
27.484296789270221
 20
19.999999999999972
 30
0.0
 11
27.484296789270221
 21
13.20000000000025
 31
0.0
  0
LINE
  5
CFC
  8
NOCUT
  6
CONTINUOUS
 10
-0.0000000000000711
 20
0.0000000000000728
 30
0.0
 11
39.400000000000091
 21
0.0000000000000728
 31
0.0
  0
LINE
  5
CFD
  8
NOCUT
  6
CONTINUOUS
 10
-0.0000000000000711
 20
0.0000000000000728
 30
0.0
 11
0.0
 21
14.500000000000069
 31
0.0
  0
LINE
  5
CFE
  8
NOCUT
  6
CONTINUOUS
 10
39.400000000000091
 20
19.300000000000072
 30
0.0
 11
28.100000000000001
 21
19.60000000000008
 31
0.0
  0
LINE
  5
CFF
  8
NOCUT
  6
CONTINUOUS
 10
27.353589838485789
 20
19.399999999999981
 30
0.0
 11
23.400000000012479
 21
19.400000000007211
 31
0.0
  0
LINE
  5
D00
  8
NOCUT
  6
CONTINUOUS
 10
19.898130525275182
 20
17.500000000000071
 30
0.0
 11
4.9999999999999138
 21
17.500000000000071
 31
0.0
  0
LINE
  5
D01
  8
NOCUT
  6
CONTINUOUS
 10
3.2679491924311459
 20
14.500000000000069
 30
0.0
 11
0.0
 21
14.500000000000069
 31
0.0
  0
LINE
  5
D02
  8
NOCUT
  6
CONTINUOUS
 10
23.400000000012479
 20
19.400000000007211
 30
0.0
 11
21.300000000005241
 21
17.299999999999969
 31
0.0
  0
LINE
  5
D03
  8
NOCUT
  6
CONTINUOUS
 10
21.300000000005241
 20
17.299999999999969
 30
0.0
 11
20.290652626376531
 21
17.299999999999969
 31
0.0
  0
LINE
  5
D04
  8
NOCUT
  6
CONTINUOUS
 10
19.898130525275288
 20
17.49999999999995
 30
0.0
 11
20.290652626376531
 21
17.299999999999969
 31
0.0
  0
LINE
  5
D05
  8
NOCUT
  6
CONTINUOUS
 10
4.9999999999999138
 20
17.500000000000071
 30
0.0
 11
3.2679491924311459
 21
14.500000000000069
 31
0.0
  0
LINE
  5
D06
  8
NOCUT
  6
CONTINUOUS
 10
27.484296789270221
 20
19.435022821907811
 30
0.0
 11
28.100000000000001
 21
19.60000000000008
 31
0.0
  0
LINE
  5
D07
  8
NOCUT
  6
CONTINUOUS
 10
39.400000000000091
 20
0.0000000000000728
 30
0.0
 11
39.400000000000091
 21
19.300000000000072
 31
0.0
  0
LINE
  5
D71
  8
CUT
  6
CONTINUOUS
 10
27.205999999999928
 20
12.868338801579929
 30
0.0
 11
27.484296789270221
 21
13.20000000000025
 31
0.0
1001
GRPNAME
1000
PASTMD03
  0
LINE
  5
D72
  8
CUT
  6
CONTINUOUS
 10
27.205999999999928
 20
10.49999999999997
 30
0.0
 11
27.205999999999928
 21
12.868338801579929
 31
0.0
1001
GRPNAME
1000
PASTMD03
  0
LINE
  5
D73
  8
CUT
  6
CONTINUOUS
 10
39.721703210729942
 20
10.499999999999989
 30
0.0
 11
27.205999999999928
 21
10.49999999999997
 31
0.0
1001
GRPNAME
1000
PASTMD03
  0
CIRCLE
  5
D7C
  8
1
  6
CONTINUOUS
 10
33.60300000000008
 20
15.24999999999998
 30
0.0
 40
2.8999999999999999
  0
INSERT
  5
D9F
  8
7
  6
CONTINUOUS
  2
*X25
 10
0.0
 20
0.0
 30
0.0
1001
GENIUS_GENODEF_13
1002
{
1000
HIER
1070
     0
1002
}
1002
{
1000
MANEDIT
1070
     0
1002
}
1002
{
1000
NOSEL
1070
     0
1002
}
1002
{
1000
BEHIND
1070
     0
1002
}
1002
{
1000
OTHER
1070
     0
1002
}
1002
{
1000
REACTOR
1002
}
1001
GENIUS_GENOBJ-N-HTC_13
1002
{
1000
OWNER
1000
GEN
1002
}
1001
GENIUS_GENHATCH_13
1002
{
1000
DATA
1040
0.0
1042
4.5
1000
ANSI37
1070
     1
1011
33.715481518783243
1021
0.0
1031
0.0
1021
12.894222979391261
1031
0.0
1002
}
1002
{
1000
UCS
1010
0.0
1020
0.0
1030
0.0
1010
1.0
1020
0.0
1030
0.0
1010
0.0
1020
1.0
1030
0.0
1002
}
1001
ACAD
1000
HATCH
1002
{
1070
    19
1000
ANSI37
1040
4.5
1040
0.0
1000
R14_HATCH_DATA
1000
D9F
1011
1.0
1021
0.0
1031
0.0
1021
0.0
1031
0.0
1011
0.0
1021
0.0
1031
0.0
1021
1.0
1031
0.0
1011
0.0
1021
0.0
1031
0.0
1021
0.0
1031
1.0
1040
0.0
1010
0.0
1020
0.0
1030
1.0
1000
ANSI37
1070
     0
1070
     0
1071
        1
1071
        1
1071
        8
1070
     1
1040
39.721703210730141
1040
17.299999999999951
1040
40.000000000000227
1040
17.631661198420041
1070
     1
1040
40.000000000000227
1040
17.631661198420041
1040
40.000000000000227
1040
20.0
1070
     1
1040
40.000000000000227
1040
20.0
1040
27.484296789270221
1040
19.999999999999972
1070
     1
1040
27.484296789270221
1040
19.999999999999972
1040
27.484296789270221
1040
13.20000000000025
1070
     1
1040
27.484296789270221
1040
13.20000000000025
1040
27.205999999999928
1040
12.868338801579929
1070
     1
1040
27.205999999999928
1040
12.868338801579929
1040
27.205999999999928
1040
10.49999999999997
1070
     1
1040
27.205999999999928
1040
10.49999999999997
1040
39.721703210729942
1040
10.499999999999989
1070
     1
1040
39.721703210729942
1040
10.499999999999989
1040
39.721703210730141
1040
17.299999999999951
1071
        0
1070
     0
1070
     1
1040
0.0
1040
4.5
1070
     0
1070
     2
1040
0.7853981633974483
1040
-43.562354242750637
1040
-3.248455153548889
1040
-0.397747564417433
1040
0.397747564417433
1070
     0
1040
2.3561944901923439
1040
-43.562354242750637
1040
-3.248455153548889
1040
-0.397747564417433
1040
-0.397747564417433
1070
     0
1071
        1
1040
-43.562354242750637
1040
-3.248455153548889
1040
0.0
1002
}
  0
TEXT
  5
DB1
  8
6
  6
CONTINUOUS
 10
-24.459811489700002
 20
61.406919313900012
 30
0.0
 40
3.5
  1
BIG DAISHOWA
 41
0.85
  0
TEXT
  5
DB2
  8
6
  6
CONTINUOUS
 10
-24.459811489700002
 20
56.156919313899998
 30
0.0
 40
3.5
  1
M16-FCM40112-40
 41
0.85
  0
ENDSEC
  0
EOF
