  0
SECTION
  2
HEADER
  9
$ACADVER
  1
AC1009
  9
$INSBASE
 10
0.0
 20
0.0
 30
0.0
  9
$EXTMIN
 10
-24.959999999999969
 20
-22.0
 30
0.0
  9
$EXTMAX
 10
55.008221457034992
 20
32.0
 30
0.0
  9
$LIMMIN
 10
0.0
 20
0.0
  9
$LIMMAX
 10
297.0
 20
210.0
  9
$ORTHOMODE
 70
     1
  9
$REGENMODE
 70
     1
  9
$FILLMODE
 70
     1
  9
$QTEXTMODE
 70
     0
  9
$MIRRTEXT
 70
     1
  9
$DRAGMODE
 70
     2
  9
$LTSCALE
 40
10.0
  9
$OSMODE
 70
    47
  9
$ATTMODE
 70
     1
  9
$TEXTSIZE
 40
4.0
  9
$TRACEWID
 40
1.0
  9
$TEXTSTYLE
  7
YOKO
  9
$CLAYER
  8
240
  9
$CELTYPE
  6
BYLAYER
  9
$CECOLOR
 62
   256
  9
$DIMSCALE
 40
1.0
  9
$DIMASZ
 40
2.2299999999999991
  9
$DIMEXO
 40
0.5
  9
$DIMDLI
 40
7.0
  9
$DIMRND
 40
0.0
  9
$DIMDLE
 40
0.0
  9
$DIMEXE
 40
1.0
  9
$DIMTP
 40
0.0
  9
$DIMTM
 40
0.01
  9
$DIMTXT
 40
2.7999999999999989
  9
$DIMCEN
 40
0.0
  9
$DIMTSZ
 40
0.0
  9
$DIMTOL
 70
     0
  9
$DIMLIM
 70
     0
  9
$DIMTIH
 70
     0
  9
$DIMTOH
 70
     0
  9
$DIMSE1
 70
     0
  9
$DIMSE2
 70
     0
  9
$DIMTAD
 70
     3
  9
$DIMZIN
 70
     9
  9
$DIMBLK
  1
OPEN
  9
$DIMASO
 70
     1
  9
$DIMSHO
 70
     1
  9
$DIMPOST
  1

  9
$DIMAPOST
  1

  9
$DIMALT
 70
     0
  9
$DIMALTD
 70
     2
  9
$DIMALTF
 40
25.399999999999999
  9
$DIMLFAC
 40
1.0
  9
$DIMTOFL
 70
     1
  9
$DIMTVP
 40
0.0
  9
$DIMTIX
 70
     1
  9
$DIMSOXD
 70
     0
  9
$DIMSAH
 70
     0
  9
$DIMBLK1
  1

  9
$DIMBLK2
  1

  9
$DIMSTYLE
  2
BIGT
  9
$DIMCLRD
 70
   256
  9
$DIMCLRE
 70
   256
  9
$DIMCLRT
 70
    40
  9
$DIMTFAC
 40
1.0
  9
$DIMGAP
 40
1.0
  9
$LUNITS
 70
     2
  9
$LUPREC
 70
     6
  9
$SKETCHINC
 40
1.0
  9
$FILLETRAD
 40
0.0
  9
$AUNITS
 70
     0
  9
$AUPREC
 70
     6
  9
$MENU
  1
.
  9
$ELEVATION
 40
0.0
  9
$PELEVATION
 40
0.0
  9
$THICKNESS
 40
0.0
  9
$LIMCHECK
 70
     0
  9
$BLIPMODE
 70
     0
  9
$CHAMFERA
 40
0.2
  9
$CHAMFERB
 40
0.2
  9
$SKPOLY
 70
     0
  9
$TDCREATE
 40
2460249.4987551621
  9
$TDUPDATE
 40
2460249.5307352659
  9
$TDINDWG
 40
0.0316304514
  9
$TDUSRTIMER
 40
0.0316304167
  9
$USRTIMER
 70
     1
  9
$ANGBASE
 50
0.0
  9
$ANGDIR
 70
     0
  9
$PDMODE
 70
     1
  9
$PDSIZE
 40
0.0
  9
$PLINEWID
 40
0.0
  9
$COORDS
 70
     1
  9
$SPLFRAME
 70
     0
  9
$SPLINETYPE
 70
     6
  9
$SPLINESEGS
 70
     4
  9
$ATTDIA
 70
     1
  9
$ATTREQ
 70
     1
  9
$HANDLING
 70
     1
  9
$HANDSEED
  5
4510
  9
$SURFTAB1
 70
     6
  9
$SURFTAB2
 70
     6
  9
$SURFTYPE
 70
     6
  9
$SURFU
 70
     6
  9
$SURFV
 70
     6
  9
$UCSNAME
  2

  9
$UCSORG
 10
0.0
 20
0.0
 30
0.0
  9
$UCSXDIR
 10
1.0
 20
0.0
 30
0.0
  9
$UCSYDIR
 10
0.0
 20
1.0
 30
0.0
  9
$PUCSNAME
  2

  9
$PUCSORG
 10
0.0
 20
0.0
 30
0.0
  9
$PUCSXDIR
 10
1.0
 20
0.0
 30
0.0
  9
$PUCSYDIR
 10
0.0
 20
1.0
 30
0.0
  9
$USERI1
 70
     1
  9
$USERI2
 70
     0
  9
$USERI3
 70
     0
  9
$USERI4
 70
     0
  9
$USERI5
 70
     0
  9
$USERR1
 40
0.0
  9
$USERR2
 40
0.0
  9
$USERR3
 40
0.0
  9
$USERR4
 40
0.0
  9
$USERR5
 40
0.0
  9
$WORLDVIEW
 70
     1
  9
$SHADEDGE
 70
     3
  9
$SHADEDIF
 70
    70
  9
$TILEMODE
 70
     1
  9
$MAXACTVP
 70
    16
  9
$PLIMCHECK
 70
     0
  9
$PEXTMIN
 10
1.0000000000000000E+020
 20
1.0000000000000000E+020
 30
1.0000000000000000E+020
  9
$PEXTMAX
 10
-1.0000000000000000E+020
 20
-1.0000000000000000E+020
 30
-1.0000000000000000E+020
  9
$PLIMMIN
 10
0.0
 20
0.0
  9
$PLIMMAX
 10
420.0
 20
297.0
  9
$UNITMODE
 70
     0
  9
$VISRETAIN
 70
     1
  9
$PLINEGEN
 70
     0
  9
$PSLTSCALE
 70
     1
  0
ENDSEC
  0
SECTION
  2
TABLES
  0
TABLE
  2
VPORT
 70
     1
  0
VPORT
  2
*ACTIVE
 70
     0
 10
0.0
 20
0.0
 11
1.0
 21
1.0
 12
28.241835711120132
 22
5.50286020335811
 13
0.0
 23
0.0
 14
7.0
 24
7.0
 15
7.0
 25
7.0
 16
0.0
 26
0.0
 36
1.0
 17
0.0
 27
0.0
 37
0.0
 40
99.908382580999486
 41
2.1896551724137931
 42
50.0
 43
0.0
 44
0.0
 50
0.0
 51
0.0
 71
     0
 72
  2000
 73
     1
 74
     0
 75
     1
 76
     1
 77
     0
 78
     0
  0
ENDTAB
  0
TABLE
  2
LTYPE
 70
    13
  0
LTYPE
  2
CONTINUOUS
 70
     0
  3
Solid line
 72
    65
 73
     0
 40
0.0
  0
LTYPE
  2
CENTER2
 70
     0
  3
___ _ ___ _ ___ _ ___ _ ___ _ ___ _ ___ _ ___ _
 72
    65
 73
     4
 40
1.125
 49
0.75
 49
-0.125
 49
0.125
 49
-0.125
  0
LTYPE
  2
HIDDEN2
 70
     0
  3
_ _ _ _ _ _ _ _ _ _ _ _ _ _ _ _ _ _ _ _ _ _ _ _
 72
    65
 73
     2
 40
0.1875
 49
0.125
 49
-0.0625
  0
LTYPE
  2
PHANTOM2
 70
     0
  3
___ _ _ ___ _ _ ___ _ _ ___ _ _ ___ _ _ ___ _ _
 72
    65
 73
     6
 40
1.25
 49
0.625
 49
-0.125
 49
0.125
 49
-0.125
 49
0.125
 49
-0.125
  0
LTYPE
  2
AM_ISO02W050
 70
     0
  3
__ __ __ __ __ __ __ __ __ __ __ __ __ __ __
 72
    65
 73
     2
 40
7.5
 49
6.0
 49
-1.5
  0
LTYPE
  2
AMCONSTR
 70
     0
  3
_______________________
 72
    65
 73
     2
 40
9999.0
 49
9999.0
 49
0.0
  0
LTYPE
  2
ACISOWELD
 70
     0
  3
_ _ _ _ _
 72
    65
 73
     2
 40
2.0
 49
2.0
 49
-1.0
  0
LTYPE
  2
ACISOTGB
 70
     0
  3
__ . . __ . .
 72
    65
 73
     6
 40
9.0
 49
4.0
 49
-1.0
 49
1.0
 49
-1.0
 49
1.0
 49
-1.0
  0
LTYPE
  2
ACISOTGL
 70
     0
  3
_ _ _ _ _
 72
    65
 73
     2
 40
3.0
 49
2.0
 49
-1.0
  0
LTYPE
  2
ACJISTGB
 70
     0
  3
__ . . __ . .
 72
    65
 73
     6
 40
9.0
 49
4.0
 49
-1.0
 49
1.0
 49
-1.0
 49
1.0
 49
-1.0
  0
LTYPE
  2
ACJISTGL
 70
     0
  3
_ _ _ _ _
 72
    65
 73
     2
 40
3.0
 49
2.0
 49
-1.0
  0
ENDTAB
  0
TABLE
  2
LAYER
 70
     9
  0
LAYER
  2
0
 70
     0
 62
     7
  6
CONTINUOUS
  0
LAYER
  2
DEFPOINTS
 70
     0
 62
     7
  6
CONTINUOUS
  0
LAYER
  2
245
 70
     0
 62
     2
  6
CENTER2
  0
LAYER
  2
240
 70
     0
 62
     4
  6
CONTINUOUS
  0
LAYER
  2
241
 70
     0
 62
   211
  6
CONTINUOUS
  0
LAYER
  2
242
 70
     0
 62
     3
  6
CONTINUOUS
  0
LAYER
  2
243
 70
     0
 62
   211
  6
HIDDEN2
  0
LAYER
  2
244
 70
     0
 62
     3
  6
HIDDEN2
  0
LAYER
  2
250
 70
     0
 62
     3
  6
CONTINUOUS
  0
ENDTAB
  0
TABLE
  2
STYLE
 70
     6
  0
STYLE
  2
STANDARD
 70
     0
 40
0.0
 41
1.0
 50
0.0
 71
     0
 42
3.0
  3
romans.shx
  4
extfont.shx
  0
STYLE
  2
ACISOTS
 70
     0
 40
1.0
 41
1.0
 50
0.0
 71
     0
 42
3.0
  3
amgdt.shx
  4
extfont.shx
  0
STYLE
  2
ACISOGDT
 70
     0
 40
0.0
 41
1.0
 50
0.0
 71
     0
 42
3.0
  3
amgdt.shx
  4
extfont.shx
  0
STYLE
  2
ACJISTS
 70
     0
 40
1.0
 41
1.0
 50
0.0
 71
     0
 42
3.0
  3
amgdt.shx
  4
extfont.shx
  0
STYLE
  2
ACJISGDT
 70
     0
 40
0.0
 41
1.0
 50
0.0
 71
     0
 42
3.0
  3
amgdt.shx
  4
extfont.shx
  0
STYLE
  2
YOKO
 70
     0
 40
0.0
 41
1.0
 50
0.0
 71
     0
 42
4.0
  3
romans.shx
  4
extfont.shx
  0
ENDTAB
  0
TABLE
  2
VIEW
 70
     0
  0
ENDTAB
  0
TABLE
  2
UCS
 70
     0
  0
ENDTAB
  0
TABLE
  2
APPID
 70
    42
  0
APPID
  2
ACAD
 70
     0
  0
APPID
  2
GLOBAL
 70
     0
  0
APPID
  2
DETAIL
 70
     0
  0
APPID
  2
GRPNAME
 70
     0
  0
APPID
  2
GPARA
 70
     0
  0
APPID
  2
MCAD_NO_VIS
 70
     0
  0
APPID
  2
ACAD_TEMP_GRAPHIC
 70
     0
  0
APPID
  2
ACATTRIBSERVICES
 70
     0
  0
APPID
  2
GENIUS_GENSCREG_15
 70
     0
  0
APPID
  2
GENIUS_GENODEF_13
 70
     0
  0
APPID
  2
GENIUS_GENOBJ-N-SDF_13
 70
     0
  0
APPID
  2
GENIUS_GENREC_14
 70
     0
  0
APPID
  2
GENIUS_GENOBJ-N-REC_13
 70
     0
  0
APPID
  2
GENIUS_GENDIMSH_14
 70
     0
  0
APPID
  2
GENIUS_GENOBJ-N-DIM_13
 70
     0
  0
APPID
  2
GENIUS_GENDIM_13
 70
     0
  0
APPID
  2
GENIUS_GENDTOL_13
 70
     0
  0
APPID
  2
GENIUS_GENOLIS_13
 70
     0
  0
APPID
  2
GENIUS_GENOENT_13
 70
     0
  0
APPID
  2
GENIUS_GENOBJ-F-FEM_13
 70
     0
  0
APPID
  2
GENIUS_GENOREF_13
 70
     0
  0
APPID
  2
GENIUS_GEFFEM_13
 70
     0
  0
APPID
  2
GENIUS_GEFFEMP_13
 70
     0
  0
APPID
  2
AD_DRAW
 70
     0
  0
APPID
  2
DESIGNERASSEMBLIES
 70
     0
  0
APPID
  2
ACADM_DIM_EDIT
 70
     0
  0
APPID
  2
AMDT_DM_ADJ
 70
     0
  0
APPID
  2
ITEMNAME
 70
     0
  0
APPID
  2
GENIUS_GENOBJ-N-FIL_13
 70
     0
  0
APPID
  2
GENIUS_GENFIL_13
 70
     0
  0
APPID
  2
GENIUS_GENOBJ-N-CHA_13
 70
     0
  0
APPID
  2
ACAD_NAV_VCDISPLAY
 70
     0
  0
APPID
  2
LAYER_SCALE
 70
     0
  0
APPID
  2
ACAD_PSEXT
 70
     0
  0
APPID
  2
ACAD_DSTYLE_DIMRADIAL_EXTENSION
 70
     0
  0
APPID
  2
ACAD_DSTYLE_DIMJAG
 70
     0
  0
APPID
  2
ACAD_DSTYLE_DIMBREAK
 70
     0
  0
APPID
  2
ACAECLAYERSTANDARD
 70
     0
  0
APPID
  2
ACAD_DSTYLE_DIMINSPECT
 70
     0
  0
APPID
  2
PLOTTRANSPARENCY
 70
     0
  0
APPID
  2
ACAD_EXEMPT_FROM_CAD_STANDARDS
 70
     0
  0
APPID
  2
ACAD_MLEADERVER
 70
     0
  0
ENDTAB
  0
TABLE
  2
DIMSTYLE
 70
    23
  0
DIMSTYLE
  2
BIGT
 70
     0
  3

  4

  5
OPEN
  6

  7

 40
1.0
 41
2.2299999999999991
 42
0.5
 43
7.0
 44
1.0
 45
0.0
 46
0.0
 47
0.0
 48
0.01
140
2.7999999999999989
141
0.0
142
0.0
143
25.399999999999999
144
1.0
145
0.0
146
1.0
147
1.0
 71
     0
 72
     0
 73
     0
 74
     0
 75
     0
 76
     0
 77
     3
 78
     9
170
     0
171
     2
172
     1
173
     0
174
     1
175
     0
176
   256
177
   256
178
    40
  0
DIMSTYLE
  2
AM_ISO
 70
     0
  3

  4
"
  5

  6

  7

 40
1.0
 41
2.5
 42
1.0
 43
10.0
 44
1.0
 45
0.0
 46
0.0
 47
0.1
 48
0.1
140
3.5
141
0.0
142
0.0
143
0.0393701
144
1.0
145
0.0
146
0.71
147
1.5
 71
     0
 72
     0
 73
     0
 74
     0
 75
     0
 76
     0
 77
     1
 78
     8
170
     0
171
     2
172
     1
173
     0
174
     0
175
     0
176
   256
177
   256
178
     2
  0
DIMSTYLE
  2
AM_ISO$3
 70
     0
  3

  4
"
  5

  6

  7

 40
1.0
 41
2.5
 42
1.0
 43
10.0
 44
1.0
 45
0.0
 46
0.0
 47
0.1
 48
0.1
140
3.5
141
0.0
142
0.0
143
0.0393701
144
1.0
145
0.0
146
0.71
147
1.5
 71
     0
 72
     0
 73
     0
 74
     1
 75
     0
 76
     0
 77
     1
 78
     8
170
     0
171
     2
172
     0
173
     0
174
     0
175
     0
176
   256
177
   256
178
     2
  0
DIMSTYLE
  2
AM_ISO$4
 70
     0
  3

  4
"
  5

  6

  7

 40
1.0
 41
2.5
 42
1.0
 43
10.0
 44
1.0
 45
0.0
 46
0.0
 47
0.1
 48
0.1
140
3.5
141
0.0
142
0.0
143
0.0393701
144
1.0
145
0.0
146
0.71
147
1.5
 71
     0
 72
     0
 73
     0
 74
     1
 75
     0
 76
     0
 77
     1
 78
     8
170
     0
171
     2
172
     0
173
     0
174
     0
175
     0
176
   256
177
   256
178
     2
  0
DIMSTYLE
  2
AM_ISO$6
 70
     0
  3

  4
"
  5

  6

  7

 40
1.0
 41
2.5
 42
1.0
 43
10.0
 44
1.0
 45
0.0
 46
0.0
 47
0.1
 48
0.1
140
3.5
141
0.0
142
0.0
143
0.0393701
144
1.0
145
0.0
146
0.71
147
1.5
 71
     0
 72
     0
 73
     0
 74
     0
 75
     0
 76
     0
 77
     0
 78
     8
170
     0
171
     2
172
     1
173
     0
174
     0
175
     0
176
   256
177
   256
178
     2
  0
DIMSTYLE
  2
AM_ISO$7
 70
     0
  3

  4
"
  5

  6

  7

 40
1.0
 41
2.5
 42
1.0
 43
10.0
 44
1.0
 45
0.0
 46
0.0
 47
0.1
 48
0.1
140
5.0
141
0.0
142
0.0
143
0.0393701
144
1.0
145
0.0
146
0.71
147
1.5
 71
     0
 72
     0
 73
     0
 74
     0
 75
     0
 76
     0
 77
     1
 78
     8
170
     0
171
     2
172
     1
173
     0
174
     0
175
     0
176
   256
177
   256
178
     2
  0
DIMSTYLE
  2
AM_ISO$SF
 70
     0
  3

  4
"
  5

  6

  7

 40
1.0
 41
2.5
 42
1.0
 43
10.0
 44
1.0
 45
0.0
 46
0.0
 47
0.1
 48
0.1
140
3.5
141
0.0
142
0.0
143
0.0393701
144
1.0
145
0.0
146
0.71
147
1.5
 71
     0
 72
     0
 73
     0
 74
     0
 75
     1
 76
     1
 77
     1
 78
     8
170
     0
171
     2
172
     1
173
     0
174
     0
175
     0
176
   256
177
   256
178
     2
  0
DIMSTYLE
  2
AM_ISO$SH
 70
     0
  3

  4
"
  5

  6
GENAXEH
  7

 40
1.0
 41
2.5
 42
1.0
 43
10.0
 44
1.0
 45
0.0
 46
0.0
 47
0.1
 48
0.1
140
3.5
141
0.0
142
0.0
143
0.0393701
144
2.0
145
0.0
146
0.71
147
1.5
 71
     0
 72
     0
 73
     0
 74
     0
 75
     1
 76
     1
 77
     1
 78
     8
170
     0
171
     2
172
     1
173
     1
174
     0
175
     0
176
   256
177
   256
178
     2
  0
DIMSTYLE
  2
BIGT$2
 70
     0
  3

  4

  5
OPEN
  6

  7

 40
1.0
 41
2.2299999999999991
 42
0.5
 43
7.0
 44
1.0
 45
0.0
 46
0.0
 47
0.0
 48
0.01
140
2.7999999999999989
141
0.0
142
0.0
143
25.399999999999999
144
1.0
145
0.0
146
1.0
147
1.0
 71
     0
 72
     0
 73
     0
 74
     0
 75
     0
 76
     0
 77
     3
 78
     9
170
     0
171
     2
172
     1
173
     0
174
     0
175
     0
176
   256
177
   256
178
    40
  0
DIMSTYLE
  2
BIGT$3
 70
     0
  3

  4

  5
OPEN
  6

  7

 40
1.0
 41
2.2299999999999991
 42
0.5
 43
2.5
 44
1.0
 45
0.0
 46
0.0
 47
0.0
 48
0.01
140
2.7999999999999989
141
0.0
142
0.0
143
25.399999999999999
144
1.0
145
0.0
146
1.0
147
1.0
 71
     0
 72
     0
 73
     0
 74
     0
 75
     0
 76
     0
 77
     3
 78
     9
170
     0
171
     2
172
     1
173
     0
174
     0
175
     0
176
   256
177
   256
178
    40
  0
DIMSTYLE
  2
BIGT$7
 70
     0
  3

  4

  5
OPEN
  6

  7

 40
0.0
 41
2.2299999999999991
 42
0.5
 43
7.0
 44
1.0
 45
0.0
 46
0.0
 47
0.0
 48
0.01
140
2.7999999999999989
141
0.0
142
0.0
143
25.399999999999999
144
1.0
145
0.0
146
1.0
147
1.0
 71
     0
 72
     0
 73
     0
 74
     0
 75
     0
 76
     0
 77
     3
 78
     9
170
     0
171
     2
172
     0
173
     0
174
     0
175
     0
176
   256
177
   256
178
    40
  0
DIMSTYLE
  2
BIGT$6
 70
     0
  3

  4

  5
OPEN
  6

  7

 40
1.0
 41
2.2299999999999991
 42
0.5
 43
2.5
 44
1.0
 45
0.0
 46
0.0
 47
0.0
 48
0.01
140
2.7999999999999989
141
0.0
142
0.0
143
25.399999999999999
144
1.0
145
0.0
146
1.0
147
1.0
 71
     0
 72
     0
 73
     0
 74
     0
 75
     0
 76
     0
 77
     3
 78
     9
170
     0
171
     2
172
     1
173
     0
174
     0
175
     0
176
   256
177
   256
178
    40
  0
DIMSTYLE
  2
BIGT$0
 70
     0
  3

  4

  5
OPEN
  6

  7

 40
1.0
 41
2.2299999999999991
 42
0.5
 43
7.0
 44
1.0
 45
0.0
 46
0.0
 47
0.0
 48
0.01
140
2.7999999999999989
141
0.0
142
0.0
143
25.399999999999999
144
1.0
145
0.0
146
1.0
147
1.0
 71
     0
 72
     0
 73
     0
 74
     0
 75
     0
 76
     0
 77
     3
 78
     9
170
     0
171
     2
172
     1
173
     0
174
     1
175
     0
176
   256
177
   256
178
    40
  0
DIMSTYLE
  2
BIGT$4
 70
     0
  3

  4

  5
OPEN
  6

  7

 40
1.0
 41
2.2299999999999991
 42
0.5
 43
2.5
 44
1.0
 45
0.0
 46
0.0
 47
0.0
 48
0.01
140
2.7999999999999989
141
0.0
142
0.0
143
25.399999999999999
144
1.0
145
0.0
146
1.0
147
1.0
 71
     0
 72
     0
 73
     0
 74
     0
 75
     0
 76
     0
 77
     3
 78
     9
170
     0
171
     2
172
     1
173
     0
174
     0
175
     0
176
   256
177
   256
178
    40
  0
DIMSTYLE
  2
BIGT$SH
 70
     0
  3

  4

  5
OPEN
  6

  7

 40
1.0
 41
2.2299999999999991
 42
0.5
 43
7.0
 44
1.0
 45
0.0
 46
0.0
 47
0.0
 48
0.0
140
2.7999999999999989
141
0.0
142
0.0
143
25.399999999999999
144
1.0
145
0.0
146
1.0
147
1.0
 71
     0
 72
     0
 73
     0
 74
     0
 75
     0
 76
     0
 77
     3
 78
     9
170
     0
171
     2
172
     1
173
     0
174
     0
175
     0
176
   256
177
   256
178
    40
  0
DIMSTYLE
  2
BIGT$SF
 70
     0
  3

  4

  5
OPEN
  6

  7

 40
1.0
 41
2.2299999999999991
 42
0.5
 43
7.0
 44
1.0
 45
0.0
 46
0.0
 47
0.0
 48
0.0
140
2.7999999999999989
141
0.0
142
0.0
143
25.399999999999999
144
1.0
145
0.0
146
1.0
147
1.0
 71
     0
 72
     0
 73
     0
 74
     0
 75
     0
 76
     0
 77
     3
 78
     9
170
     0
171
     2
172
     1
173
     0
174
     0
175
     0
176
   256
177
   256
178
    40
  0
DIMSTYLE
  2
TECHNICAL_OSAKA
 70
     0
  3

  4
"
  5
OPEN30
  6

  7

 40
1.0
 41
2.5
 42
1.0
 43
10.0
 44
1.0
 45
0.0
 46
0.0
 47
0.1
 48
0.1
140
2.7999999999999989
141
0.0
142
0.0
143
0.0393701
144
1.0
145
0.0
146
0.71
147
1.5
 71
     0
 72
     0
 73
     0
 74
     0
 75
     0
 76
     0
 77
     3
 78
     8
170
     0
171
     2
172
     1
173
     0
174
     0
175
     0
176
   256
177
   256
178
    40
  0
DIMSTYLE
  2
TECHNICAL_OSAKA$3
 70
     0
  3

  4
"
  5
OPEN30
  6

  7

 40
1.0
 41
2.5
 42
1.0
 43
10.0
 44
1.0
 45
0.0
 46
0.0
 47
0.1
 48
0.1
140
2.7999999999999989
141
0.0
142
0.0
143
0.0393701
144
1.0
145
0.0
146
0.71
147
1.5
 71
     0
 72
     0
 73
     0
 74
     1
 75
     0
 76
     0
 77
     3
 78
     8
170
     0
171
     2
172
     0
173
     0
174
     0
175
     0
176
   256
177
   256
178
    40
  0
DIMSTYLE
  2
TECHNICAL_OSAKA$4
 70
     0
  3

  4
"
  5
OPEN30
  6

  7

 40
1.0
 41
2.5
 42
1.0
 43
10.0
 44
1.0
 45
0.0
 46
0.0
 47
0.1
 48
0.1
140
2.7999999999999989
141
0.0
142
0.0
143
0.0393701
144
1.0
145
0.0
146
0.71
147
1.5
 71
     0
 72
     0
 73
     0
 74
     1
 75
     0
 76
     0
 77
     3
 78
     8
170
     0
171
     2
172
     0
173
     0
174
     0
175
     0
176
   256
177
   256
178
    40
  0
DIMSTYLE
  2
TECHNICAL_OSAKA$6
 70
     0
  3

  4
"
  5
OPEN30
  6

  7

 40
1.0
 41
2.5
 42
1.0
 43
10.0
 44
1.0
 45
0.0
 46
0.0
 47
0.1
 48
0.1
140
2.7999999999999989
141
0.0
142
0.0
143
0.0393701
144
1.0
145
0.0
146
0.71
147
1.5
 71
     0
 72
     0
 73
     0
 74
     0
 75
     0
 76
     0
 77
     0
 78
     8
170
     0
171
     2
172
     1
173
     0
174
     0
175
     0
176
   256
177
   256
178
    40
  0
DIMSTYLE
  2
TECHNICAL_OSAKA$7
 70
     0
  3

  4
"
  5
OPEN30
  6

  7

 40
1.0
 41
2.5
 42
1.0
 43
10.0
 44
1.0
 45
0.0
 46
0.0
 47
0.1
 48
0.1
140
2.7999999999999989
141
0.0
142
0.0
143
0.0393701
144
1.0
145
0.0
146
0.71
147
1.5
 71
     0
 72
     0
 73
     0
 74
     0
 75
     0
 76
     0
 77
     3
 78
     8
170
     0
171
     2
172
     1
173
     0
174
     0
175
     0
176
   256
177
   256
178
    40
  0
DIMSTYLE
  2
TECHNICAL_OSAKA$SF
 70
     0
  3

  4
"
  5
OPEN30
  6
OPEN30
  7
OPEN30
 40
1.0
 41
2.5
 42
1.0
 43
10.0
 44
1.0
 45
0.0
 46
0.0
 47
0.1
 48
0.1
140
3.5
141
0.0
142
0.0
143
0.0393701
144
1.0
145
0.0
146
0.71
147
1.5
 71
     0
 72
     0
 73
     0
 74
     0
 75
     1
 76
     1
 77
     3
 78
     8
170
     0
171
     2
172
     1
173
     0
174
     0
175
     0
176
   256
177
   256
178
    40
  0
DIMSTYLE
  2
TECHNICAL_OSAKA$SH
 70
     0
  3

  4
"
  5
OPEN30
  6
GENAXEH
  7
OPEN30
 40
1.0
 41
2.5
 42
1.0
 43
10.0
 44
1.0
 45
0.0
 46
0.0
 47
0.1
 48
0.1
140
3.5
141
0.0
142
0.0
143
0.0393701
144
2.0
145
0.0
146
0.71
147
1.5
 71
     0
 72
     0
 73
     0
 74
     0
 75
     1
 76
     1
 77
     3
 78
     8
170
     0
171
     2
172
     1
173
     1
174
     0
175
     0
176
   256
177
   256
178
    40
  0
ENDTAB
  0
ENDSEC
  0
SECTION
  2
BLOCKS
  0
BLOCK
  8
0
  2
$MODEL_SPACE
 70
     0
 10
0.0
 20
0.0
 30
0.0
  3
$MODEL_SPACE
  1

  0
ENDBLK
  5
1C
  8
0
  0
BLOCK
 67
     1
  8
0
  2
$PAPER_SPACE
 70
     0
 10
0.0
 20
0.0
 30
0.0
  3
$PAPER_SPACE
  1

  0
ENDBLK
  5
19
 67
     1
  8
0
  0
BLOCK
  8
0
  2
_OPEN
 70
     0
 10
0.0
 20
0.0
 30
0.0
  3
_OPEN
  1

  0
LINE
  5
4417
  8
0
  6
BYBLOCK
 62
     0
 10
-1.0
 20
0.1666666666666666
 30
0.0
 11
0.0
 21
0.0
 31
0.0
  0
LINE
  5
4418
  8
0
  6
BYBLOCK
 62
     0
 10
-1.0
 20
-0.1666666666666666
 30
0.0
 11
0.0
 21
0.0
 31
0.0
  0
LINE
  5
4419
  8
0
  6
BYBLOCK
 62
     0
 10
0.0
 20
0.0
 30
0.0
 11
-1.0
 21
0.0
 31
0.0
  0
ENDBLK
  5
441A
  8
0
  0
BLOCK
  8
0
  2
GENAXEH
 70
     0
 10
0.0
 20
0.0
 30
0.0
  3
GENAXEH
  1

  0
LINE
  5
4452
  8
0
 10
-1.0
 20
0.0
 30
0.0
 11
1.0
 21
0.0
 31
0.0
  0
ENDBLK
  5
4453
  8
0
  0
BLOCK
  8
0
  2
_OPEN30
 70
     0
 10
0.0
 20
0.0
 30
0.0
  3
_OPEN30
  1

  0
LINE
  5
448E
  8
0
  6
BYBLOCK
 62
     0
 10
-1.0
 20
0.26794919
 30
0.0
 11
0.0
 21
0.0
 31
0.0
  0
LINE
  5
448F
  8
0
  6
BYBLOCK
 62
     0
 10
0.0
 20
0.0
 30
0.0
 11
-1.0
 21
-0.26794919
 31
0.0
  0
LINE
  5
4490
  8
0
  6
BYBLOCK
 62
     0
 10
0.0
 20
0.0
 30
0.0
 11
-1.0
 21
0.0
 31
0.0
  0
ENDBLK
  5
4491
  8
0
  0
ENDSEC
  0
SECTION
  2
ENTITIES
  0
LINE
  5
424B
  8
240
  6
CONTINUOUS
 10
24.80000000000009
 20
6.0000000000000071
 30
0.0
 11
3.0000000000002909
 21
6.0000000000000071
 31
0.0
  0
LINE
  5
424C
  8
240
  6
CONTINUOUS
 10
24.800000000000011
 20
-6.0000000000000142
 30
0.0
 11
3.0000000000001492
 21
-6.0000000000000071
 31
0.0
  0
LINE
  5
424D
  8
245
  6
CENTER2
 10
37.300000000000011
 20
0.0
 30
0.0
 11
-1.0
 21
0.0
 31
0.0
  0
LINE
  5
424E
  8
240
  6
CONTINUOUS
 10
24.800000000000011
 20
-8.4999999999999911
 30
0.0
 11
24.800000000000011
 21
-6.0000000000000142
 31
0.0
  0
LINE
  5
424F
  8
240
  6
CONTINUOUS
 10
36.300000000000011
 20
-8.5
 30
0.0
 11
36.300000000000011
 21
8.4999999999999911
 31
0.0
  0
LINE
  5
4250
  8
240
  6
CONTINUOUS
 10
35.800000000000011
 20
-8.9999999999999911
 30
0.0
 11
25.300000000000011
 21
-8.9999999999999911
 31
0.0
  0
LINE
  5
4251
  8
242
  6
CONTINUOUS
 10
36.300000000000011
 20
-8.4999999999999911
 30
0.0
 11
24.800000000000011
 21
-8.4999999999999911
 31
0.0
  0
LINE
  5
4252
  8
240
  6
CONTINUOUS
 10
36.300000000000011
 20
-8.5
 30
0.0
 11
35.800000000000011
 21
-8.9999999999999911
 31
0.0
  0
LINE
  5
4253
  8
240
  6
CONTINUOUS
 10
25.300000000000011
 20
-8.9999999999999911
 30
0.0
 11
24.800000000000011
 21
-8.4999999999999911
 31
0.0
  0
LINE
  5
4254
  8
240
  6
CONTINUOUS
 10
35.800000000000011
 20
8.9999999999999911
 30
0.0
 11
25.300000000000011
 21
8.9999999999999911
 31
0.0
  0
LINE
  5
4255
  8
242
  6
CONTINUOUS
 10
36.300000000000011
 20
8.4999999999999911
 30
0.0
 11
24.800000000000011
 21
8.4999999999999911
 31
0.0
  0
LINE
  5
4256
  8
240
  6
CONTINUOUS
 10
35.800000000000011
 20
8.9999999999999911
 30
0.0
 11
36.300000000000011
 21
8.4999999999999911
 31
0.0
  0
LINE
  5
4257
  8
240
  6
CONTINUOUS
 10
24.800000000000011
 20
8.4999999999999911
 30
0.0
 11
25.300000000000011
 21
8.9999999999999911
 31
0.0
  0
LINE
  5
4258
  8
240
  6
CONTINUOUS
 10
24.80000000000009
 20
6.0000000000000071
 30
0.0
 11
24.800000000000011
 21
8.4999999999999911
 31
0.0
  0
LINE
  5
4259
  8
240
  6
CONTINUOUS
 10
0.0000000000000258
 20
-5.1961524227066223
 30
0.0
 11
-0.0000000000000809
 21
5.1961524227065494
 31
0.0
  0
LINE
  5
425B
  8
240
  6
CONTINUOUS
 10
3.0000000000001492
 20
-6.0000000000000071
 30
0.0
 11
0.0000000000000258
 21
-5.1961524227066223
 31
0.0
  0
LINE
  5
425C
  8
241
  6
CONTINUOUS
 10
3.0000000000000142
 20
-5.973887788554058
 30
0.0
 11
3.0000000000000142
 21
5.9999999999999334
 31
0.0
  0
LINE
  5
425E
  8
240
  6
CONTINUOUS
 10
-0.0000000000000809
 20
5.1961524227065476
 30
0.0
 11
3.0000000000002931
 21
6.0000000000000071
 31
0.0
  0
LINE
  5
425F
  8
243
  6
HIDDEN2
 10
-0.0000000000000453
 20
1.732050807568889
 30
0.0
 11
6.2999999999999412
 21
1.732050807568889
 31
0.0
  0
LINE
  5
4260
  8
243
  6
HIDDEN2
 10
6.2999999999999261
 20
3.4641016151378059
 30
0.0
 11
-0.0000000000000631
 21
3.464101615137742
 31
0.0
  0
LINE
  5
4265
  8
245
  6
CENTER2
 10
-17.5
 20
4.4299591236868343
 30
0.0
 11
-17.5
 21
-4.4299591236868476
 31
0.0
  0
LINE
  5
4268
  8
245
  6
CENTER2
 10
-21.929959123686839
 20
-0.0000000000000071
 30
0.0
 11
-13.070040876313159
 21
-0.0000000000000071
 31
0.0
  0
LINE
  5
4269
  8
241
  6
CONTINUOUS
 10
-14.5
 20
-1.732050807568889
 30
0.0
 11
-14.5
 21
1.7320508075688601
 31
0.0
  0
LINE
  5
426A
  8
241
  6
CONTINUOUS
 10
-20.499999999999972
 20
1.732050807568889
 30
0.0
 11
-20.499999999999972
 21
-1.732050807568889
 31
0.0
  0
LINE
  5
426B
  8
241
  6
CONTINUOUS
 10
-17.500000000000028
 20
-3.4641016151377571
 30
0.0
 11
-14.5
 21
-1.732050807568889
 31
0.0
  0
LINE
  5
426C
  8
241
  6
CONTINUOUS
 10
-20.499999999999972
 20
-1.732050807568889
 30
0.0
 11
-17.500000000000028
 21
-3.4641016151377571
 31
0.0
  0
LINE
  5
426D
  8
241
  6
CONTINUOUS
 10
-14.5
 20
1.7320508075688601
 30
0.0
 11
-17.5
 21
3.464101615137742
 31
0.0
  0
LINE
  5
426E
  8
241
  6
CONTINUOUS
 10
-17.5
 20
3.464101615137742
 30
0.0
 11
-20.499999999999972
 21
1.732050807568889
 31
0.0
  0
CIRCLE
  5
427A
  8
244
  6
HIDDEN2
 10
35.799999999999748
 20
6.4999999999996234
 30
0.0
 40
0.75
  0
LINE
  5
4286
  8
244
  6
HIDDEN2
 10
34.550000000000068
 20
3.999999999999992
 30
0.0
 11
20.300000000000018
 21
3.999999999999992
 31
0.0
  0
LINE
  5
4287
  8
243
  6
HIDDEN2
 10
34.800000000000068
 20
4.249999999999992
 30
0.0
 11
33.950000000000102
 21
3.3999999999999981
 31
0.0
  0
LINE
  5
4288
  8
243
  6
HIDDEN2
 10
33.950000000000102
 20
3.3999999999999981
 30
0.0
 11
6.2999999999999261
 21
3.4000000000000341
 31
0.0
  0
LINE
  5
4289
  8
243
  6
HIDDEN2
 10
36.300000000000011
 20
4.249999999999992
 30
0.0
 11
34.800000000000068
 21
4.249999999999992
 31
0.0
  0
LINE
  5
428B
  8
244
  6
HIDDEN2
 10
20.300000000000011
 20
3.999999999999992
 30
0.0
 11
19.260769515458719
 21
3.3999999999999981
 31
0.0
  0
LINE
  5
42AF
  8
241
  6
CONTINUOUS
 10
24.80000000000009
 20
6.0000000000000071
 30
0.0
 11
24.80000000000009
 21
-6.0000000000000142
 31
0.0
  0
LINE
  5
42B0
  8
243
  6
HIDDEN2
 10
-0.0000000000000422
 20
-1.732050807568962
 30
0.0
 11
6.2999999999999439
 21
-1.73205080756895
 31
0.0
  0
LINE
  5
42B1
  8
243
  6
HIDDEN2
 10
6.2999999999999323
 20
-3.4641016151378681
 30
0.0
 11
-0.0000000000000568
 21
-3.4641016151378148
 31
0.0
  0
CIRCLE
  5
42B2
  8
244
  6
HIDDEN2
 10
35.799999999999763
 20
-6.4999999999996314
 30
0.0
 40
0.75
  0
LINE
  5
42B3
  8
244
  6
HIDDEN2
 10
34.550000000000082
 20
-4.0000000000000018
 30
0.0
 11
20.300000000000029
 21
-4.0000000000000284
 31
0.0
  0
LINE
  5
42B4
  8
243
  6
HIDDEN2
 10
34.800000000000068
 20
-4.2500000000000018
 30
0.0
 11
33.950000000000109
 21
-3.4000000000000101
 31
0.0
  0
LINE
  5
42B5
  8
243
  6
HIDDEN2
 10
33.950000000000109
 20
-3.4000000000000101
 30
0.0
 11
6.2999999999999323
 21
-3.4000000000000949
 31
0.0
  0
LINE
  5
42B6
  8
243
  6
HIDDEN2
 10
36.300000000000011
 20
-4.25
 30
0.0
 11
34.800000000000068
 21
-4.2500000000000018
 31
0.0
  0
LINE
  5
42B7
  8
244
  6
HIDDEN2
 10
20.300000000000018
 20
-4.0000000000000284
 30
0.0
 11
19.260769515458719
 21
-3.4000000000000359
 31
0.0
  0
LINE
  5
42B8
  8
244
  6
HIDDEN2
 10
20.300000000000018
 20
-4.0000000000000284
 30
0.0
 11
20.300000000000011
 21
3.999999999999992
 31
0.0
  0
LINE
  5
42B9
  8
243
  6
HIDDEN2
 10
6.2999999999999323
 20
-3.4641016151378681
 30
0.0
 11
6.2999999999999758
 21
3.4641016151378059
 31
0.0
  0
LINE
  5
42BA
  8
243
  6
HIDDEN2
 10
33.950000000000109
 20
-3.4000000000000101
 30
0.0
 11
33.950000000000102
 21
3.3999999999999981
 31
0.0
  0
LINE
  5
42BB
  8
243
  6
HIDDEN2
 10
34.800000000000068
 20
-4.2500000000000018
 30
0.0
 11
34.800000000000061
 21
4.2499999999999929
 31
0.0
  0
TEXT
  5
432C
  8
241
  6
CONTINUOUS
 10
-14.0
 20
28.0
 30
0.0
 40
4.0
  1
HSK63-CP-JA
  7
YOKO
  0
LINE
  5
432E
  8
250
  6
CONTINUOUS
 10
55.008221457034992
 20
14.08906235601648
 30
0.0
 11
35.141554790368332
 21
14.08906235601648
 31
0.0
  0
LINE
  5
432F
  8
250
  6
CONTINUOUS
 10
35.141554790368332
 20
14.08906235601648
 30
0.0
 11
29.967431300493921
 21
5.8861327883033949
 31
0.0
  0
LINE
  5
4330
  8
250
  6
CONTINUOUS
 10
29.967431300493921
 20
5.8861327883033949
 30
0.0
 11
28.777724149600541
 21
3.999999999999992
 31
0.0
  0
LINE
  5
4331
  8
250
  6
CONTINUOUS
 10
29.719117209240199
 20
6.0427607054172636
 30
0.0
 11
28.777724149600541
 21
3.999999999999992
 31
0.0
  0
LINE
  5
4332
  8
250
  6
CONTINUOUS
 10
28.777724149600541
 20
3.999999999999992
 30
0.0
 11
30.215745391747639
 21
5.729504871189528
 31
0.0
  0
LINE
  5
4334
  8
250
  6
CONTINUOUS
 10
0.0000000000000257
 20
-5.6961524227066223
 30
0.0
 11
0.0000000000000247
 21
-22.0
 31
0.0
  0
LINE
  5
4335
  8
250
  6
CONTINUOUS
 10
36.300000000000018
 20
-8.9999999999999911
 30
0.0
 11
36.300000000000018
 21
-22.0
 31
0.0
  0
LINE
  5
4336
  8
250
  6
CONTINUOUS
 10
2.230000000000024
 20
-21.0
 30
0.0
 11
34.070000000000022
 21
-21.0
 31
0.0
  0
LINE
  5
433A
  8
250
  6
CONTINUOUS
 10
-20.499999999999972
 20
-2.2320508075688892
 30
0.0
 11
-20.499999999999972
 21
-15.0
 31
0.0
  0
LINE
  5
433B
  8
250
  6
CONTINUOUS
 10
-14.5
 20
-2.2320508075688892
 30
0.0
 11
-14.5
 21
-15.0
 31
0.0
  0
LINE
  5
433C
  8
250
  6
CONTINUOUS
 10
-22.729999999999968
 20
-14.0
 30
0.0
 11
-24.959999999999969
 21
-14.0
 31
0.0
  0
LINE
  5
433D
  8
250
  6
CONTINUOUS
 10
-12.27
 20
-14.0
 30
0.0
 11
-10.039999999999999
 21
-14.0
 31
0.0
  0
LINE
  5
433E
  8
250
  6
CONTINUOUS
 10
-20.499999999999972
 20
-14.0
 30
0.0
 11
-14.5
 21
-14.0
 31
0.0
  0
TEXT
  5
4342
  8
250
  6
CONTINUOUS
 10
37.408221457034998
 20
15.489062356016481
 30
0.0
 40
2.7999999999999989
  1
M8P1.25
  7
ACJISTS
  0
TEXT
  5
4343
  8
250
  6
CONTINUOUS
 10
13.483333333333359
 20
-20.0
 30
0.0
 40
2.7999999999999989
  1
36.3
  0
LINE
  5
4344
  8
250
  6
CONTINUOUS
 10
34.070000000000022
 20
-20.62833333333333
 30
0.0
 11
36.300000000000018
 21
-21.0
 31
0.0
  0
LINE
  5
4345
  8
250
  6
CONTINUOUS
 10
34.070000000000022
 20
-21.37166666666667
 30
0.0
 11
36.300000000000018
 21
-21.0
 31
0.0
  0
LINE
  5
4346
  8
250
  6
CONTINUOUS
 10
36.300000000000018
 20
-21.0
 30
0.0
 11
34.070000000000022
 21
-21.0
 31
0.0
  0
LINE
  5
4347
  8
250
  6
CONTINUOUS
 10
2.230000000000024
 20
-21.37166666666667
 30
0.0
 11
0.0000000000000248
 21
-21.0
 31
0.0
  0
LINE
  5
4348
  8
250
  6
CONTINUOUS
 10
2.230000000000024
 20
-20.62833333333333
 30
0.0
 11
0.0000000000000248
 21
-21.0
 31
0.0
  0
LINE
  5
4349
  8
250
  6
CONTINUOUS
 10
0.0000000000000248
 20
-21.0
 30
0.0
 11
2.230000000000024
 21
-21.0
 31
0.0
  0
TEXT
  5
434A
  8
250
  6
CONTINUOUS
 10
-18.899999999999981
 20
-13.0
 30
0.0
 40
2.7999999999999989
  1
6
  0
LINE
  5
434B
  8
250
  6
CONTINUOUS
 10
-12.27
 20
-14.371666666666661
 30
0.0
 11
-14.5
 21
-14.0
 31
0.0
  0
LINE
  5
434C
  8
250
  6
CONTINUOUS
 10
-12.27
 20
-13.62833333333333
 30
0.0
 11
-14.5
 21
-14.0
 31
0.0
  0
LINE
  5
434D
  8
250
  6
CONTINUOUS
 10
-14.5
 20
-14.0
 30
0.0
 11
-12.27
 21
-14.0
 31
0.0
  0
LINE
  5
434E
  8
250
  6
CONTINUOUS
 10
-22.729999999999968
 20
-13.62833333333333
 30
0.0
 11
-20.499999999999972
 21
-14.0
 31
0.0
  0
LINE
  5
434F
  8
250
  6
CONTINUOUS
 10
-22.729999999999968
 20
-14.371666666666661
 30
0.0
 11
-20.499999999999972
 21
-14.0
 31
0.0
  0
LINE
  5
4350
  8
250
  6
CONTINUOUS
 10
-20.499999999999972
 20
-14.0
 30
0.0
 11
-22.729999999999968
 21
-14.0
 31
0.0
  0
VIEWPORT
  5
22
 67
     1
  8
0
 10
261.51769911504419
 20
148.5
 30
0.0
 40
523.0353982300885
 41
297.0
 68
     1
 69
     1
1001
ACAD
1000
MVIEW
1002
{
1070
    16
1010
0.0
1020
0.0
1030
0.0
1010
0.0
1020
0.0
1030
1.0
1040
0.0
1040
297.0
1040
261.51769911504419
1040
148.5
1040
50.0
1040
0.0
1040
0.0
1070
     0
1070
   100
1070
     1
1070
     1
1070
     0
1070
     0
1070
     0
1070
     0
1040
0.0
1040
0.0
1040
0.0
1040
1.0
1040
1.0
1040
10.0
1040
10.0
1070
     0
1002
{
1002
}
1002
}
1001
GENIUS_GENODEF_13
1002
{
1000
HIER
1070
     0
1002
}
1002
{
1000
MANEDIT
1070
     0
1002
}
1002
{
1000
NOSEL
1070
     0
1002
}
1002
{
1000
BEHIND
1070
     0
1002
}
1002
{
1000
OTHER
1070
     0
1002
}
1002
{
1000
REACTOR
1002
}
1001
GENIUS_GENOBJ-N-SDF_13
1002
{
1000
OWNER
1000
GEN
1002
}
1001
GENIUS_GENSCREG_15
1000
PF
1040
1.0
1000
DF
1040
1.0
1000
MIN
1011
0.0
1021
0.0
1031
0.0
1021
0.0
1031
0.0
1000
MAX
1011
523.0353982300885
1021
0.0
1031
0.0
1021
297.0
1031
0.0
1000
FLAGS
1070
     4
  0
ENDSEC
  0
EOF
