  0
SECTION
  2
HEADER
  9
$ACADVER
  1
AC1009
  9
$INSBASE
 10
0.0
 20
0.0
 30
0.0
  9
$EXTMIN
 10
-19.399999999999999
 20
-29.0
 30
0.0
  9
$EXTMAX
 10
41.576666666666647
 20
18.199999999999999
 30
0.0
  9
$LIMMIN
 10
0.0
 20
0.0
  9
$LIMMAX
 10
297.0
 20
210.0
  9
$ORTHOMODE
 70
     0
  9
$REGENMODE
 70
     1
  9
$FILLMODE
 70
     1
  9
$QTEXTMODE
 70
     0
  9
$MIRRTEXT
 70
     1
  9
$DRAGMODE
 70
     2
  9
$LTSCALE
 40
5.0
  9
$OSMODE
 70
  3071
  9
$ATTMODE
 70
     1
  9
$TEXTSIZE
 40
3.0
  9
$TRACEWID
 40
1.0
  9
$TEXTSTYLE
  7
YOKO
  9
$CLAYER
  8
245
  9
$CELTYPE
  6
BYLAYER
  9
$CECOLOR
 62
   256
  9
$DIMSCALE
 40
1.0
  9
$DIMASZ
 40
2.2299999999999991
  9
$DIMEXO
 40
0.5
  9
$DIMDLI
 40
7.0
  9
$DIMRND
 40
0.0
  9
$DIMDLE
 40
0.0
  9
$DIMEXE
 40
1.0
  9
$DIMTP
 40
0.0
  9
$DIMTM
 40
0.01
  9
$DIMTXT
 40
2.799999999999998
  9
$DIMCEN
 40
0.0
  9
$DIMTSZ
 40
0.0
  9
$DIMTOL
 70
     0
  9
$DIMLIM
 70
     0
  9
$DIMTIH
 70
     0
  9
$DIMTOH
 70
     0
  9
$DIMSE1
 70
     0
  9
$DIMSE2
 70
     0
  9
$DIMTAD
 70
     3
  9
$DIMZIN
 70
     9
  9
$DIMBLK
  1
OPEN
  9
$DIMASO
 70
     1
  9
$DIMSHO
 70
     1
  9
$DIMPOST
  1

  9
$DIMAPOST
  1

  9
$DIMALT
 70
     0
  9
$DIMALTD
 70
     2
  9
$DIMALTF
 40
25.399999999999999
  9
$DIMLFAC
 40
1.0
  9
$DIMTOFL
 70
     1
  9
$DIMTVP
 40
0.0
  9
$DIMTIX
 70
     1
  9
$DIMSOXD
 70
     0
  9
$DIMSAH
 70
     0
  9
$DIMBLK1
  1

  9
$DIMBLK2
  1

  9
$DIMSTYLE
  2
BIGT
  9
$DIMCLRD
 70
   256
  9
$DIMCLRE
 70
   256
  9
$DIMCLRT
 70
    40
  9
$DIMTFAC
 40
1.0
  9
$DIMGAP
 40
1.0
  9
$LUNITS
 70
     2
  9
$LUPREC
 70
     3
  9
$SKETCHINC
 40
1.0
  9
$FILLETRAD
 40
0.0
  9
$AUNITS
 70
     0
  9
$AUPREC
 70
     3
  9
$MENU
  1
.
  9
$ELEVATION
 40
0.0
  9
$PELEVATION
 40
0.0
  9
$THICKNESS
 40
0.0
  9
$LIMCHECK
 70
     0
  9
$BLIPMODE
 70
     0
  9
$CHAMFERA
 40
0.5
  9
$CHAMFERB
 40
0.5
  9
$SKPOLY
 70
     0
  9
$TDCREATE
 40
2456591.6743955212
  9
$TDUPDATE
 40
2456591.7119577089
  9
$TDINDWG
 40
0.0200850926
  9
$TDUSRTIMER
 40
0.0200849074
  9
$USRTIMER
 70
     1
  9
$ANGBASE
 50
0.0
  9
$ANGDIR
 70
     0
  9
$PDMODE
 70
     1
  9
$PDSIZE
 40
0.0
  9
$PLINEWID
 40
0.0
  9
$COORDS
 70
     0
  9
$SPLFRAME
 70
     0
  9
$SPLINETYPE
 70
     6
  9
$SPLINESEGS
 70
     4
  9
$ATTDIA
 70
     1
  9
$ATTREQ
 70
     1
  9
$HANDLING
 70
     1
  9
$HANDSEED
  5
1AC4
  9
$SURFTAB1
 70
     6
  9
$SURFTAB2
 70
     6
  9
$SURFTYPE
 70
     6
  9
$SURFU
 70
     6
  9
$SURFV
 70
     6
  9
$UCSNAME
  2

  9
$UCSORG
 10
0.0
 20
0.0
 30
0.0
  9
$UCSXDIR
 10
1.0
 20
0.0
 30
0.0
  9
$UCSYDIR
 10
0.0
 20
1.0
 30
0.0
  9
$PUCSNAME
  2

  9
$PUCSORG
 10
0.0
 20
0.0
 30
0.0
  9
$PUCSXDIR
 10
1.0
 20
0.0
 30
0.0
  9
$PUCSYDIR
 10
0.0
 20
1.0
 30
0.0
  9
$USERI1
 70
     1
  9
$USERI2
 70
     0
  9
$USERI3
 70
     0
  9
$USERI4
 70
     0
  9
$USERI5
 70
     0
  9
$USERR1
 40
0.0
  9
$USERR2
 40
0.0
  9
$USERR3
 40
0.0
  9
$USERR4
 40
0.0
  9
$USERR5
 40
0.0
  9
$WORLDVIEW
 70
     1
  9
$SHADEDGE
 70
     3
  9
$SHADEDIF
 70
    70
  9
$TILEMODE
 70
     1
  9
$MAXACTVP
 70
    16
  9
$PLIMCHECK
 70
     0
  9
$PEXTMIN
 10
1.0000000000000000E+020
 20
1.0000000000000000E+020
 30
1.0000000000000000E+020
  9
$PEXTMAX
 10
-1.0000000000000000E+020
 20
-1.0000000000000000E+020
 30
-1.0000000000000000E+020
  9
$PLIMMIN
 10
0.0
 20
0.0
  9
$PLIMMAX
 10
420.0
 20
297.0
  9
$UNITMODE
 70
     0
  9
$VISRETAIN
 70
     1
  9
$PLINEGEN
 70
     0
  9
$PSLTSCALE
 70
     1
  0
ENDSEC
  0
SECTION
  2
TABLES
  0
TABLE
  2
VPORT
 70
     3
  0
VPORT
  2
*ACTIVE
 70
     0
 10
0.0
 20
0.0
 11
1.0
 21
1.0
 12
11.083673766748531
 22
-5.3943172548831342
 13
0.0
 23
0.0
 14
7.0
 24
7.0
 15
7.0
 25
7.0
 16
0.0
 26
0.0
 36
1.0
 17
0.0
 27
0.0
 37
0.0
 40
47.514371856505193
 41
1.572927597061909
 42
50.0
 43
0.0
 44
0.0
 50
0.0
 51
0.0
 71
     0
 72
  2000
 73
     1
 74
     0
 75
     0
 76
     1
 77
     0
 78
     0
  0
ENDTAB
  0
TABLE
  2
LTYPE
 70
    16
  0
LTYPE
  2
CONTINUOUS
 70
     0
  3
Solid line
 72
    65
 73
     0
 40
0.0
  0
LTYPE
  2
CENTER2
 70
     0
  3
___ _ ___ _ ___ _ ___ _ ___ _ ___ _ ___ _ ___ _
 72
    65
 73
     4
 40
1.125
 49
0.75
 49
-0.125
 49
0.125
 49
-0.125
  0
LTYPE
  2
HIDDEN2
 70
     0
  3
_ _ _ _ _ _ _ _ _ _ _ _ _ _ _ _ _ _ _ _ _ _ _ _
 72
    65
 73
     2
 40
0.1875
 49
0.125
 49
-0.0625
  0
LTYPE
  2
PHANTOM2
 70
     0
  3
___ _ _ ___ _ _ ___ _ _ ___ _ _ ___ _ _ ___ _ _
 72
    65
 73
     6
 40
1.25
 49
0.625
 49
-0.125
 49
0.125
 49
-0.125
 49
0.125
 49
-0.125
  0
LTYPE
  2
CENTER
 70
     0
  3
____ _ ____ _ ____ _ ____ _ ____ _ ____ _ ____ 
 72
    65
 73
     4
 40
2.0
 49
1.25
 49
-0.25
 49
0.25
 49
-0.25
  0
LTYPE
  2
AMCONSTR
 70
     0
  3
_______________________
 72
    65
 73
     2
 40
9999.0
 49
9999.0
 49
0.0
  0
LTYPE
  2
HIDDEN
 70
     0
  3
Hidden __ __ __ __ __ __ __ __ __ __ __ __ __ _
 72
    65
 73
     2
 40
9.5249999999999986
 49
6.349999999999997
 49
-3.174999999999998
  0
LTYPE
  2
AMZIGZAG2
 70
     0
  3
/\/-/\/-/\/-/\/-/\/-/\/
 72
    65
 73
     2
 40
0.4401
 49
0.0001
 49
-0.4400000000000002
  0
LTYPE
  2
ACANSTGB
 70
     0
  3
__ . . __ . .
 72
    65
 73
     6
 40
0.35433070866
 49
0.15748031496
 49
-0.03937007874
 49
0.03937007874
 49
-0.03937007874
 49
0.03937007874
 49
-0.03937007874
  0
LTYPE
  2
ACANSTGL
 70
     0
  3
_ _ _ _ _
 72
    65
 73
     2
 40
0.11811023622
 49
0.07874015748
 49
-0.03937007874
  0
ENDTAB
  0
TABLE
  2
LAYER
 70
    10
  0
LAYER
  2
0
 70
     0
 62
     7
  6
CONTINUOUS
  0
LAYER
  2
245
 70
     0
 62
     2
  6
CENTER2
  0
LAYER
  2
DEFPOINTS
 70
     0
 62
     7
  6
CONTINUOUS
  0
LAYER
  2
240
 70
     0
 62
     4
  6
CONTINUOUS
  0
LAYER
  2
241
 70
     0
 62
   211
  6
CONTINUOUS
  0
LAYER
  2
242
 70
     0
 62
     3
  6
CONTINUOUS
  0
LAYER
  2
247
 70
     0
 62
    60
  6
CONTINUOUS
  0
LAYER
  2
248
 70
     0
 62
    60
  6
HIDDEN2
  0
LAYER
  2
250
 70
     0
 62
     3
  6
CONTINUOUS
  0
LAYER
  2
AM_5
 70
     0
 62
     3
  6
CONTINUOUS
  0
ENDTAB
  0
TABLE
  2
STYLE
 70
     5
  0
STYLE
  2
STANDARD
 70
     0
 40
0.0
 41
1.0
 50
0.0
 71
     0
 42
3.0
  3
romans.shx
  4
extfont.shx
  0
STYLE
  2
YOKO
 70
     0
 40
0.0
 41
1.0
 50
0.0
 71
     0
 42
3.0
  3
romans.shx
  4
extfont.shx
  0
STYLE
  2
ACANSTS
 70
     0
 40
1.0
 41
1.0
 50
0.0
 71
     0
 42
3.0
  3
romans.shx
  4
extfont.shx
  0
STYLE
  2
ACANSGDT
 70
     0
 40
0.0
 41
1.0
 50
0.0
 71
     0
 42
3.0
  3
amgdtans.shx
  4

  0
ENDTAB
  0
TABLE
  2
VIEW
 70
     0
  0
ENDTAB
  0
TABLE
  2
UCS
 70
     0
  0
ENDTAB
  0
TABLE
  2
APPID
 70
    30
  0
APPID
  2
ACAD
 70
     0
  0
APPID
  2
GLOBAL
 70
     0
  0
APPID
  2
DETAIL
 70
     0
  0
APPID
  2
GRPNAME
 70
     0
  0
APPID
  2
GPARA
 70
     0
  0
APPID
  2
MCAD_NO_VIS
 70
     0
  0
APPID
  2
ACAD_TEMP_GRAPHIC
 70
     0
  0
APPID
  2
ACATTRIBSERVICES
 70
     0
  0
APPID
  2
GENIUS_GENSCREG_15
 70
     0
  0
APPID
  2
GENIUS_GENODEF_13
 70
     0
  0
APPID
  2
GENIUS_GENOBJ-N-SDF_13
 70
     0
  0
APPID
  2
GENIUS_GENREC_14
 70
     0
  0
APPID
  2
GENIUS_GENOBJ-N-REC_13
 70
     0
  0
APPID
  2
GENIUS_GENDIMSH_14
 70
     0
  0
APPID
  2
GENIUS_GENOBJ-N-DIM_13
 70
     0
  0
APPID
  2
GENIUS_GENDIM_13
 70
     0
  0
APPID
  2
GENIUS_GENDTOL_13
 70
     0
  0
APPID
  2
GENIUS_GENOLIS_13
 70
     0
  0
APPID
  2
GENIUS_GENOENT_13
 70
     0
  0
APPID
  2
GENIUS_GENOBJ-F-FEM_13
 70
     0
  0
APPID
  2
GENIUS_GENOREF_13
 70
     0
  0
APPID
  2
GENIUS_GEFFEM_13
 70
     0
  0
APPID
  2
GENIUS_GEFFEMP_13
 70
     0
  0
APPID
  2
AD_DRAW
 70
     0
  0
APPID
  2
DESIGNERASSEMBLIES
 70
     0
  0
APPID
  2
ACADM_DIM_EDIT
 70
     0
  0
APPID
  2
AMDT_DM_ADJ
 70
     0
  0
APPID
  2
GENIUS_GENFIL_13
 70
     0
  0
APPID
  2
GENIUS_GENOBJ-N-CHA_13
 70
     0
  0
APPID
  2
GENIUS_GENOBJ-N-FIL_13
 70
     0
  0
ENDTAB
  0
TABLE
  2
DIMSTYLE
 70
     7
  0
DIMSTYLE
  2
BIGT
 70
     0
  3

  4

  5

  6

  7

 40
1.0
 41
2.2299999999999991
 42
0.5
 43
7.0
 44
1.0
 45
0.0
 46
0.0
 47
0.0
 48
0.01
140
2.799999999999998
141
0.0
142
0.0
143
25.399999999999999
144
1.0
145
0.0
146
1.0
147
1.0
 71
     0
 72
     0
 73
     0
 74
     0
 75
     0
 76
     0
 77
     3
 78
     9
170
     0
171
     2
172
     1
173
     0
174
     1
175
     0
176
   256
177
   256
178
    40
  0
DIMSTYLE
  2
AM_ANSI
 70
     0
  3

  4
mm
  5

  6

  7

 40
1.0
 41
0.1
 42
0.05
 43
0.5
 44
0.1
 45
0.0
 46
0.0
 47
0.1
 48
0.1
140
0.12
141
0.0
142
0.0
143
25.399999999999999
144
1.0
145
0.0
146
0.71
147
0.06
 71
     0
 72
     0
 73
     1
 74
     1
 75
     0
 76
     0
 77
     0
 78
     7
170
     0
171
     2
172
     0
173
     0
174
     0
175
     0
176
   256
177
   256
178
     2
  0
DIMSTYLE
  2
AM_ANSI$3
 70
     0
  3

  4
mm
  5

  6

  7

 40
1.0
 41
0.1
 42
0.05
 43
0.5
 44
0.1
 45
0.0
 46
0.0
 47
0.1
 48
0.1
140
0.12
141
0.0
142
0.0
143
25.399999999999999
144
1.0
145
0.0
146
0.71
147
0.06
 71
     0
 72
     0
 73
     1
 74
     1
 75
     0
 76
     0
 77
     0
 78
     7
170
     0
171
     2
172
     0
173
     0
174
     0
175
     0
176
   256
177
   256
178
     2
  0
DIMSTYLE
  2
AM_ANSI$4
 70
     0
  3

  4
mm
  5

  6

  7

 40
1.0
 41
0.1
 42
0.05
 43
0.5
 44
0.1
 45
0.0
 46
0.0
 47
0.1
 48
0.1
140
0.12
141
0.0
142
0.0
143
25.399999999999999
144
1.0
145
0.0
146
0.71
147
0.06
 71
     0
 72
     0
 73
     1
 74
     1
 75
     0
 76
     0
 77
     0
 78
     7
170
     0
171
     2
172
     0
173
     0
174
     0
175
     0
176
   256
177
   256
178
     2
  0
DIMSTYLE
  2
AM_ANSI$7
 70
     0
  3

  4
mm
  5

  6

  7

 40
1.0
 41
0.1
 42
0.05
 43
0.5
 44
0.1
 45
0.0
 46
0.0
 47
0.1
 48
0.1
140
0.24
141
0.0
142
0.0
143
25.399999999999999
144
1.0
145
0.0
146
0.71
147
0.06
 71
     0
 72
     0
 73
     1
 74
     1
 75
     0
 76
     0
 77
     0
 78
     7
170
     0
171
     2
172
     0
173
     0
174
     0
175
     0
176
   256
177
   256
178
     2
  0
DIMSTYLE
  2
AM_ANSI$SF
 70
     0
  3

  4
mm
  5

  6

  7

 40
1.0
 41
0.1
 42
0.05
 43
0.5
 44
0.1
 45
0.0
 46
0.0
 47
0.1
 48
0.1
140
0.12
141
0.0
142
0.0
143
25.399999999999999
144
1.0
145
0.0
146
0.71
147
0.06
 71
     0
 72
     0
 73
     1
 74
     1
 75
     1
 76
     1
 77
     0
 78
     7
170
     0
171
     2
172
     0
173
     0
174
     0
175
     0
176
   256
177
   256
178
     2
  0
DIMSTYLE
  2
AM_ANSI$SH
 70
     0
  3

  4
mm
  5

  6

  7

 40
1.0
 41
0.1
 42
0.05
 43
0.5
 44
0.1
 45
0.0
 46
0.0
 47
0.1
 48
0.1
140
0.12
141
0.0
142
0.0
143
25.399999999999999
144
1.0
145
0.0
146
0.71
147
0.06
 71
     0
 72
     0
 73
     1
 74
     1
 75
     1
 76
     1
 77
     0
 78
     7
170
     0
171
     2
172
     0
173
     1
174
     0
175
     0
176
   256
177
   256
178
     2
  0
ENDTAB
  0
ENDSEC
  0
SECTION
  2
BLOCKS
  0
BLOCK
  8
0
  2
$MODEL_SPACE
 70
     0
 10
0.0
 20
0.0
 30
0.0
  3
$MODEL_SPACE
  1

  0
ENDBLK
  5
19E8
  8
0
  0
BLOCK
 67
     1
  8
0
  2
$PAPER_SPACE
 70
     0
 10
0.0
 20
0.0
 30
0.0
  3
$PAPER_SPACE
  1

  0
ENDBLK
  5
19E4
 67
     1
  8
0
  0
BLOCK
  8
0
  2
_OPEN
 70
     0
 10
0.0
 20
0.0
 30
0.0
  3
_OPEN
  1

  0
LINE
  5
595
  8
0
  6
BYBLOCK
 62
     0
 10
-1.0
 20
0.1666666666666666
 30
0.0
 11
0.0
 21
0.0
 31
0.0
  0
LINE
  5
596
  8
0
  6
BYBLOCK
 62
     0
 10
-1.0
 20
-0.1666666666666666
 30
0.0
 11
0.0
 21
0.0
 31
0.0
  0
LINE
  5
597
  8
0
  6
BYBLOCK
 62
     0
 10
0.0
 20
0.0
 30
0.0
 11
-1.0
 21
0.0
 31
0.0
  0
ENDBLK
  5
599
  8
0
  0
ENDSEC
  0
SECTION
  2
ENTITIES
  0
LINE
  5
1473
  8
240
 10
-0.0000000000000011
 20
3.5
 30
0.0
 11
-0.0000000000000011
 21
2.799999999999998
 31
0.0
  0
LINE
  5
1480
  8
240
 10
-4.5
 20
3.5
 30
0.0
 11
-4.5
 21
-3.499999999999996
 31
0.0
  0
LINE
  5
148B
  8
240
 10
12.300000000000001
 20
1.5804381211482721
 30
0.0
 11
12.300000000000001
 21
-1.5804381211482761
 31
0.0
  0
LINE
  5
1495
  8
240
 10
10.08935600386017
 20
2.5
 30
0.0
 11
1.0
 21
2.5
 31
0.0
  0
LINE
  5
149F
  8
240
 10
-4.0
 20
4.0
 30
0.0
 11
-0.5000000000000009
 21
4.0
 31
0.0
  0
LINE
  5
14A2
  8
240
 10
-4.5
 20
3.5
 30
0.0
 11
-4.0
 21
4.0
 31
0.0
1001
GENIUS_GENFIL_13
1070
     0
1040
0.5
1040
0.5
1040
0.2500000000000284
1040
45.00000000000162
1002
{
1002
}
1001
GENIUS_GENOBJ-N-CHA_13
1002
{
1000
OWNER
1000
GEN
1002
}
1001
GENIUS_GENODEF_13
1002
{
1000
HIER
1070
     0
1002
}
1002
{
1000
MANEDIT
1070
     0
1002
}
1002
{
1000
NOSEL
1070
     0
1002
}
1002
{
1000
BEHIND
1070
     0
1002
}
1002
{
1000
OTHER
1070
     0
1002
}
1002
{
1000
REACTOR
1002
}
  0
LINE
  5
14A6
  8
240
 10
-0.5000000000000009
 20
4.0
 30
0.0
 11
-0.0000000000000009
 21
3.5
 31
0.0
1001
GENIUS_GENFIL_13
1070
     0
1040
0.5
1040
0.5
1040
0.2500000000000284
1040
45.00000000000162
1002
{
1002
}
1001
GENIUS_GENOBJ-N-CHA_13
1002
{
1000
OWNER
1000
GEN
1002
}
1001
GENIUS_GENODEF_13
1002
{
1000
HIER
1070
     0
1002
}
1002
{
1000
MANEDIT
1070
     0
1002
}
1002
{
1000
NOSEL
1070
     0
1002
}
1002
{
1000
BEHIND
1070
     0
1002
}
1002
{
1000
OTHER
1070
     0
1002
}
1002
{
1000
REACTOR
1002
}
  0
LINE
  5
14BE
  8
240
 10
10.50346647602419
 20
2.4454813220625069
 30
0.0
 11
11.929409522551261
 21
2.0634010342928071
 31
0.0
  0
ARC
  5
14C4
  8
240
 10
10.089356003860161
 20
0.9000000000000197
 30
0.0
 40
1.6000000000000001
 50
74.999999999999872
 51
89.999999999999915
1001
GENIUS_GENOBJ-N-FIL_13
1002
{
1000
OWNER
1000
GEN
1002
}
1001
GENIUS_GENODEF_13
1002
{
1000
HIER
1070
     0
1002
}
1002
{
1000
MANEDIT
1070
     0
1002
}
1002
{
1000
NOSEL
1070
     0
1002
}
1002
{
1000
BEHIND
1070
     0
1002
}
1002
{
1000
OTHER
1070
     0
1002
}
1002
{
1000
REACTOR
1002
}
  0
ARC
  5
14C7
  8
240
 10
11.800000000000001
 20
1.5804381211482761
 30
0.0
 40
0.5
 50
359.9999999999996
 51
75.00000000000054
1001
GENIUS_GENOBJ-N-FIL_13
1002
{
1000
OWNER
1000
GEN
1002
}
1001
GENIUS_GENODEF_13
1002
{
1000
HIER
1070
     0
1002
}
1002
{
1000
MANEDIT
1070
     0
1002
}
1002
{
1000
NOSEL
1070
     0
1002
}
1002
{
1000
BEHIND
1070
     0
1002
}
1002
{
1000
OTHER
1070
     0
1002
}
1002
{
1000
REACTOR
1002
}
  0
LINE
  5
14D1
  8
241
 10
0.9999999999999987
 20
2.5
 30
0.0
 11
0.9999999999999985
 21
-2.5
 31
0.0
  0
LINE
  5
14DB
  8
240
 10
0.7999999999999972
 20
2.299999999999998
 30
0.0
 11
0.4999999999999984
 21
2.299999999999998
 31
0.0
  0
ARC
  5
14DC
  8
240
 10
0.499999999999999
 20
2.799999999999998
 30
0.0
 40
0.5
 50
180.0
 51
270.0
1001
GENIUS_GENOBJ-N-FIL_13
1002
{
1000
OWNER
1000
GEN
1002
}
1001
GENIUS_GENODEF_13
1002
{
1000
HIER
1070
     0
1002
}
1002
{
1000
MANEDIT
1070
     0
1002
}
1002
{
1000
NOSEL
1070
     0
1002
}
1002
{
1000
BEHIND
1070
     0
1002
}
1002
{
1000
OTHER
1070
     0
1002
}
1002
{
1000
REACTOR
1002
}
  0
LINE
  5
14F4
  8
240
 10
0.7999999999999981
 20
2.299999999999998
 30
0.0
 11
0.9999999999999992
 21
2.5
 31
0.0
  0
LINE
  5
152C
  8
248
 10
-3.9500000000000002
 20
2.0
 30
0.0
 11
-4.5
 21
2.0
 31
0.0
  0
LINE
  5
1536
  8
248
 10
-3.9500000000000002
 20
3.0
 30
0.0
 11
-4.5
 21
3.0
 31
0.0
  0
LINE
  5
1540
  8
248
 10
-3.75
 20
2.799999999999998
 30
0.0
 11
-3.75
 21
2.2000000000000002
 31
0.0
  0
LINE
  5
154A
  8
248
 10
-4.2000000000000011
 20
1.5
 30
0.0
 11
7.9999999999999982
 21
1.5
 31
0.0
  0
ARC
  5
154D
  8
248
 10
-4.2000000000000011
 20
1.8
 30
0.0
 40
0.3
 50
180.0000000000002
 51
270.0
1001
GENIUS_GENOBJ-N-FIL_13
1002
{
1000
OWNER
1000
GEN
1002
}
1001
GENIUS_GENODEF_13
1002
{
1000
HIER
1070
     0
1002
}
1002
{
1000
MANEDIT
1070
     0
1002
}
1002
{
1000
NOSEL
1070
     0
1002
}
1002
{
1000
BEHIND
1070
     0
1002
}
1002
{
1000
OTHER
1070
     0
1002
}
1002
{
1000
REACTOR
1002
}
  0
ARC
  5
1550
  8
248
 10
-3.9500000000000002
 20
2.799999999999998
 30
0.0
 40
0.2
 50
0.0
 51
89.99999999999973
1001
GENIUS_GENODEF_13
1002
{
1000
HIER
1070
     0
1002
}
1002
{
1000
MANEDIT
1070
     0
1002
}
1002
{
1000
NOSEL
1070
     0
1002
}
1002
{
1000
BEHIND
1070
     0
1002
}
1002
{
1000
OTHER
1070
     0
1002
}
1002
{
1000
REACTOR
1002
}
1001
GENIUS_GENOBJ-N-FIL_13
1002
{
1000
OWNER
1000
GEN
1002
}
  0
ARC
  5
1552
  8
248
 10
-3.9500000000000002
 20
2.2000000000000002
 30
0.0
 40
0.2
 50
270.00000000000028
 51
359.99999999999977
1001
GENIUS_GENOBJ-N-FIL_13
1002
{
1000
OWNER
1000
GEN
1002
}
1001
GENIUS_GENODEF_13
1002
{
1000
HIER
1070
     0
1002
}
1002
{
1000
MANEDIT
1070
     0
1002
}
1002
{
1000
NOSEL
1070
     0
1002
}
1002
{
1000
BEHIND
1070
     0
1002
}
1002
{
1000
OTHER
1070
     0
1002
}
1002
{
1000
REACTOR
1002
}
  0
LINE
  5
1563
  8
248
 10
7.9999999999999982
 20
1.5
 30
0.0
 11
8.0000000000000036
 21
-1.5
 31
0.0
  0
LINE
  5
1573
  8
248
 10
12.300000000000001
 20
1.4433756729740621
 30
0.0
 11
7.9999999999999982
 21
1.4433756729740621
 31
0.0
  0
LINE
  5
1579
  8
248
 10
12.300000000000001
 20
0.7216878364870296
 30
0.0
 11
7.9999999999999982
 21
0.7216878364870296
 31
0.0
  0
LINE
  5
1606
  8
248
 10
-3.9500000000000002
 20
-1.999999999999998
 30
0.0
 11
-4.5
 21
-1.999999999999998
 31
0.0
  0
LINE
  5
1607
  8
248
 10
-3.9500000000000002
 20
-2.9999999999999991
 30
0.0
 11
-4.5
 21
-2.9999999999999991
 31
0.0
  0
LINE
  5
1608
  8
240
 10
-4.0
 20
-3.9999999999999991
 30
0.0
 11
-0.5000000000000009
 21
-3.9999999999999991
 31
0.0
  0
LINE
  5
1609
  8
240
 10
10.08935600386017
 20
-2.4999999999999991
 30
0.0
 11
1.0
 21
-2.4999999999999991
 31
0.0
  0
LINE
  5
160A
  8
240
 10
0.7999999999999972
 20
-2.299999999999998
 30
0.0
 11
0.4999999999999984
 21
-2.299999999999998
 31
0.0
  0
LINE
  5
160B
  8
240
 10
-0.0000000000000011
 20
-3.4999999999999991
 30
0.0
 11
-0.0000000000000011
 21
-2.799999999999998
 31
0.0
  0
LINE
  5
160D
  8
248
 10
-3.75
 20
-2.799999999999998
 30
0.0
 11
-3.75
 21
-2.1999999999999971
 31
0.0
  0
LINE
  5
160E
  8
240
 10
-4.5
 20
-3.4999999999999991
 30
0.0
 11
-4.0
 21
-3.9999999999999991
 31
0.0
1001
GENIUS_GENFIL_13
1070
     0
1040
0.5
1040
0.5
1040
0.2500000000000284
1040
45.00000000000162
1002
{
1002
}
1001
GENIUS_GENOBJ-N-CHA_13
1002
{
1000
OWNER
1000
GEN
1002
}
1001
GENIUS_GENODEF_13
1002
{
1000
HIER
1070
     0
1002
}
1002
{
1000
MANEDIT
1070
     0
1002
}
1002
{
1000
NOSEL
1070
     0
1002
}
1002
{
1000
BEHIND
1070
     0
1002
}
1002
{
1000
OTHER
1070
     0
1002
}
1002
{
1000
REACTOR
1002
}
  0
LINE
  5
160F
  8
240
 10
-0.5000000000000009
 20
-3.9999999999999991
 30
0.0
 11
-0.0000000000000009
 21
-3.4999999999999991
 31
0.0
1001
GENIUS_GENFIL_13
1070
     0
1040
0.5
1040
0.5
1040
0.2500000000000284
1040
45.00000000000162
1002
{
1002
}
1001
GENIUS_GENOBJ-N-CHA_13
1002
{
1000
OWNER
1000
GEN
1002
}
1001
GENIUS_GENODEF_13
1002
{
1000
HIER
1070
     0
1002
}
1002
{
1000
MANEDIT
1070
     0
1002
}
1002
{
1000
NOSEL
1070
     0
1002
}
1002
{
1000
BEHIND
1070
     0
1002
}
1002
{
1000
OTHER
1070
     0
1002
}
1002
{
1000
REACTOR
1002
}
  0
LINE
  5
1610
  8
240
 10
10.50346647602419
 20
-2.4454813220625069
 30
0.0
 11
11.929409522551261
 21
-2.0634010342928071
 31
0.0
  0
ARC
  5
1611
  8
240
 10
10.089356003860161
 20
-0.9000000000000195
 30
0.0
 40
1.6000000000000001
 50
270.00000000000011
 51
285.00000000000011
1001
GENIUS_GENOBJ-N-FIL_13
1002
{
1000
OWNER
1000
GEN
1002
}
1001
GENIUS_GENODEF_13
1002
{
1000
HIER
1070
     0
1002
}
1002
{
1000
MANEDIT
1070
     0
1002
}
1002
{
1000
NOSEL
1070
     0
1002
}
1002
{
1000
BEHIND
1070
     0
1002
}
1002
{
1000
OTHER
1070
     0
1002
}
1002
{
1000
REACTOR
1002
}
  0
ARC
  5
1612
  8
240
 10
11.800000000000001
 20
-1.5804381211482761
 30
0.0
 40
0.5
 50
284.99999999999949
 51
0.0000000000003703
1001
GENIUS_GENOBJ-N-FIL_13
1002
{
1000
OWNER
1000
GEN
1002
}
1001
GENIUS_GENODEF_13
1002
{
1000
HIER
1070
     0
1002
}
1002
{
1000
MANEDIT
1070
     0
1002
}
1002
{
1000
NOSEL
1070
     0
1002
}
1002
{
1000
BEHIND
1070
     0
1002
}
1002
{
1000
OTHER
1070
     0
1002
}
1002
{
1000
REACTOR
1002
}
  0
ARC
  5
1613
  8
240
 10
0.499999999999999
 20
-2.799999999999998
 30
0.0
 40
0.5
 50
90.000000000000057
 51
180.0
1001
GENIUS_GENOBJ-N-FIL_13
1002
{
1000
OWNER
1000
GEN
1002
}
1001
GENIUS_GENODEF_13
1002
{
1000
HIER
1070
     0
1002
}
1002
{
1000
MANEDIT
1070
     0
1002
}
1002
{
1000
NOSEL
1070
     0
1002
}
1002
{
1000
BEHIND
1070
     0
1002
}
1002
{
1000
OTHER
1070
     0
1002
}
1002
{
1000
REACTOR
1002
}
  0
LINE
  5
1614
  8
240
 10
0.7999999999999981
 20
-2.299999999999998
 30
0.0
 11
0.9999999999999992
 21
-2.4999999999999991
 31
0.0
  0
ARC
  5
1615
  8
248
 10
-3.9500000000000002
 20
-2.799999999999998
 30
0.0
 40
0.2
 50
270.00000000000028
 51
0.0
1001
GENIUS_GENODEF_13
1002
{
1000
HIER
1070
     0
1002
}
1002
{
1000
MANEDIT
1070
     0
1002
}
1002
{
1000
NOSEL
1070
     0
1002
}
1002
{
1000
BEHIND
1070
     0
1002
}
1002
{
1000
OTHER
1070
     0
1002
}
1002
{
1000
REACTOR
1002
}
1001
GENIUS_GENOBJ-N-FIL_13
1002
{
1000
OWNER
1000
GEN
1002
}
  0
ARC
  5
1616
  8
248
 10
-3.9500000000000002
 20
-2.2000000000000002
 30
0.0
 40
0.2
 50
0.0000000000001158
 51
89.99999999999973
1001
GENIUS_GENOBJ-N-FIL_13
1002
{
1000
OWNER
1000
GEN
1002
}
1001
GENIUS_GENODEF_13
1002
{
1000
HIER
1070
     0
1002
}
1002
{
1000
MANEDIT
1070
     0
1002
}
1002
{
1000
NOSEL
1070
     0
1002
}
1002
{
1000
BEHIND
1070
     0
1002
}
1002
{
1000
OTHER
1070
     0
1002
}
1002
{
1000
REACTOR
1002
}
  0
LINE
  5
1622
  8
241
 10
-0.0000000000000011
 20
2.799999999999998
 30
0.0
 11
-0.0000000000000015
 21
-2.799999999999998
 31
0.0
  0
LINE
  5
1628
  8
241
 10
10.300000000000001
 20
2.4860734872288561
 30
0.0
 11
10.300000000000001
 21
-2.4860734872288561
 31
0.0
  0
CIRCLE
  5
1653
  8
248
 10
-4.25
 20
2.5
 30
0.0
 40
0.5
  0
CIRCLE
  5
1666
  8
248
 10
-4.25
 20
-2.5
 30
0.0
 40
0.5
  0
LINE
  5
166C
  8
245
 10
-6.8621659139356552
 20
0.0
 30
0.0
 11
14.1225977002631
 21
0.0
 31
0.0
  0
LINE
  5
166F
  8
248
 10
-4.2000000000000011
 20
-1.5
 30
0.0
 11
8.0000000000000036
 21
-1.5
 31
0.0
  0
ARC
  5
1670
  8
248
 10
-4.2000000000000011
 20
-1.8
 30
0.0
 40
0.3
 50
90.000000000000057
 51
179.9999999999998
1001
GENIUS_GENOBJ-N-FIL_13
1002
{
1000
OWNER
1000
GEN
1002
}
1001
GENIUS_GENODEF_13
1002
{
1000
HIER
1070
     0
1002
}
1002
{
1000
MANEDIT
1070
     0
1002
}
1002
{
1000
NOSEL
1070
     0
1002
}
1002
{
1000
BEHIND
1070
     0
1002
}
1002
{
1000
OTHER
1070
     0
1002
}
1002
{
1000
REACTOR
1002
}
  0
LINE
  5
1671
  8
248
 10
12.300000000000001
 20
-1.4433756729740621
 30
0.0
 11
7.9999999999999982
 21
-1.4433756729740621
 31
0.0
  0
LINE
  5
1672
  8
248
 10
12.300000000000001
 20
-0.7216878364870296
 30
0.0
 11
7.9999999999999982
 21
-0.7216878364870296
 31
0.0
  0
LINE
  5
167E
  8
242
 10
-4.5
 20
3.4999999999999991
 30
0.0
 11
-0.0000000000000011
 21
3.5
 31
0.0
  0
LINE
  5
1684
  8
242
 10
-4.4999999999999991
 20
-3.4999999999999991
 30
0.0
 11
-0.0000000000000011
 21
-3.4999999999999991
 31
0.0
  0
CIRCLE
  5
17AE
  8
240
 10
28.0
 20
0.0
 30
0.0
 40
2.5
  0
LINE
  5
17C0
  8
245
 10
28.0
 20
7.0
 30
0.0
 11
28.0
 21
-7.0
 31
0.0
  0
LINE
  5
17CB
  8
245
 10
21.0
 20
0.0
 30
0.0
 11
35.0
 21
0.0
 31
0.0
  0
LINE
  5
1814
  8
250
 10
26.75
 20
-1.2216878364870301
 30
0.0
 11
26.75
 21
-22.0
 31
0.0
  0
LINE
  5
1815
  8
250
 10
29.25
 20
-1.2216878364870321
 30
0.0
 11
29.25
 21
-22.0
 31
0.0
  0
LINE
  5
1816
  8
250
 10
24.52
 20
-21.0
 30
0.0
 11
22.289999999999999
 21
-21.0
 31
0.0
  0
LINE
  5
1817
  8
250
 10
31.48
 20
-21.0
 30
0.0
 11
41.576666666666647
 21
-21.0
 31
0.0
  0
LINE
  5
1818
  8
250
 10
26.75
 20
-21.0
 30
0.0
 11
29.25
 21
-21.0
 31
0.0
  0
LINE
  5
181C
  8
247
 10
26.75
 20
0.7216878364870321
 30
0.0
 11
26.75
 21
-0.7216878364870321
 31
0.0
  0
LINE
  5
181D
  8
247
 10
26.75
 20
-0.7216878364870321
 30
0.0
 11
28.0
 21
-1.443375672974063
 31
0.0
  0
LINE
  5
181E
  8
247
 10
28.0
 20
-1.443375672974063
 30
0.0
 11
29.25
 21
-0.7216878364870336
 31
0.0
  0
LINE
  5
181F
  8
247
 10
29.25
 20
-0.7216878364870336
 30
0.0
 11
29.25
 21
0.7216878364870301
 31
0.0
  0
LINE
  5
1820
  8
247
 10
29.25
 20
0.7216878364870301
 30
0.0
 11
28.0
 21
1.4433756729740641
 31
0.0
  0
LINE
  5
1821
  8
247
 10
28.0
 20
1.4433756729740641
 30
0.0
 11
26.75
 21
0.7216878364870321
 31
0.0
  0
LINE
  5
1822
  8
250
 10
-19.399999999999999
 20
14.0
 30
0.0
 11
-7.0
 21
14.0
 31
0.0
  0
LINE
  5
1823
  8
250
 10
-7.0
 20
14.0
 30
0.0
 11
-3.4300152441806122
 21
6.0349487606905159
 31
0.0
  0
LINE
  5
1824
  8
250
 10
-3.4300152441806122
 20
6.034948760690515
 30
0.0
 11
-2.5179387444481991
 21
4.0
 31
0.0
  0
LINE
  5
1825
  8
250
 10
-3.697921329792575
 20
5.9148716120457241
 30
0.0
 11
-2.5179387444481991
 21
4.0
 31
0.0
  0
LINE
  5
1826
  8
250
 10
-2.5179387444481991
 20
4.0
 30
0.0
 11
-3.1621091585686512
 21
6.1550259093353068
 31
0.0
  0
LINE
  5
1828
  8
250
 10
-0.0000000000000009
 20
-3.9999999999999991
 30
0.0
 11
-0.0000000000000021
 21
-22.0
 31
0.0
  0
LINE
  5
1829
  8
250
 10
12.300000000000001
 20
-2.0804381211482741
 30
0.0
 11
12.300000000000001
 21
-22.0
 31
0.0
  0
LINE
  5
182A
  8
250
 10
2.2299999999999982
 20
-21.0
 30
0.0
 11
10.07
 21
-21.0
 31
0.0
  0
LINE
  5
182E
  8
250
 10
-4.5
 20
-3.9999999999999991
 30
0.0
 11
-4.5
 21
-22.0
 31
0.0
  0
LINE
  5
182F
  8
250
 10
-0.0000000000000009
 20
-3.9999999999999991
 30
0.0
 11
-0.0000000000000021
 21
-22.0
 31
0.0
  0
LINE
  5
1830
  8
250
 10
2.2299999999999982
 20
-21.0
 30
0.0
 11
4.4599999999999982
 21
-21.0
 31
0.0
  0
LINE
  5
1831
  8
250
 10
-6.7300000000000004
 20
-21.0
 30
0.0
 11
-16.826666666666672
 21
-21.0
 31
0.0
  0
LINE
  5
1832
  8
250
 10
-0.000000000000002
 20
-21.0
 30
0.0
 11
-4.5
 21
-21.0
 31
0.0
  0
LINE
  5
1836
  8
250
 10
-4.4999999999999991
 20
-3.9999999999999991
 30
0.0
 11
-4.5
 21
-29.0
 31
0.0
  0
LINE
  5
1837
  8
250
 10
12.300000000000001
 20
-2.0804381211482741
 30
0.0
 11
12.300000000000001
 21
-29.0
 31
0.0
  0
LINE
  5
1838
  8
250
 10
-2.27
 20
-28.0
 30
0.0
 11
10.07
 21
-28.0
 31
0.0
  0
LINE
  5
183C
  8
AM_5
 10
6.7463052528668044
 20
2.5
 30
0.0
 11
8.0
 21
2.4999999999999991
 31
0.0
  0
LINE
  5
183D
  8
AM_5
 10
6.7463052528668044
 20
-2.4999999999999991
 30
0.0
 11
7.9999999999999982
 21
-2.5
 31
0.0
  0
LINE
  5
183E
  8
250
 10
6.9999999999999991
 20
-4.7300000000000004
 30
0.0
 11
6.9999999999999982
 21
-6.9599999999999991
 31
0.0
  0
LINE
  5
183F
  8
250
 10
7.0
 20
4.7299999999999986
 30
0.0
 11
7.0
 21
13.359999999999999
 31
0.0
  0
LINE
  5
1840
  8
250
 10
6.9999999999999991
 20
-2.5
 30
0.0
 11
7.0
 21
2.5
 31
0.0
  0
TEXT
  5
1844
  8
250
 10
34.310000000000002
 20
-20.0
 30
0.0
 40
2.799999999999998
  1
2.5
  0
LINE
  5
1845
  8
250
 10
31.48
 20
-21.37166666666667
 30
0.0
 11
29.25
 21
-21.0
 31
0.0
  0
LINE
  5
1846
  8
250
 10
31.48
 20
-20.62833333333333
 30
0.0
 11
29.25
 21
-21.0
 31
0.0
  0
LINE
  5
1847
  8
250
 10
29.25
 20
-21.0
 30
0.0
 11
31.48
 21
-21.0
 31
0.0
  0
LINE
  5
1848
  8
250
 10
24.52
 20
-20.62833333333333
 30
0.0
 11
26.75
 21
-21.0
 31
0.0
  0
LINE
  5
1849
  8
250
 10
24.52
 20
-21.37166666666667
 30
0.0
 11
26.75
 21
-21.0
 31
0.0
  0
LINE
  5
184A
  8
250
 10
26.75
 20
-21.0
 30
0.0
 11
24.52
 21
-21.0
 31
0.0
  0
TEXT
  5
184B
  8
250
 10
-19.93333333333333
 20
15.4
 30
0.0
 40
2.799999999999998
  1
M8P1
  7
YOKO
  0
TEXT
  5
184C
  8
250
 10
1.2833333333333341
 20
-20.0
 30
0.0
 40
2.799999999999998
  1
12.3
  0
LINE
  5
184D
  8
250
 10
10.07
 20
-20.62833333333333
 30
0.0
 11
12.300000000000001
 21
-21.0
 31
0.0
  0
LINE
  5
184E
  8
250
 10
10.07
 20
-21.37166666666667
 30
0.0
 11
12.300000000000001
 21
-21.0
 31
0.0
  0
LINE
  5
184F
  8
250
 10
12.300000000000001
 20
-21.0
 30
0.0
 11
10.07
 21
-21.0
 31
0.0
  0
LINE
  5
1850
  8
250
 10
2.2299999999999982
 20
-21.37166666666667
 30
0.0
 11
-0.000000000000002
 21
-21.0
 31
0.0
  0
LINE
  5
1851
  8
250
 10
2.2299999999999982
 20
-20.62833333333333
 30
0.0
 11
-0.000000000000002
 21
-21.0
 31
0.0
  0
LINE
  5
1852
  8
250
 10
-0.000000000000002
 20
-21.0
 30
0.0
 11
2.2299999999999982
 21
-21.0
 31
0.0
  0
TEXT
  5
1853
  8
250
 10
-16.226666666666659
 20
-20.0
 30
0.0
 40
2.799999999999998
  1
4.5
  0
LINE
  5
1854
  8
250
 10
-6.7300000000000004
 20
-20.62833333333333
 30
0.0
 11
-4.5
 21
-21.0
 31
0.0
  0
LINE
  5
1855
  8
250
 10
-6.7300000000000004
 20
-21.37166666666667
 30
0.0
 11
-4.5
 21
-21.0
 31
0.0
  0
LINE
  5
1856
  8
250
 10
-4.5
 20
-21.0
 30
0.0
 11
-6.7300000000000004
 21
-21.0
 31
0.0
  0
LINE
  5
1857
  8
250
 10
2.2299999999999982
 20
-21.37166666666667
 30
0.0
 11
-0.000000000000002
 21
-21.0
 31
0.0
  0
LINE
  5
1858
  8
250
 10
2.2299999999999982
 20
-20.62833333333333
 30
0.0
 11
-0.000000000000002
 21
-21.0
 31
0.0
  0
LINE
  5
1859
  8
250
 10
-0.000000000000002
 20
-21.0
 30
0.0
 11
2.2299999999999982
 21
-21.0
 31
0.0
  0
TEXT
  5
185A
  8
250
 10
-0.9666666666666642
 20
-27.0
 30
0.0
 40
2.799999999999998
  1
16.8
  0
LINE
  5
185B
  8
250
 10
10.07
 20
-27.62833333333333
 30
0.0
 11
12.300000000000001
 21
-28.0
 31
0.0
  0
LINE
  5
185C
  8
250
 10
10.07
 20
-28.371666666666659
 30
0.0
 11
12.300000000000001
 21
-28.0
 31
0.0
  0
LINE
  5
185D
  8
250
 10
12.300000000000001
 20
-28.0
 30
0.0
 11
10.07
 21
-28.0
 31
0.0
  0
LINE
  5
185E
  8
250
 10
-2.27
 20
-28.371666666666659
 30
0.0
 11
-4.5
 21
-28.0
 31
0.0
  0
LINE
  5
185F
  8
250
 10
-2.27
 20
-27.62833333333333
 30
0.0
 11
-4.5
 21
-28.0
 31
0.0
  0
LINE
  5
1860
  8
250
 10
-4.5
 20
-28.0
 30
0.0
 11
-2.27
 21
-28.0
 31
0.0
  0
TEXT
  5
1861
  8
250
 10
6.0
 20
7.693333333333336
 30
0.0
 40
2.799999999999998
  1
\U+22055
 50
90.0
  0
LINE
  5
1862
  8
250
 10
7.371666666666667
 20
4.7300000000000004
 30
0.0
 11
7.0
 21
2.5
 31
0.0
  0
LINE
  5
1863
  8
250
 10
6.6283333333333321
 20
4.7300000000000004
 30
0.0
 11
7.0
 21
2.5
 31
0.0
  0
LINE
  5
1864
  8
250
 10
7.0
 20
2.5
 30
0.0
 11
7.0
 21
4.7300000000000004
 31
0.0
  0
LINE
  5
1865
  8
250
 10
6.6283333333333321
 20
-4.7300000000000004
 30
0.0
 11
6.9999999999999991
 21
-2.5
 31
0.0
  0
LINE
  5
1866
  8
250
 10
7.3716666666666653
 20
-4.7300000000000004
 30
0.0
 11
6.9999999999999991
 21
-2.5
 31
0.0
  0
LINE
  5
1867
  8
250
 10
6.9999999999999991
 20
-2.5
 30
0.0
 11
6.9999999999999991
 21
-4.7300000000000004
 31
0.0
  0
VIEWPORT
  5
22
 67
     1
  8
0
 10
261.51769911504419
 20
148.5
 30
0.0
 40
523.0353982300885
 41
297.0
 68
     1
 69
     1
1001
ACAD
1000
MVIEW
1002
{
1070
    16
1010
0.0
1020
0.0
1030
0.0
1010
0.0
1020
0.0
1030
1.0
1040
0.0
1040
297.0
1040
261.51769911504419
1040
148.5
1040
50.0
1040
0.0
1040
0.0
1070
     0
1070
   100
1070
     1
1070
     1
1070
     0
1070
     0
1070
     0
1070
     0
1040
0.0
1040
0.0
1040
0.0
1040
1.0
1040
1.0
1040
10.0
1040
10.0
1070
     0
1002
{
1002
}
1002
}
1001
GENIUS_GENODEF_13
1002
{
1000
HIER
1070
     0
1002
}
1002
{
1000
MANEDIT
1070
     0
1002
}
1002
{
1000
NOSEL
1070
     0
1002
}
1002
{
1000
BEHIND
1070
     0
1002
}
1002
{
1000
OTHER
1070
     0
1002
}
1002
{
1000
REACTOR
1002
}
1001
GENIUS_GENOBJ-N-SDF_13
1002
{
1000
OWNER
1000
GEN
1002
}
1001
GENIUS_GENSCREG_15
1000
PF
1040
1.0
1000
DF
1040
1.0
1000
MIN
1011
0.0
1021
-0.0
1031
0.0
1021
0.0
1031
0.0
1000
MAX
1011
523.0353982300885
1021
-0.0
1031
0.0
1021
297.0
1031
0.0
1000
FLAGS
1070
     2
  0
ENDSEC
  0
EOF
