  0
SECTION
  2
HEADER
  9
$ACADVER
  1
AC1009
  9
$INSBASE
 10
0.0
 20
0.0
 30
0.0
  9
$EXTMIN
 10
-2.9741180273384109
 20
-24.545534114255879
 30
0.0
  9
$EXTMAX
 10
57.000000000000021
 20
40.0
 30
0.0
  9
$LIMMIN
 10
0.0
 20
0.0
  9
$LIMMAX
 10
297.0
 20
210.0
  9
$ORTHOMODE
 70
     1
  9
$REGENMODE
 70
     1
  9
$FILLMODE
 70
     1
  9
$QTEXTMODE
 70
     0
  9
$MIRRTEXT
 70
     1
  9
$DRAGMODE
 70
     2
  9
$LTSCALE
 40
10.0
  9
$OSMODE
 70
    39
  9
$ATTMODE
 70
     1
  9
$TEXTSIZE
 40
3.0
  9
$TRACEWID
 40
1.0
  9
$TEXTSTYLE
  7
YOKO
  9
$CLAYER
  8
240
  9
$CELTYPE
  6
BYLAYER
  9
$CECOLOR
 62
   256
  9
$DIMSCALE
 40
1.0
  9
$DIMASZ
 40
2.2299999999999991
  9
$DIMEXO
 40
0.5
  9
$DIMDLI
 40
7.0
  9
$DIMRND
 40
0.0
  9
$DIMDLE
 40
0.0
  9
$DIMEXE
 40
1.0
  9
$DIMTP
 40
0.0
  9
$DIMTM
 40
0.01
  9
$DIMTXT
 40
2.799999999999998
  9
$DIMCEN
 40
0.0
  9
$DIMTSZ
 40
0.0
  9
$DIMTOL
 70
     0
  9
$DIMLIM
 70
     0
  9
$DIMTIH
 70
     0
  9
$DIMTOH
 70
     0
  9
$DIMSE1
 70
     0
  9
$DIMSE2
 70
     0
  9
$DIMTAD
 70
     3
  9
$DIMZIN
 70
     9
  9
$DIMBLK
  1
OPEN
  9
$DIMASO
 70
     1
  9
$DIMSHO
 70
     1
  9
$DIMPOST
  1

  9
$DIMAPOST
  1

  9
$DIMALT
 70
     0
  9
$DIMALTD
 70
     2
  9
$DIMALTF
 40
25.399999999999999
  9
$DIMLFAC
 40
1.0
  9
$DIMTOFL
 70
     1
  9
$DIMTVP
 40
0.0
  9
$DIMTIX
 70
     1
  9
$DIMSOXD
 70
     0
  9
$DIMSAH
 70
     0
  9
$DIMBLK1
  1

  9
$DIMBLK2
  1

  9
$DIMSTYLE
  2
BIGT
  9
$DIMCLRD
 70
   256
  9
$DIMCLRE
 70
   256
  9
$DIMCLRT
 70
    40
  9
$DIMTFAC
 40
1.0
  9
$DIMGAP
 40
1.0
  9
$LUNITS
 70
     2
  9
$LUPREC
 70
     6
  9
$SKETCHINC
 40
1.0
  9
$FILLETRAD
 40
0.0
  9
$AUNITS
 70
     0
  9
$AUPREC
 70
     6
  9
$MENU
  1
.
  9
$ELEVATION
 40
0.0
  9
$PELEVATION
 40
0.0
  9
$THICKNESS
 40
0.0
  9
$LIMCHECK
 70
     0
  9
$BLIPMODE
 70
     0
  9
$CHAMFERA
 40
0.2
  9
$CHAMFERB
 40
0.2
  9
$SKPOLY
 70
     0
  9
$TDCREATE
 40
2457805.4641852779
  9
$TDUPDATE
 40
2460279.47519647
  9
$TDINDWG
 40
0.2014119329
  9
$TDUSRTIMER
 40
0.2014118171
  9
$USRTIMER
 70
     1
  9
$ANGBASE
 50
0.0
  9
$ANGDIR
 70
     0
  9
$PDMODE
 70
     1
  9
$PDSIZE
 40
0.0
  9
$PLINEWID
 40
0.0
  9
$COORDS
 70
     1
  9
$SPLFRAME
 70
     0
  9
$SPLINETYPE
 70
     6
  9
$SPLINESEGS
 70
     4
  9
$ATTDIA
 70
     1
  9
$ATTREQ
 70
     1
  9
$HANDLING
 70
     1
  9
$HANDSEED
  5
4E5B
  9
$SURFTAB1
 70
     6
  9
$SURFTAB2
 70
     6
  9
$SURFTYPE
 70
     6
  9
$SURFU
 70
     6
  9
$SURFV
 70
     6
  9
$UCSNAME
  2

  9
$UCSORG
 10
0.0
 20
0.0
 30
0.0
  9
$UCSXDIR
 10
1.0
 20
0.0
 30
0.0
  9
$UCSYDIR
 10
0.0
 20
1.0
 30
0.0
  9
$PUCSNAME
  2

  9
$PUCSORG
 10
0.0
 20
0.0
 30
0.0
  9
$PUCSXDIR
 10
1.0
 20
0.0
 30
0.0
  9
$PUCSYDIR
 10
0.0
 20
1.0
 30
0.0
  9
$USERI1
 70
     1
  9
$USERI2
 70
     0
  9
$USERI3
 70
     0
  9
$USERI4
 70
     0
  9
$USERI5
 70
     0
  9
$USERR1
 40
0.0
  9
$USERR2
 40
0.0
  9
$USERR3
 40
0.0
  9
$USERR4
 40
0.0
  9
$USERR5
 40
0.0
  9
$WORLDVIEW
 70
     1
  9
$SHADEDGE
 70
     3
  9
$SHADEDIF
 70
    70
  9
$TILEMODE
 70
     1
  9
$MAXACTVP
 70
    16
  9
$PLIMCHECK
 70
     0
  9
$PEXTMIN
 10
1.0000000000000000E+020
 20
1.0000000000000000E+020
 30
1.0000000000000000E+020
  9
$PEXTMAX
 10
-1.0000000000000000E+020
 20
-1.0000000000000000E+020
 30
-1.0000000000000000E+020
  9
$PLIMMIN
 10
0.0
 20
0.0
  9
$PLIMMAX
 10
420.0
 20
297.0
  9
$UNITMODE
 70
     0
  9
$VISRETAIN
 70
     1
  9
$PLINEGEN
 70
     0
  9
$PSLTSCALE
 70
     1
  0
ENDSEC
  0
SECTION
  2
TABLES
  0
TABLE
  2
VPORT
 70
     1
  0
VPORT
  2
*ACTIVE
 70
     0
 10
0.0
 20
0.0
 11
1.0
 21
1.0
 12
21.965629845944409
 22
2.776491221912067
 13
0.0
 23
0.0
 14
7.0
 24
7.0
 15
7.0
 25
7.0
 16
0.0
 26
0.0
 36
1.0
 17
0.0
 27
0.0
 37
0.0
 40
92.847055786528472
 41
1.8124223602484471
 42
50.0
 43
0.0
 44
0.0
 50
0.0
 51
0.0
 71
     0
 72
  2000
 73
     1
 74
     0
 75
     0
 76
     1
 77
     0
 78
     0
  0
ENDTAB
  0
TABLE
  2
LTYPE
 70
    17
  0
LTYPE
  2
CONTINUOUS
 70
     0
  3
Solid line
 72
    65
 73
     0
 40
0.0
  0
LTYPE
  2
CENTER2
 70
     0
  3
___ _ ___ _ ___ _ ___ _ ___ _ ___ _ ___ _ ___ _
 72
    65
 73
     4
 40
1.125
 49
0.75
 49
-0.125
 49
0.125
 49
-0.125
  0
LTYPE
  2
HIDDEN2
 70
     0
  3
_ _ _ _ _ _ _ _ _ _ _ _ _ _ _ _ _ _ _ _ _ _ _ _
 72
    65
 73
     2
 40
0.1875
 49
0.125
 49
-0.0625
  0
LTYPE
  2
AMCONSTR
 70
     0
  3
_______________________
 72
    65
 73
     2
 40
9999.0
 49
9999.0
 49
0.0
  0
LTYPE
  2
HIDDEN
 70
     0
  3
Hidden __ __ __ __ __ __ __ __ __ __ __ __ __ _
 72
    65
 73
     2
 40
0.375
 49
0.25
 49
-0.125
  0
LTYPE
  2
PHANTOM2
 70
     0
  3
Phantom (.5x) ___ _ _ ___ _ _ ___ _ _ ___ _ _
 72
    65
 73
     6
 40
1.25
 49
0.625
 49
-0.125
 49
0.125
 49
-0.125
 49
0.125
 49
-0.125
  0
LTYPE
  2
CENTER
 70
     0
  3
Center ____ _ ____ _ ____ _ ____ _ ____ _ ____
 72
    65
 73
     4
 40
2.0
 49
1.25
 49
-0.25
 49
0.25
 49
-0.25
  0
LTYPE
  2
AMZIGZAG2
 70
     0
  3
/\/-/\/-/\/-/\/-/\/-/\/
 72
    65
 73
     2
 40
0.4401
 49
0.0001
 49
-0.4400000000000003
  0
LTYPE
  2
ACANSTGB
 70
     0
  3
__ . . __ . .
 72
    65
 73
     6
 40
0.35433070866
 49
0.15748031496
 49
-0.03937007874
 49
0.03937007874
 49
-0.03937007874
 49
0.03937007874
 49
-0.03937007874
  0
LTYPE
  2
ACANSTGL
 70
     0
  3
_ _ _ _ _
 72
    65
 73
     2
 40
0.11811023622
 49
0.07874015748
 49
-0.03937007874
  0
ENDTAB
  0
TABLE
  2
LAYER
 70
    10
  0
LAYER
  2
0
 70
     0
 62
     7
  6
CONTINUOUS
  0
LAYER
  2
240
 70
     0
 62
     4
  6
CONTINUOUS
  0
LAYER
  2
DEFPOINTS
 70
     0
 62
     7
  6
CONTINUOUS
  0
LAYER
  2
245
 70
     0
 62
     2
  6
CENTER2
  0
LAYER
  2
241
 70
     0
 62
   211
  6
CONTINUOUS
  0
LAYER
  2
242
 70
     0
 62
     3
  6
CONTINUOUS
  0
LAYER
  2
243
 70
     0
 62
   211
  6
HIDDEN2
  0
LAYER
  2
244
 70
     0
 62
     3
  6
HIDDEN2
  0
LAYER
  2
250
 70
     0
 62
     3
  6
CONTINUOUS
  0
ENDTAB
  0
TABLE
  2
STYLE
 70
     6
  0
STYLE
  2
STANDARD
 70
     0
 40
0.0
 41
1.0
 50
0.0
 71
     0
 42
3.0
  3
romans.shx
  4
extfont.shx
  0
STYLE
  2
YOKO
 70
     0
 40
0.0
 41
1.0
 50
0.0
 71
     0
 42
3.0
  3
romans.shx
  4
extfont.shx
  0
STYLE
  2
ACANSGDT
 70
     0
 40
0.0
 41
1.0
 50
0.0
 71
     0
 42
3.0
  3
amgdt.shx
  4

  0
ENDTAB
  0
TABLE
  2
VIEW
 70
     0
  0
ENDTAB
  0
TABLE
  2
UCS
 70
     0
  0
ENDTAB
  0
TABLE
  2
APPID
 70
    39
  0
APPID
  2
ACAD
 70
     0
  0
APPID
  2
ACADANNOTATIVE
 70
     0
  0
APPID
  2
GLOBAL
 70
     0
  0
APPID
  2
DETAIL
 70
     0
  0
APPID
  2
GRPNAME
 70
     0
  0
APPID
  2
GPARA
 70
     0
  0
APPID
  2
MCAD_NO_VIS
 70
     0
  0
APPID
  2
ACAD_TEMP_GRAPHIC
 70
     0
  0
APPID
  2
ACATTRIBSERVICES
 70
     0
  0
APPID
  2
GENIUS_GENSCREG_15
 70
     0
  0
APPID
  2
GENIUS_GENODEF_13
 70
     0
  0
APPID
  2
GENIUS_GENOBJ-N-SDF_13
 70
     0
  0
APPID
  2
GENIUS_GENREC_14
 70
     0
  0
APPID
  2
GENIUS_GENOBJ-N-REC_13
 70
     0
  0
APPID
  2
GENIUS_GENDIMSH_14
 70
     0
  0
APPID
  2
GENIUS_GENOBJ-N-DIM_13
 70
     0
  0
APPID
  2
GENIUS_GENDIM_13
 70
     0
  0
APPID
  2
GENIUS_GENDTOL_13
 70
     0
  0
APPID
  2
GENIUS_GENOLIS_13
 70
     0
  0
APPID
  2
GENIUS_GENOENT_13
 70
     0
  0
APPID
  2
GENIUS_GENOBJ-F-FEM_13
 70
     0
  0
APPID
  2
GENIUS_GENOREF_13
 70
     0
  0
APPID
  2
GENIUS_GEFFEM_13
 70
     0
  0
APPID
  2
GENIUS_GEFFEMP_13
 70
     0
  0
APPID
  2
AD_DRAW
 70
     0
  0
APPID
  2
DESIGNERASSEMBLIES
 70
     0
  0
APPID
  2
ACADM_DIM_EDIT
 70
     0
  0
APPID
  2
AMDT_DM_ADJ
 70
     0
  0
APPID
  2
ITEMNAME
 70
     0
  0
APPID
  2
GENIUS_GENOBJ-N-FIL_13
 70
     0
  0
APPID
  2
GENIUS_GENFIL_13
 70
     0
  0
APPID
  2
GENIUS_GENOBJ-N-CHA_13
 70
     0
  0
APPID
  2
ACAECLAYERSTANDARD
 70
     0
  0
APPID
  2
ACAD_NAV_VCDISPLAY
 70
     0
  0
APPID
  2
ACAD_EXEMPT_FROM_CAD_STANDARDS
 70
     0
  0
APPID
  2
ACAD_DSTYLE_DIMINSPECT
 70
     0
  0
APPID
  2
ACAD_MLEADERVER
 70
     0
  0
APPID
  2
ACAD_DSTYLE_DIMBREAK
 70
     0
  0
APPID
  2
ACAD_DSTYLE_DIMJAG
 70
     0
  0
ENDTAB
  0
TABLE
  2
DIMSTYLE
 70
     9
  0
DIMSTYLE
  2
STANDARD
 70
     0
  3

  4

  5

  6

  7

 40
1.0
 41
0.18
 42
0.0625
 43
0.38
 44
0.18
 45
0.0
 46
0.0
 47
0.0
 48
0.0
140
0.18
141
0.09
142
0.0
143
25.399999999999999
144
1.0
145
0.0
146
1.0
147
0.09
 71
     0
 72
     0
 73
     1
 74
     1
 75
     0
 76
     0
 77
     0
 78
     0
170
     0
171
     2
172
     0
173
     0
174
     0
175
     0
176
     0
177
     0
178
     0
  0
DIMSTYLE
  2
BIGT
 70
     0
  3

  4

  5

  6

  7

 40
1.0
 41
2.2299999999999991
 42
0.5
 43
7.0
 44
1.0
 45
0.0
 46
0.0
 47
0.0
 48
0.01
140
2.799999999999998
141
0.0
142
0.0
143
25.399999999999999
144
1.0
145
0.0
146
1.0
147
1.0
 71
     0
 72
     0
 73
     0
 74
     0
 75
     0
 76
     0
 77
     3
 78
     9
170
     0
171
     2
172
     1
173
     0
174
     1
175
     0
176
   256
177
   256
178
    40
  0
DIMSTYLE
  2
AM_ANSI
 70
     0
  3

  4
mm
  5

  6

  7

 40
1.0
 41
0.12
 42
0.05
 43
0.5
 44
0.1
 45
0.0
 46
0.0
 47
0.1
 48
0.1
140
0.12
141
0.0
142
0.0
143
25.399999999999999
144
1.0
145
0.0
146
0.71
147
0.06
 71
     0
 72
     0
 73
     1
 74
     1
 75
     0
 76
     0
 77
     0
 78
     7
170
     0
171
     2
172
     0
173
     0
174
     0
175
     0
176
   256
177
   256
178
     2
  0
DIMSTYLE
  2
AM_ANSI$3
 70
     0
  3

  4
mm
  5

  6

  7

 40
1.0
 41
0.12
 42
0.05
 43
0.5
 44
0.1
 45
0.0
 46
0.0
 47
0.1
 48
0.1
140
0.12
141
0.0
142
0.0
143
25.399999999999999
144
1.0
145
0.0
146
0.71
147
0.06
 71
     0
 72
     0
 73
     1
 74
     1
 75
     0
 76
     0
 77
     0
 78
     7
170
     0
171
     2
172
     0
173
     0
174
     0
175
     0
176
   256
177
   256
178
     2
  0
DIMSTYLE
  2
AM_ANSI$4
 70
     0
  3

  4
mm
  5

  6

  7

 40
1.0
 41
0.12
 42
0.05
 43
0.5
 44
0.1
 45
0.0
 46
0.0
 47
0.1
 48
0.1
140
0.12
141
0.0
142
0.0
143
25.399999999999999
144
1.0
145
0.0
146
0.71
147
0.06
 71
     0
 72
     0
 73
     1
 74
     1
 75
     0
 76
     0
 77
     0
 78
     7
170
     0
171
     2
172
     0
173
     0
174
     0
175
     0
176
   256
177
   256
178
     2
  0
DIMSTYLE
  2
AM_ANSI$7
 70
     0
  3

  4
mm
  5

  6

  7

 40
1.0
 41
0.12
 42
0.05
 43
0.5
 44
0.1
 45
0.0
 46
0.0
 47
0.1
 48
0.1
140
0.12
141
0.0
142
0.0
143
25.399999999999999
144
1.0
145
0.0
146
0.71
147
0.06
 71
     0
 72
     0
 73
     1
 74
     1
 75
     0
 76
     0
 77
     0
 78
     7
170
     0
171
     2
172
     0
173
     0
174
     0
175
     0
176
   256
177
   256
178
     2
  0
DIMSTYLE
  2
AM_ANSI$SF
 70
     0
  3

  4
mm
  5

  6

  7

 40
1.0
 41
0.12
 42
0.05
 43
0.5
 44
0.1
 45
0.0
 46
0.0
 47
0.1
 48
0.1
140
0.12
141
0.0
142
0.0
143
25.399999999999999
144
1.0
145
0.0
146
0.71
147
0.06
 71
     0
 72
     0
 73
     1
 74
     1
 75
     1
 76
     1
 77
     0
 78
     7
170
     0
171
     2
172
     0
173
     0
174
     0
175
     0
176
   256
177
   256
178
     2
  0
DIMSTYLE
  2
AM_ANSI$SH
 70
     0
  3

  4
mm
  5

  6

  7

 40
1.0
 41
0.12
 42
0.05
 43
0.5
 44
0.1
 45
0.0
 46
0.0
 47
0.1
 48
0.1
140
0.12
141
0.0
142
0.0
143
25.399999999999999
144
1.0
145
0.0
146
0.71
147
0.06
 71
     0
 72
     0
 73
     1
 74
     1
 75
     1
 76
     1
 77
     0
 78
     7
170
     0
171
     2
172
     0
173
     1
174
     0
175
     0
176
   256
177
   256
178
     2
  0
ENDTAB
  0
ENDSEC
  0
SECTION
  2
BLOCKS
  0
BLOCK
  8
0
  2
$MODEL_SPACE
 70
     0
 10
0.0
 20
0.0
 30
0.0
  3
$MODEL_SPACE
  1

  0
ENDBLK
  5
4CE8
  8
0
  0
BLOCK
 67
     1
  8
0
  2
$PAPER_SPACE
 70
     0
 10
0.0
 20
0.0
 30
0.0
  3
$PAPER_SPACE
  1

  0
ENDBLK
  5
4CE4
 67
     1
  8
0
  0
BLOCK
  8
0
  2
_OPEN
 70
     0
 10
0.0
 20
0.0
 30
0.0
  3
_OPEN
  1

  0
LINE
  5
3E1A
  8
0
  6
BYBLOCK
 62
     0
 10
-1.0
 20
0.1666666666666666
 30
0.0
 11
0.0
 21
0.0
 31
0.0
  0
LINE
  5
3E1B
  8
0
  6
BYBLOCK
 62
     0
 10
-1.0
 20
-0.1666666666666666
 30
0.0
 11
0.0
 21
0.0
 31
0.0
  0
LINE
  5
3E1C
  8
0
  6
BYBLOCK
 62
     0
 10
0.0
 20
0.0
 30
0.0
 11
-1.0
 21
0.0
 31
0.0
  0
ENDBLK
  5
3E1D
  8
0
  0
BLOCK
  8
0
  2
_ACMFILLEDHALF
 70
     0
 10
0.0
 20
0.0
 30
0.0
  3
_ACMFILLEDHALF
  1

  0
TRACE
  5
47FC
  8
240
 62
     0
 10
-0.8
 20
0.0
 30
0.0
 11
-1.0
 21
0.166666666
 31
0.0
 12
0.0
 22
0.0
 32
0.0
 13
0.0
 23
0.0
 33
0.0
  0
LINE
  5
47FD
  8
240
 62
     0
 10
-1.0
 20
0.0
 30
0.0
 11
-0.8
 21
0.0
 31
0.0
  0
ENDBLK
  5
47FB
  8
0
  0
ENDSEC
  0
SECTION
  2
ENTITIES
  0
LINE
  5
4226
  8
245
  6
CENTER2
 10
-2.9741180273384109
 20
0.0
 30
0.0
 11
45.776993521768539
 21
0.0
 31
0.0
  0
LINE
  5
4227
  8
240
  6
CONTINUOUS
 10
16.233012701892221
 20
8.0
 30
0.0
 11
40.999999999999979
 21
8.0
 31
0.0
  0
LINE
  5
4229
  8
240
  6
CONTINUOUS
 10
16.233012701892221
 20
-8.0
 30
0.0
 11
40.999999999999979
 21
-8.0
 31
0.0
  0
LINE
  5
422B
  8
240
  6
CONTINUOUS
 10
43.999999999999993
 20
7.1961524227066249
 30
0.0
 11
43.999999999999993
 21
-7.1961524227066302
 31
0.0
  0
LINE
  5
422C
  8
243
  6
HIDDEN2
 10
0.8000000000000165
 20
7.7999999999999989
 30
0.0
 11
0.8000000000000165
 21
-7.7999999999999989
 31
0.0
  0
LINE
  5
422D
  8
241
  6
CONTINUOUS
 10
40.999999999999979
 20
8.0
 30
0.0
 11
40.999999999999979
 21
-7.9999999999999982
 31
0.0
  0
LINE
  5
422F
  8
240
  6
CONTINUOUS
 10
43.999999999999993
 20
-7.1961524227066302
 30
0.0
 11
40.999999999999979
 21
-8.0
 31
0.0
  0
LINE
  5
4230
  8
240
  6
CONTINUOUS
 10
43.999999999999993
 20
7.1961524227066302
 30
0.0
 11
40.999999999999979
 21
8.0
 31
0.0
  0
LINE
  5
4231
  8
243
  6
HIDDEN2
 10
1.8000000000000149
 20
10.050000000000001
 30
0.0
 11
4.2497991951677827
 21
10.050000000000001
 31
0.0
  0
LINE
  5
4232
  8
243
  6
HIDDEN2
 10
1.8000000000000149
 20
-10.050000000000001
 30
0.0
 11
4.2497991951677827
 21
-10.050000000000001
 31
0.0
  0
LINE
  5
4233
  8
243
  6
HIDDEN2
 10
0.8000000000000165
 20
-7.7999999999999989
 30
0.0
 11
1.8000000000000149
 21
-7.7999999999999989
 31
0.0
  0
LINE
  5
4234
  8
243
  6
HIDDEN2
 10
0.8000000000000165
 20
7.7999999999999989
 30
0.0
 11
1.8000000000000149
 21
7.7999999999999989
 31
0.0
  0
LINE
  5
4235
  8
243
  6
HIDDEN2
 10
1.8000000000000149
 20
10.050000000000001
 30
0.0
 11
1.8000000000000149
 21
7.7999999999999989
 31
0.0
  0
LINE
  5
4236
  8
241
  6
CONTINUOUS
 10
15.800000000000001
 20
7.75
 30
0.0
 11
15.800000000000001
 21
-7.75
 31
0.0
  0
LINE
  5
4266
  8
240
  6
CONTINUOUS
 10
15.5
 20
7.75
 30
0.0
 11
15.800000000000001
 21
7.75
 31
0.0
  0
LINE
  5
4267
  8
240
  6
CONTINUOUS
 10
15.5
 20
-7.75
 30
0.0
 11
15.800000000000001
 21
-7.75
 31
0.0
  0
LINE
  5
4268
  8
240
  6
CONTINUOUS
 10
16.233012701892221
 20
8.0
 30
0.0
 11
15.800000000000001
 21
7.75
 31
0.0
  0
LINE
  5
4269
  8
240
  6
CONTINUOUS
 10
16.233012701892221
 20
-8.0
 30
0.0
 11
15.800000000000001
 21
-7.75
 31
0.0
  0
ARC
  5
426B
  8
243
  6
HIDDEN2
 10
-8.1999999999999851
 20
0.0
 30
0.0
 40
16.0
 50
321.08807648689742
 51
331.02846777628878
  0
ARC
  5
426C
  8
243
  6
HIDDEN2
 10
-8.1999999999999851
 20
0.0
 30
0.0
 40
16.0
 50
28.971532223711211
 51
38.911923513102607
  0
LINE
  5
426D
  8
243
  6
HIDDEN2
 10
0.8000000000000165
 20
6.0
 30
0.0
 11
43.999999999999993
 21
6.0
 31
0.0
  0
LINE
  5
426E
  8
243
  6
HIDDEN2
 10
0.8000000000000165
 20
-6.0
 30
0.0
 11
44.000000000000007
 21
-6.0
 31
0.0
  0
LINE
  5
426F
  8
240
  6
CONTINUOUS
 10
15.5
 20
11.0
 30
0.0
 11
15.5
 21
7.75
 31
0.0
  0
LINE
  5
4270
  8
240
  6
CONTINUOUS
 10
0.0
 20
11.0
 30
0.0
 11
0.0
 21
-11.0
 31
0.0
  0
LINE
  5
42CB
  8
240
  6
CONTINUOUS
 10
0.9999999999999998
 20
-12.0
 30
0.0
 11
14.5
 21
-12.0
 31
0.0
  0
LINE
  5
42CC
  8
242
  6
CONTINUOUS
 10
0.2500000000000001
 20
11.25
 30
0.0
 11
15.25
 21
11.25
 31
0.0
  0
LINE
  5
42CD
  8
242
  6
CONTINUOUS
 10
0.2500000000000001
 20
-11.25
 30
0.0
 11
15.25
 21
-11.25
 31
0.0
  0
LINE
  5
42D6
  8
240
  6
CONTINUOUS
 10
15.5
 20
11.0
 30
0.0
 11
14.5
 21
12.0
 31
0.0
1001
GENIUS_GENFIL_13
1070
     0
1040
1.0
1040
1.0
1040
0.0
1040
0.0
1002
{
1002
}
1001
GENIUS_GENODEF_13
1002
{
1000
HIER
1070
     0
1002
}
1002
{
1000
MANEDIT
1070
     0
1002
}
1002
{
1000
NOSEL
1070
     0
1002
}
1002
{
1000
BEHIND
1070
     0
1002
}
1002
{
1000
OTHER
1070
     0
1002
}
1002
{
1000
REACTOR
1002
}
1001
GENIUS_GENOBJ-N-CHA_13
1002
{
1000
OWNER
1000
GEN
1002
}
  0
LINE
  5
42D7
  8
240
  6
CONTINUOUS
 10
0.9999999999999998
 20
12.0
 30
0.0
 11
0.0
 21
11.0
 31
0.0
1001
GENIUS_GENFIL_13
1070
     0
1040
1.0
1040
1.0
1040
0.0
1040
0.0
1002
{
1002
}
1001
GENIUS_GENOBJ-N-CHA_13
1002
{
1000
OWNER
1000
GEN
1002
}
1001
GENIUS_GENODEF_13
1002
{
1000
HIER
1070
     0
1002
}
1002
{
1000
MANEDIT
1070
     0
1002
}
1002
{
1000
NOSEL
1070
     0
1002
}
1002
{
1000
BEHIND
1070
     0
1002
}
1002
{
1000
OTHER
1070
     0
1002
}
1002
{
1000
REACTOR
1002
}
  0
LINE
  5
42D8
  8
240
  6
CONTINUOUS
 10
15.5
 20
-11.0
 30
0.0
 11
14.5
 21
-12.0
 31
0.0
1001
GENIUS_GENFIL_13
1070
     0
1040
1.0
1040
1.0
1040
0.0
1040
0.0
1002
{
1002
}
1001
GENIUS_GENOBJ-N-CHA_13
1002
{
1000
OWNER
1000
GEN
1002
}
1001
GENIUS_GENODEF_13
1002
{
1000
HIER
1070
     0
1002
}
1002
{
1000
MANEDIT
1070
     0
1002
}
1002
{
1000
NOSEL
1070
     0
1002
}
1002
{
1000
BEHIND
1070
     0
1002
}
1002
{
1000
OTHER
1070
     0
1002
}
1002
{
1000
REACTOR
1002
}
  0
LINE
  5
42D9
  8
240
  6
CONTINUOUS
 10
0.9999999999999998
 20
-12.0
 30
0.0
 11
0.0
 21
-11.0
 31
0.0
1001
GENIUS_GENFIL_13
1070
     0
1040
1.0
1040
1.0
1040
0.0
1040
0.0
1002
{
1002
}
1001
GENIUS_GENOBJ-N-CHA_13
1002
{
1000
OWNER
1000
GEN
1002
}
1001
GENIUS_GENODEF_13
1002
{
1000
HIER
1070
     0
1002
}
1002
{
1000
MANEDIT
1070
     0
1002
}
1002
{
1000
NOSEL
1070
     0
1002
}
1002
{
1000
BEHIND
1070
     0
1002
}
1002
{
1000
OTHER
1070
     0
1002
}
1002
{
1000
REACTOR
1002
}
  0
LINE
  5
42DA
  8
240
  6
CONTINUOUS
 10
0.9999999999999998
 20
12.0
 30
0.0
 11
14.5
 21
12.0
 31
0.0
  0
LINE
  5
4361
  8
240
  6
CONTINUOUS
 10
15.5
 20
-7.75
 30
0.0
 11
15.5
 21
-11.0
 31
0.0
  0
LINE
  5
4362
  8
241
  6
CONTINUOUS
 10
15.5
 20
-7.75
 30
0.0
 11
15.5
 21
7.75
 31
0.0
  0
LINE
  5
4363
  8
243
  6
HIDDEN2
 10
15.5
 20
7.75
 30
0.0
 11
5.7977676791694384
 21
7.7499999999999902
 31
0.0
  0
LINE
  5
4364
  8
243
  6
HIDDEN2
 10
15.5
 20
-7.75
 30
0.0
 11
5.797767679169433
 21
-7.7500000000000009
 31
0.0
  0
LINE
  5
4365
  8
243
  6
HIDDEN2
 10
1.8000000000000149
 20
-7.7999999999999989
 30
0.0
 11
1.8000000000000149
 21
-10.050000000000001
 31
0.0
  0
CIRCLE
  5
4448
  8
244
  6
HIDDEN2
 10
0.6000000000000175
 20
9.0
 30
0.0
 40
1.1999999999999991
  0
CIRCLE
  5
444A
  8
244
  6
HIDDEN2
 10
0.6000000000000175
 20
-9.0
 30
0.0
 40
1.1999999999999991
  0
TEXT
  5
44E1
  8
241
  6
CONTINUOUS
 10
-0.0000000000000018
 20
35.0
 30
0.0
 40
5.0
  1
HSK100-CPM
  7
YOKO
  0
LINE
  5
4508
  8
250
  6
CONTINUOUS
 10
41.500000000000007
 20
8.0
 30
0.0
 11
57.000000000000021
 21
7.9999999999999929
 31
0.0
  0
LINE
  5
4509
  8
250
  6
CONTINUOUS
 10
41.499999999999979
 20
-8.0
 30
0.0
 11
57.000000000000021
 21
-8.0000000000000053
 31
0.0
  0
LINE
  5
450A
  8
250
  6
CONTINUOUS
 10
56.000000000000007
 20
5.7699999999999934
 30
0.0
 11
56.000000000000007
 21
-5.770000000000004
 31
0.0
  0
TEXT
  5
450E
  8
250
  6
CONTINUOUS
 10
55.000000000000021
 20
-3.9333333333333269
 30
0.0
 40
2.799999999999998
  1
\U+220516
 50
90.0
  0
LINE
  5
450F
  8
250
  6
CONTINUOUS
 10
56.371666666666691
 20
-5.7700000000000031
 30
0.0
 11
56.000000000000007
 21
-8.0000000000000036
 31
0.0
  0
LINE
  5
4510
  8
250
  6
CONTINUOUS
 10
55.628333333333352
 20
-5.7700000000000031
 30
0.0
 11
56.000000000000007
 21
-8.0000000000000036
 31
0.0
  0
LINE
  5
4511
  8
250
  6
CONTINUOUS
 10
56.000000000000007
 20
-8.0000000000000036
 30
0.0
 11
56.000000000000007
 21
-5.7700000000000031
 31
0.0
  0
LINE
  5
4512
  8
250
  6
CONTINUOUS
 10
55.628333333333352
 20
5.7699999999999934
 30
0.0
 11
56.000000000000007
 21
7.9999999999999929
 31
0.0
  0
LINE
  5
4513
  8
250
  6
CONTINUOUS
 10
56.371666666666691
 20
5.7699999999999934
 30
0.0
 11
56.000000000000007
 21
7.9999999999999929
 31
0.0
  0
LINE
  5
4514
  8
250
  6
CONTINUOUS
 10
56.000000000000007
 20
7.9999999999999929
 30
0.0
 11
56.000000000000007
 21
5.7699999999999934
 31
0.0
  0
LINE
  5
45D7
  8
243
  6
HIDDEN2
 10
12.5
 20
12.0
 30
0.0
 11
12.5
 21
7.7499999999999982
 31
0.0
  0
LINE
  5
45D8
  8
243
  6
HIDDEN2
 10
12.5
 20
-7.7499999999999982
 30
0.0
 11
12.5
 21
-12.0
 31
0.0
  0
LINE
  5
4A7B
  8
250
  6
CONTINUOUS
 10
43.999999999999993
 20
7.6961524227066249
 30
0.0
 11
43.999999999999993
 21
22.0
 31
0.0
  0
LINE
  5
4A7C
  8
250
  6
CONTINUOUS
 10
0.0
 20
11.5
 30
0.0
 11
0.0000000000000007
 21
22.0
 31
0.0
  0
LINE
  5
4A7D
  8
250
  6
CONTINUOUS
 10
41.769999999999989
 20
21.0
 30
0.0
 11
2.2299999999999991
 21
21.0
 31
0.0
  0
TEXT
  5
4A81
  8
250
  6
CONTINUOUS
 10
18.73169985389185
 20
22.0
 30
0.0
 40
2.799999999999998
  1
44
  0
LINE
  5
4A82
  8
250
  6
CONTINUOUS
 10
2.2299999999999991
 20
20.62833333333333
 30
0.0
 11
0.0000000000000007
 21
21.0
 31
0.0
  0
LINE
  5
4A83
  8
250
  6
CONTINUOUS
 10
2.2299999999999991
 20
21.37166666666667
 30
0.0
 11
0.0000000000000007
 21
21.0
 31
0.0
  0
LINE
  5
4A84
  8
250
  6
CONTINUOUS
 10
0.0000000000000007
 20
21.0
 30
0.0
 11
2.2299999999999991
 21
21.0
 31
0.0
  0
LINE
  5
4A85
  8
250
  6
CONTINUOUS
 10
41.769999999999989
 20
21.37166666666667
 30
0.0
 11
43.999999999999993
 21
21.0
 31
0.0
  0
LINE
  5
4A86
  8
250
  6
CONTINUOUS
 10
41.769999999999989
 20
20.62833333333333
 30
0.0
 11
43.999999999999993
 21
21.0
 31
0.0
  0
LINE
  5
4A87
  8
250
  6
CONTINUOUS
 10
43.999999999999993
 20
21.0
 30
0.0
 11
41.769999999999989
 21
21.0
 31
0.0
  0
VIEWPORT
  5
22
 67
     1
  8
0
 10
261.51769911504419
 20
148.5
 30
0.0
 40
523.0353982300885
 41
297.0
 68
     1
 69
     1
1001
ACAD
1000
MVIEW
1002
{
1070
    16
1010
0.0
1020
0.0
1030
0.0
1010
0.0
1020
0.0
1030
1.0
1040
0.0
1040
297.0
1040
261.51769911504419
1040
148.5
1040
50.0
1040
0.0
1040
0.0
1070
     0
1070
   100
1070
     1
1070
     1
1070
     0
1070
     0
1070
     0
1070
     0
1040
0.0
1040
0.0
1040
0.0
1040
1.0
1040
1.0
1040
10.0
1040
10.0
1070
     0
1002
{
1002
}
1002
}
1001
GENIUS_GENODEF_13
1002
{
1000
HIER
1070
     0
1002
}
1002
{
1000
MANEDIT
1070
     0
1002
}
1002
{
1000
NOSEL
1070
     0
1002
}
1002
{
1000
BEHIND
1070
     0
1002
}
1002
{
1000
OTHER
1070
     0
1002
}
1002
{
1000
REACTOR
1002
}
1001
GENIUS_GENOBJ-N-SDF_13
1002
{
1000
OWNER
1000
GEN
1002
}
1001
GENIUS_GENSCREG_15
1000
PF
1040
1.0
1000
DF
1040
1.0
1000
MIN
1011
0.0
1021
0.0
1031
0.0
1021
0.0
1031
0.0
1000
MAX
1011
523.0353982300885
1021
0.0
1031
0.0
1021
297.0
1031
0.0
1000
FLAGS
1070
     4
  0
ENDSEC
  0
EOF
