  0
SECTION
  2
HEADER
  9
$ACADVER
  1
AC1009
  9
$INSBASE
 10
0.0
 20
0.0
 30
0.0
  9
$EXTMIN
 10
-67.847807446278296
 20
-22.0
 30
0.0
  9
$EXTMAX
 10
23.300646541999889
 20
39.000000000000043
 30
0.0
  9
$LIMMIN
 10
0.0
 20
0.0
  9
$LIMMAX
 10
297.0
 20
210.0
  9
$ORTHOMODE
 70
     1
  9
$REGENMODE
 70
     1
  9
$FILLMODE
 70
     1
  9
$QTEXTMODE
 70
     0
  9
$MIRRTEXT
 70
     1
  9
$DRAGMODE
 70
     2
  9
$LTSCALE
 40
10.0
  9
$OSMODE
 70
    47
  9
$ATTMODE
 70
     1
  9
$TEXTSIZE
 40
4.0
  9
$TRACEWID
 40
1.0
  9
$TEXTSTYLE
  7
YOKO
  9
$CLAYER
  8
240
  9
$CELTYPE
  6
BYLAYER
  9
$CECOLOR
 62
   256
  9
$DIMSCALE
 40
1.0
  9
$DIMASZ
 40
2.2299999999999991
  9
$DIMEXO
 40
0.5
  9
$DIMDLI
 40
7.0
  9
$DIMRND
 40
0.0
  9
$DIMDLE
 40
0.0
  9
$DIMEXE
 40
1.0
  9
$DIMTP
 40
0.0
  9
$DIMTM
 40
0.01
  9
$DIMTXT
 40
2.7999999999999989
  9
$DIMCEN
 40
0.0
  9
$DIMTSZ
 40
0.0
  9
$DIMTOL
 70
     0
  9
$DIMLIM
 70
     0
  9
$DIMTIH
 70
     0
  9
$DIMTOH
 70
     0
  9
$DIMSE1
 70
     0
  9
$DIMSE2
 70
     0
  9
$DIMTAD
 70
     3
  9
$DIMZIN
 70
     9
  9
$DIMBLK
  1
OPEN
  9
$DIMASO
 70
     1
  9
$DIMSHO
 70
     1
  9
$DIMPOST
  1

  9
$DIMAPOST
  1

  9
$DIMALT
 70
     0
  9
$DIMALTD
 70
     2
  9
$DIMALTF
 40
25.399999999999999
  9
$DIMLFAC
 40
1.0
  9
$DIMTOFL
 70
     1
  9
$DIMTVP
 40
0.0
  9
$DIMTIX
 70
     1
  9
$DIMSOXD
 70
     0
  9
$DIMSAH
 70
     0
  9
$DIMBLK1
  1

  9
$DIMBLK2
  1

  9
$DIMSTYLE
  2
BIGT
  9
$DIMCLRD
 70
   256
  9
$DIMCLRE
 70
   256
  9
$DIMCLRT
 70
    40
  9
$DIMTFAC
 40
1.0
  9
$DIMGAP
 40
1.0
  9
$LUNITS
 70
     2
  9
$LUPREC
 70
     6
  9
$SKETCHINC
 40
1.0
  9
$FILLETRAD
 40
0.0
  9
$AUNITS
 70
     0
  9
$AUPREC
 70
     6
  9
$MENU
  1
.
  9
$ELEVATION
 40
0.0
  9
$PELEVATION
 40
0.0
  9
$THICKNESS
 40
0.0
  9
$LIMCHECK
 70
     0
  9
$BLIPMODE
 70
     0
  9
$CHAMFERA
 40
0.2
  9
$CHAMFERB
 40
0.2
  9
$SKPOLY
 70
     0
  9
$TDCREATE
 40
2460249.5308977431
  9
$TDUPDATE
 40
2460249.5388976042
  9
$TDINDWG
 40
0.0076574769
  9
$TDUSRTIMER
 40
0.0076574074
  9
$USRTIMER
 70
     1
  9
$ANGBASE
 50
0.0
  9
$ANGDIR
 70
     0
  9
$PDMODE
 70
     1
  9
$PDSIZE
 40
0.0
  9
$PLINEWID
 40
0.0
  9
$COORDS
 70
     1
  9
$SPLFRAME
 70
     0
  9
$SPLINETYPE
 70
     6
  9
$SPLINESEGS
 70
     4
  9
$ATTDIA
 70
     1
  9
$ATTREQ
 70
     1
  9
$HANDLING
 70
     1
  9
$HANDSEED
  5
4501
  9
$SURFTAB1
 70
     6
  9
$SURFTAB2
 70
     6
  9
$SURFTYPE
 70
     6
  9
$SURFU
 70
     6
  9
$SURFV
 70
     6
  9
$UCSNAME
  2

  9
$UCSORG
 10
0.0
 20
0.0
 30
0.0
  9
$UCSXDIR
 10
1.0
 20
0.0
 30
0.0
  9
$UCSYDIR
 10
0.0
 20
1.0
 30
0.0
  9
$PUCSNAME
  2

  9
$PUCSORG
 10
0.0
 20
0.0
 30
0.0
  9
$PUCSXDIR
 10
1.0
 20
0.0
 30
0.0
  9
$PUCSYDIR
 10
0.0
 20
1.0
 30
0.0
  9
$USERI1
 70
     1
  9
$USERI2
 70
     0
  9
$USERI3
 70
     0
  9
$USERI4
 70
     0
  9
$USERI5
 70
     0
  9
$USERR1
 40
0.0
  9
$USERR2
 40
0.0
  9
$USERR3
 40
0.0
  9
$USERR4
 40
0.0
  9
$USERR5
 40
0.0
  9
$WORLDVIEW
 70
     1
  9
$SHADEDGE
 70
     3
  9
$SHADEDIF
 70
    70
  9
$TILEMODE
 70
     1
  9
$MAXACTVP
 70
    16
  9
$PLIMCHECK
 70
     0
  9
$PEXTMIN
 10
1.0000000000000000E+020
 20
1.0000000000000000E+020
 30
1.0000000000000000E+020
  9
$PEXTMAX
 10
-1.0000000000000000E+020
 20
-1.0000000000000000E+020
 30
-1.0000000000000000E+020
  9
$PLIMMIN
 10
0.0
 20
0.0
  9
$PLIMMAX
 10
420.0
 20
297.0
  9
$UNITMODE
 70
     0
  9
$VISRETAIN
 70
     1
  9
$PLINEGEN
 70
     0
  9
$PSLTSCALE
 70
     1
  0
ENDSEC
  0
SECTION
  2
TABLES
  0
TABLE
  2
VPORT
 70
     1
  0
VPORT
  2
*ACTIVE
 70
     0
 10
0.0
 20
0.0
 11
1.0
 21
1.0
 12
9.2746254527555152
 22
6.562832465487709
 13
0.0
 23
0.0
 14
7.0
 24
7.0
 15
7.0
 25
7.0
 16
0.0
 26
0.0
 36
1.0
 17
0.0
 27
0.0
 37
0.0
 40
95.519709970879916
 41
2.1896551724137931
 42
50.0
 43
0.0
 44
0.0
 50
0.0
 51
0.0
 71
     0
 72
  2000
 73
     1
 74
     0
 75
     1
 76
     1
 77
     0
 78
     0
  0
ENDTAB
  0
TABLE
  2
LTYPE
 70
    18
  0
LTYPE
  2
CONTINUOUS
 70
     0
  3
Solid line
 72
    65
 73
     0
 40
0.0
  0
LTYPE
  2
CENTER2
 70
     0
  3
___ _ ___ _ ___ _ ___ _ ___ _ ___ _ ___ _ ___ _
 72
    65
 73
     4
 40
1.125
 49
0.75
 49
-0.125
 49
0.125
 49
-0.125
  0
LTYPE
  2
HIDDEN2
 70
     0
  3
_ _ _ _ _ _ _ _ _ _ _ _ _ _ _ _ _ _ _ _ _ _ _ _
 72
    65
 73
     2
 40
0.1875
 49
0.125
 49
-0.0625
  0
LTYPE
  2
PHANTOM2
 70
     0
  3
___ _ _ ___ _ _ ___ _ _ ___ _ _ ___ _ _ ___ _ _
 72
    65
 73
     6
 40
1.25
 49
0.625
 49
-0.125
 49
0.125
 49
-0.125
 49
0.125
 49
-0.125
  0
LTYPE
  2
AM_ISO02W050
 70
     0
  3
__ __ __ __ __ __ __ __ __ __ __ __ __ __ __
 72
    65
 73
     2
 40
7.5
 49
6.0
 49
-1.5
  0
LTYPE
  2
AMCONSTR
 70
     0
  3
_______________________
 72
    65
 73
     2
 40
9999.0
 49
9999.0
 49
0.0
  0
LTYPE
  2
ACISOWELD
 70
     0
  3
_ _ _ _ _
 72
    65
 73
     2
 40
2.0
 49
2.0
 49
-1.0
  0
LTYPE
  2
ACISOTGB
 70
     0
  3
__ . . __ . .
 72
    65
 73
     6
 40
9.0
 49
4.0
 49
-1.0
 49
1.0
 49
-1.0
 49
1.0
 49
-1.0
  0
LTYPE
  2
ACISOTGL
 70
     0
  3
_ _ _ _ _
 72
    65
 73
     2
 40
3.0
 49
2.0
 49
-1.0
  0
LTYPE
  2
ACJISTGB
 70
     0
  3
__ . . __ . .
 72
    65
 73
     6
 40
9.0
 49
4.0
 49
-1.0
 49
1.0
 49
-1.0
 49
1.0
 49
-1.0
  0
LTYPE
  2
ACJISTGL
 70
     0
  3
_ _ _ _ _
 72
    65
 73
     2
 40
3.0
 49
2.0
 49
-1.0
  0
ENDTAB
  0
TABLE
  2
LAYER
 70
    15
  0
LAYER
  2
0
 70
     0
 62
     7
  6
CONTINUOUS
  0
LAYER
  2
DEFPOINTS
 70
     0
 62
     7
  6
CONTINUOUS
  0
LAYER
  2
245
 70
     0
 62
     2
  6
CENTER2
  0
LAYER
  2
240
 70
     0
 62
     4
  6
CONTINUOUS
  0
LAYER
  2
241
 70
     0
 62
   211
  6
CONTINUOUS
  0
LAYER
  2
242
 70
     0
 62
     3
  6
CONTINUOUS
  0
LAYER
  2
243
 70
     0
 62
   211
  6
HIDDEN2
  0
LAYER
  2
244
 70
     0
 62
     3
  6
HIDDEN2
  0
LAYER
  2
250
 70
     0
 62
     3
  6
CONTINUOUS
  0
ENDTAB
  0
TABLE
  2
STYLE
 70
     8
  0
STYLE
  2
STANDARD
 70
     0
 40
0.0
 41
1.0
 50
0.0
 71
     0
 42
3.0
  3
romans.shx
  4
extfont.shx
  0
STYLE
  2
ACISOTS
 70
     0
 40
1.0
 41
1.0
 50
0.0
 71
     0
 42
3.0
  3
amgdt.shx
  4
extfont.shx
  0
STYLE
  2
ACISOGDT
 70
     0
 40
0.0
 41
1.0
 50
0.0
 71
     0
 42
3.0
  3
amgdt.shx
  4
extfont.shx
  0
STYLE
  2
ACJISTS
 70
     0
 40
1.0
 41
1.0
 50
0.0
 71
     0
 42
3.0
  3
amgdt.shx
  4
extfont.shx
  0
STYLE
  2
ACJISGDT
 70
     0
 40
0.0
 41
1.0
 50
0.0
 71
     0
 42
3.0
  3
amgdt.shx
  4
extfont.shx
  0
STYLE
  2
YOKO
 70
     0
 40
0.0
 41
1.0
 50
0.0
 71
     0
 42
4.0
  3
romans.shx
  4
extfont.shx
  0
ENDTAB
  0
TABLE
  2
VIEW
 70
     0
  0
ENDTAB
  0
TABLE
  2
UCS
 70
     0
  0
ENDTAB
  0
TABLE
  2
APPID
 70
    41
  0
APPID
  2
ACAD
 70
     0
  0
APPID
  2
GLOBAL
 70
     0
  0
APPID
  2
DETAIL
 70
     0
  0
APPID
  2
GRPNAME
 70
     0
  0
APPID
  2
GPARA
 70
     0
  0
APPID
  2
MCAD_NO_VIS
 70
     0
  0
APPID
  2
ACAD_TEMP_GRAPHIC
 70
     0
  0
APPID
  2
ACATTRIBSERVICES
 70
     0
  0
APPID
  2
GENIUS_GENSCREG_15
 70
     0
  0
APPID
  2
GENIUS_GENODEF_13
 70
     0
  0
APPID
  2
GENIUS_GENOBJ-N-SDF_13
 70
     0
  0
APPID
  2
GENIUS_GENREC_14
 70
     0
  0
APPID
  2
GENIUS_GENOBJ-N-REC_13
 70
     0
  0
APPID
  2
GENIUS_GENDIMSH_14
 70
     0
  0
APPID
  2
GENIUS_GENOBJ-N-DIM_13
 70
     0
  0
APPID
  2
GENIUS_GENDIM_13
 70
     0
  0
APPID
  2
GENIUS_GENDTOL_13
 70
     0
  0
APPID
  2
GENIUS_GENOLIS_13
 70
     0
  0
APPID
  2
GENIUS_GENOENT_13
 70
     0
  0
APPID
  2
GENIUS_GENOBJ-F-FEM_13
 70
     0
  0
APPID
  2
GENIUS_GENOREF_13
 70
     0
  0
APPID
  2
GENIUS_GEFFEM_13
 70
     0
  0
APPID
  2
GENIUS_GEFFEMP_13
 70
     0
  0
APPID
  2
AD_DRAW
 70
     0
  0
APPID
  2
DESIGNERASSEMBLIES
 70
     0
  0
APPID
  2
ACADM_DIM_EDIT
 70
     0
  0
APPID
  2
AMDT_DM_ADJ
 70
     0
  0
APPID
  2
ITEMNAME
 70
     0
  0
APPID
  2
GENIUS_GENOBJ-N-FIL_13
 70
     0
  0
APPID
  2
GENIUS_GENFIL_13
 70
     0
  0
APPID
  2
GENIUS_GENOBJ-N-CHA_13
 70
     0
  0
APPID
  2
ACAD_NAV_VCDISPLAY
 70
     0
  0
APPID
  2
LAYER_SCALE
 70
     0
  0
APPID
  2
ACAD_PSEXT
 70
     0
  0
APPID
  2
ACAD_DSTYLE_DIMJAG
 70
     0
  0
APPID
  2
ACAD_DSTYLE_DIMBREAK
 70
     0
  0
APPID
  2
PLOTTRANSPARENCY
 70
     0
  0
APPID
  2
ACAD_EXEMPT_FROM_CAD_STANDARDS
 70
     0
  0
APPID
  2
ACAECLAYERSTANDARD
 70
     0
  0
APPID
  2
ACAD_DSTYLE_DIMINSPECT
 70
     0
  0
APPID
  2
ACAD_MLEADERVER
 70
     0
  0
ENDTAB
  0
TABLE
  2
DIMSTYLE
 70
    26
  0
DIMSTYLE
  2
BIGT
 70
     0
  3

  4

  5
OPEN
  6

  7

 40
1.0
 41
2.2299999999999991
 42
0.5
 43
7.0
 44
1.0
 45
0.0
 46
0.0
 47
0.0
 48
0.01
140
2.7999999999999989
141
0.0
142
0.0
143
25.399999999999999
144
1.0
145
0.0
146
1.0
147
1.0
 71
     0
 72
     0
 73
     0
 74
     0
 75
     0
 76
     0
 77
     3
 78
     9
170
     0
171
     2
172
     1
173
     0
174
     1
175
     0
176
   256
177
   256
178
    40
  0
DIMSTYLE
  2
AM_ISO
 70
     0
  3

  4
"
  5

  6

  7

 40
1.0
 41
2.5
 42
1.0
 43
10.0
 44
1.0
 45
0.0
 46
0.0
 47
0.1
 48
0.1
140
3.5
141
0.0
142
0.0
143
0.0393701
144
1.0
145
0.0
146
0.71
147
1.5
 71
     0
 72
     0
 73
     0
 74
     0
 75
     0
 76
     0
 77
     1
 78
     8
170
     0
171
     2
172
     1
173
     0
174
     0
175
     0
176
   256
177
   256
178
     2
  0
DIMSTYLE
  2
AM_ISO$3
 70
     0
  3

  4
"
  5

  6

  7

 40
1.0
 41
2.5
 42
1.0
 43
10.0
 44
1.0
 45
0.0
 46
0.0
 47
0.1
 48
0.1
140
3.5
141
0.0
142
0.0
143
0.0393701
144
1.0
145
0.0
146
0.71
147
1.5
 71
     0
 72
     0
 73
     0
 74
     1
 75
     0
 76
     0
 77
     1
 78
     8
170
     0
171
     2
172
     0
173
     0
174
     0
175
     0
176
   256
177
   256
178
     2
  0
DIMSTYLE
  2
AM_ISO$4
 70
     0
  3

  4
"
  5

  6

  7

 40
1.0
 41
2.5
 42
1.0
 43
10.0
 44
1.0
 45
0.0
 46
0.0
 47
0.1
 48
0.1
140
3.5
141
0.0
142
0.0
143
0.0393701
144
1.0
145
0.0
146
0.71
147
1.5
 71
     0
 72
     0
 73
     0
 74
     1
 75
     0
 76
     0
 77
     1
 78
     8
170
     0
171
     2
172
     0
173
     0
174
     0
175
     0
176
   256
177
   256
178
     2
  0
DIMSTYLE
  2
AM_ISO$6
 70
     0
  3

  4
"
  5

  6

  7

 40
1.0
 41
2.5
 42
1.0
 43
10.0
 44
1.0
 45
0.0
 46
0.0
 47
0.1
 48
0.1
140
3.5
141
0.0
142
0.0
143
0.0393701
144
1.0
145
0.0
146
0.71
147
1.5
 71
     0
 72
     0
 73
     0
 74
     0
 75
     0
 76
     0
 77
     0
 78
     8
170
     0
171
     2
172
     1
173
     0
174
     0
175
     0
176
   256
177
   256
178
     2
  0
DIMSTYLE
  2
AM_ISO$7
 70
     0
  3

  4
"
  5

  6

  7

 40
1.0
 41
2.5
 42
1.0
 43
10.0
 44
1.0
 45
0.0
 46
0.0
 47
0.1
 48
0.1
140
5.0
141
0.0
142
0.0
143
0.0393701
144
1.0
145
0.0
146
0.71
147
1.5
 71
     0
 72
     0
 73
     0
 74
     0
 75
     0
 76
     0
 77
     1
 78
     8
170
     0
171
     2
172
     1
173
     0
174
     0
175
     0
176
   256
177
   256
178
     2
  0
DIMSTYLE
  2
AM_ISO$SF
 70
     0
  3

  4
"
  5

  6

  7

 40
1.0
 41
2.5
 42
1.0
 43
10.0
 44
1.0
 45
0.0
 46
0.0
 47
0.1
 48
0.1
140
3.5
141
0.0
142
0.0
143
0.0393701
144
1.0
145
0.0
146
0.71
147
1.5
 71
     0
 72
     0
 73
     0
 74
     0
 75
     1
 76
     1
 77
     1
 78
     8
170
     0
171
     2
172
     1
173
     0
174
     0
175
     0
176
   256
177
   256
178
     2
  0
DIMSTYLE
  2
AM_ISO$SH
 70
     0
  3

  4
"
  5

  6
GENAXEH
  7

 40
1.0
 41
2.5
 42
1.0
 43
10.0
 44
1.0
 45
0.0
 46
0.0
 47
0.1
 48
0.1
140
3.5
141
0.0
142
0.0
143
0.0393701
144
2.0
145
0.0
146
0.71
147
1.5
 71
     0
 72
     0
 73
     0
 74
     0
 75
     1
 76
     1
 77
     1
 78
     8
170
     0
171
     2
172
     1
173
     1
174
     0
175
     0
176
   256
177
   256
178
     2
  0
DIMSTYLE
  2
BIGT$2
 70
     0
  3

  4

  5
OPEN
  6

  7

 40
1.0
 41
2.2299999999999991
 42
0.5
 43
7.0
 44
1.0
 45
0.0
 46
0.0
 47
0.0
 48
0.01
140
2.7999999999999989
141
0.0
142
0.0
143
25.399999999999999
144
1.0
145
0.0
146
1.0
147
1.0
 71
     0
 72
     0
 73
     0
 74
     0
 75
     0
 76
     0
 77
     3
 78
     9
170
     0
171
     2
172
     1
173
     0
174
     0
175
     0
176
   256
177
   256
178
    40
  0
DIMSTYLE
  2
BIGT$3
 70
     0
  3

  4

  5
OPEN
  6

  7

 40
1.0
 41
2.2299999999999991
 42
0.5
 43
2.5
 44
1.0
 45
0.0
 46
0.0
 47
0.0
 48
0.01
140
2.7999999999999989
141
0.0
142
0.0
143
25.399999999999999
144
1.0
145
0.0
146
1.0
147
1.0
 71
     0
 72
     0
 73
     0
 74
     0
 75
     0
 76
     0
 77
     3
 78
     9
170
     0
171
     2
172
     1
173
     0
174
     0
175
     0
176
   256
177
   256
178
    40
  0
DIMSTYLE
  2
BIGT$7
 70
     0
  3

  4

  5
OPEN
  6

  7

 40
0.0
 41
2.2299999999999991
 42
0.5
 43
7.0
 44
1.0
 45
0.0
 46
0.0
 47
0.0
 48
0.01
140
2.7999999999999989
141
0.0
142
0.0
143
25.399999999999999
144
1.0
145
0.0
146
1.0
147
1.0
 71
     0
 72
     0
 73
     0
 74
     0
 75
     0
 76
     0
 77
     3
 78
     9
170
     0
171
     2
172
     0
173
     0
174
     0
175
     0
176
   256
177
   256
178
    40
  0
DIMSTYLE
  2
BIGT$6
 70
     0
  3

  4

  5
OPEN
  6

  7

 40
1.0
 41
2.2299999999999991
 42
0.5
 43
2.5
 44
1.0
 45
0.0
 46
0.0
 47
0.0
 48
0.01
140
2.7999999999999989
141
0.0
142
0.0
143
25.399999999999999
144
1.0
145
0.0
146
1.0
147
1.0
 71
     0
 72
     0
 73
     0
 74
     0
 75
     0
 76
     0
 77
     3
 78
     9
170
     0
171
     2
172
     1
173
     0
174
     0
175
     0
176
   256
177
   256
178
    40
  0
DIMSTYLE
  2
BIGT$0
 70
     0
  3

  4

  5
OPEN
  6

  7

 40
1.0
 41
2.2299999999999991
 42
0.5
 43
7.0
 44
1.0
 45
0.0
 46
0.0
 47
0.0
 48
0.01
140
2.7999999999999989
141
0.0
142
0.0
143
25.399999999999999
144
1.0
145
0.0
146
1.0
147
1.0
 71
     0
 72
     0
 73
     0
 74
     0
 75
     0
 76
     0
 77
     3
 78
     9
170
     0
171
     2
172
     1
173
     0
174
     1
175
     0
176
   256
177
   256
178
    40
  0
DIMSTYLE
  2
BIGT$4
 70
     0
  3

  4

  5
OPEN
  6

  7

 40
1.0
 41
2.2299999999999991
 42
0.5
 43
2.5
 44
1.0
 45
0.0
 46
0.0
 47
0.0
 48
0.01
140
2.7999999999999989
141
0.0
142
0.0
143
25.399999999999999
144
1.0
145
0.0
146
1.0
147
1.0
 71
     0
 72
     0
 73
     0
 74
     0
 75
     0
 76
     0
 77
     3
 78
     9
170
     0
171
     2
172
     1
173
     0
174
     0
175
     0
176
   256
177
   256
178
    40
  0
DIMSTYLE
  2
BIGT$SH
 70
     0
  3

  4

  5
OPEN
  6

  7

 40
1.0
 41
2.2299999999999991
 42
0.5
 43
7.0
 44
1.0
 45
0.0
 46
0.0
 47
0.0
 48
0.0
140
2.7999999999999989
141
0.0
142
0.0
143
25.399999999999999
144
1.0
145
0.0
146
1.0
147
1.0
 71
     0
 72
     0
 73
     0
 74
     0
 75
     0
 76
     0
 77
     3
 78
     9
170
     0
171
     2
172
     1
173
     0
174
     0
175
     0
176
   256
177
   256
178
    40
  0
DIMSTYLE
  2
BIGT$SF
 70
     0
  3

  4

  5
OPEN
  6

  7

 40
1.0
 41
2.2299999999999991
 42
0.5
 43
7.0
 44
1.0
 45
0.0
 46
0.0
 47
0.0
 48
0.0
140
2.7999999999999989
141
0.0
142
0.0
143
25.399999999999999
144
1.0
145
0.0
146
1.0
147
1.0
 71
     0
 72
     0
 73
     0
 74
     0
 75
     0
 76
     0
 77
     3
 78
     9
170
     0
171
     2
172
     1
173
     0
174
     0
175
     0
176
   256
177
   256
178
    40
  0
DIMSTYLE
  2
TECHNICAL_OSAKA
 70
     0
  3

  4
"
  5
OPEN30
  6

  7

 40
1.0
 41
2.5
 42
1.0
 43
10.0
 44
1.0
 45
0.0
 46
0.0
 47
0.1
 48
0.1
140
2.7999999999999989
141
0.0
142
0.0
143
0.0393701
144
1.0
145
0.0
146
0.71
147
1.5
 71
     0
 72
     0
 73
     0
 74
     0
 75
     0
 76
     0
 77
     3
 78
     8
170
     0
171
     2
172
     1
173
     0
174
     0
175
     0
176
   256
177
   256
178
    40
  0
DIMSTYLE
  2
TECHNICAL_OSAKA$3
 70
     0
  3

  4
"
  5
OPEN30
  6

  7

 40
1.0
 41
2.5
 42
1.0
 43
10.0
 44
1.0
 45
0.0
 46
0.0
 47
0.1
 48
0.1
140
2.7999999999999989
141
0.0
142
0.0
143
0.0393701
144
1.0
145
0.0
146
0.71
147
1.5
 71
     0
 72
     0
 73
     0
 74
     1
 75
     0
 76
     0
 77
     3
 78
     8
170
     0
171
     2
172
     0
173
     0
174
     0
175
     0
176
   256
177
   256
178
    40
  0
DIMSTYLE
  2
TECHNICAL_OSAKA$4
 70
     0
  3

  4
"
  5
OPEN30
  6

  7

 40
1.0
 41
2.5
 42
1.0
 43
10.0
 44
1.0
 45
0.0
 46
0.0
 47
0.1
 48
0.1
140
2.7999999999999989
141
0.0
142
0.0
143
0.0393701
144
1.0
145
0.0
146
0.71
147
1.5
 71
     0
 72
     0
 73
     0
 74
     1
 75
     0
 76
     0
 77
     3
 78
     8
170
     0
171
     2
172
     0
173
     0
174
     0
175
     0
176
   256
177
   256
178
    40
  0
DIMSTYLE
  2
TECHNICAL_OSAKA$6
 70
     0
  3

  4
"
  5
OPEN30
  6

  7

 40
1.0
 41
2.5
 42
1.0
 43
10.0
 44
1.0
 45
0.0
 46
0.0
 47
0.1
 48
0.1
140
2.7999999999999989
141
0.0
142
0.0
143
0.0393701
144
1.0
145
0.0
146
0.71
147
1.5
 71
     0
 72
     0
 73
     0
 74
     0
 75
     0
 76
     0
 77
     0
 78
     8
170
     0
171
     2
172
     1
173
     0
174
     0
175
     0
176
   256
177
   256
178
    40
  0
DIMSTYLE
  2
TECHNICAL_OSAKA$7
 70
     0
  3

  4
"
  5
OPEN30
  6

  7

 40
1.0
 41
2.5
 42
1.0
 43
10.0
 44
1.0
 45
0.0
 46
0.0
 47
0.1
 48
0.1
140
2.7999999999999989
141
0.0
142
0.0
143
0.0393701
144
1.0
145
0.0
146
0.71
147
1.5
 71
     0
 72
     0
 73
     0
 74
     0
 75
     0
 76
     0
 77
     3
 78
     8
170
     0
171
     2
172
     1
173
     0
174
     0
175
     0
176
   256
177
   256
178
    40
  0
DIMSTYLE
  2
TECHNICAL_OSAKA$SF
 70
     0
  3

  4
"
  5
OPEN30
  6
OPEN30
  7
OPEN30
 40
1.0
 41
2.5
 42
1.0
 43
10.0
 44
1.0
 45
0.0
 46
0.0
 47
0.1
 48
0.1
140
3.5
141
0.0
142
0.0
143
0.0393701
144
1.0
145
0.0
146
0.71
147
1.5
 71
     0
 72
     0
 73
     0
 74
     0
 75
     1
 76
     1
 77
     3
 78
     8
170
     0
171
     2
172
     1
173
     0
174
     0
175
     0
176
   256
177
   256
178
    40
  0
DIMSTYLE
  2
TECHNICAL_OSAKA$SH
 70
     0
  3

  4
"
  5
OPEN30
  6
GENAXEH
  7
OPEN30
 40
1.0
 41
2.5
 42
1.0
 43
10.0
 44
1.0
 45
0.0
 46
0.0
 47
0.1
 48
0.1
140
3.5
141
0.0
142
0.0
143
0.0393701
144
2.0
145
0.0
146
0.71
147
1.5
 71
     0
 72
     0
 73
     0
 74
     0
 75
     1
 76
     1
 77
     3
 78
     8
170
     0
171
     2
172
     1
173
     1
174
     0
175
     0
176
   256
177
   256
178
    40
  0
ENDTAB
  0
ENDSEC
  0
SECTION
  2
BLOCKS
  0
BLOCK
  8
0
  2
$MODEL_SPACE
 70
     0
 10
0.0
 20
0.0
 30
0.0
  3
$MODEL_SPACE
  1

  0
ENDBLK
  5
1C
  8
0
  0
BLOCK
 67
     1
  8
0
  2
$PAPER_SPACE
 70
     0
 10
0.0
 20
0.0
 30
0.0
  3
$PAPER_SPACE
  1

  0
ENDBLK
  5
19
 67
     1
  8
0
  0
BLOCK
  8
0
  2
_OPEN
 70
     0
 10
0.0
 20
0.0
 30
0.0
  3
_OPEN
  1

  0
LINE
  5
43F4
  8
0
  6
BYBLOCK
 62
     0
 10
-1.0
 20
0.1666666666666666
 30
0.0
 11
0.0
 21
0.0
 31
0.0
  0
LINE
  5
43F5
  8
0
  6
BYBLOCK
 62
     0
 10
-1.0
 20
-0.1666666666666666
 30
0.0
 11
0.0
 21
0.0
 31
0.0
  0
LINE
  5
43F6
  8
0
  6
BYBLOCK
 62
     0
 10
0.0
 20
0.0
 30
0.0
 11
-1.0
 21
0.0
 31
0.0
  0
ENDBLK
  5
43F7
  8
0
  0
BLOCK
  8
0
  2
GENAXEH
 70
     0
 10
0.0
 20
0.0
 30
0.0
  3
GENAXEH
  1

  0
LINE
  5
442F
  8
0
 10
-1.0
 20
0.0
 30
0.0
 11
1.0
 21
0.0
 31
0.0
  0
ENDBLK
  5
4430
  8
0
  0
BLOCK
  8
0
  2
_OPEN30
 70
     0
 10
0.0
 20
0.0
 30
0.0
  3
_OPEN30
  1

  0
LINE
  5
446B
  8
0
  6
BYBLOCK
 62
     0
 10
-1.0
 20
0.26794919
 30
0.0
 11
0.0
 21
0.0
 31
0.0
  0
LINE
  5
446C
  8
0
  6
BYBLOCK
 62
     0
 10
0.0
 20
0.0
 30
0.0
 11
-1.0
 21
-0.26794919
 31
0.0
  0
LINE
  5
446D
  8
0
  6
BYBLOCK
 62
     0
 10
0.0
 20
0.0
 30
0.0
 11
-1.0
 21
0.0
 31
0.0
  0
ENDBLK
  5
446E
  8
0
  0
BLOCK
  8
0
  2
*U18
 70
     1
 10
0.0
 20
0.0
 30
0.0
  3
*U18
  1

  0
TEXT
  5
44FA
  8
240
 62
    40
 10
-26.566666666666642
 20
-20.0
 30
0.0
 40
2.7999999999999989
  1
43.8
  0
ENDBLK
  5
44FC
  8
0
  0
BLOCK
  8
0
  2
*U19
 70
     1
 10
0.0
 20
0.0
 30
0.0
  3
*U19
  1

  0
TEXT
  5
44FE
  8
240
 62
    40
 10
-62.546594205056017
 20
-13.0
 30
0.0
 40
2.7999999999999989
  1
8
  0
ENDBLK
  5
4500
  8
0
  0
ENDSEC
  0
SECTION
  2
ENTITIES
  0
LINE
  5
4222
  8
240
  6
CONTINUOUS
 10
-15.5
 20
8.0000000000000071
 30
0.0
 11
-40.799999999999841
 21
8.0000000000000071
 31
0.0
  0
LINE
  5
4223
  8
240
  6
CONTINUOUS
 10
-15.5
 20
-7.999999999999992
 30
0.0
 11
-40.799999999999933
 21
-7.999999999999992
 31
0.0
  0
LINE
  5
4224
  8
245
  6
CENTER2
 10
1.0
 20
0.0000000000000142
 30
0.0
 11
-44.799999999999947
 21
0.0
 31
0.0
  0
LINE
  5
4225
  8
240
  6
CONTINUOUS
 10
-15.5
 20
-10.999999999999989
 30
0.0
 11
-15.5
 21
-7.999999999999992
 31
0.0
  0
LINE
  5
4226
  8
240
  6
CONTINUOUS
 10
0.0
 20
-10.999999999999989
 30
0.0
 11
0.0
 21
11.0
 31
0.0
  0
LINE
  5
4229
  8
240
  6
CONTINUOUS
 10
-1.0
 20
-11.999999999999989
 30
0.0
 11
-14.5
 21
-11.999999999999989
 31
0.0
  0
LINE
  5
422A
  8
242
  6
CONTINUOUS
 10
-0.25
 20
-11.249999999999989
 30
0.0
 11
-15.25
 21
-11.249999999999989
 31
0.0
  0
LINE
  5
422B
  8
240
  6
CONTINUOUS
 10
-1.0
 20
-11.999999999999989
 30
0.0
 11
0.0
 21
-10.999999999999989
 31
0.0
  0
LINE
  5
422C
  8
240
  6
CONTINUOUS
 10
-15.5
 20
-10.999999999999989
 30
0.0
 11
-14.5
 21
-11.999999999999989
 31
0.0
  0
LINE
  5
422D
  8
240
  6
CONTINUOUS
 10
-1.0
 20
12.000000000000011
 30
0.0
 11
-14.5
 21
12.000000000000011
 31
0.0
  0
LINE
  5
422E
  8
242
  6
CONTINUOUS
 10
-0.25
 20
11.25
 30
0.0
 11
-15.25
 21
11.25
 31
0.0
  0
LINE
  5
422F
  8
240
  6
CONTINUOUS
 10
-1.0
 20
12.000000000000011
 30
0.0
 11
0.0
 21
11.0
 31
0.0
  0
LINE
  5
4230
  8
240
  6
CONTINUOUS
 10
-15.5
 20
8.0000000000000071
 30
0.0
 11
-15.5
 21
11.0
 31
0.0
  0
LINE
  5
4231
  8
240
  6
CONTINUOUS
 10
-15.5
 20
11.0
 30
0.0
 11
-14.5
 21
12.000000000000011
 31
0.0
  0
LINE
  5
4233
  8
241
  6
CONTINUOUS
 10
-40.799999999999947
 20
-7.9999999999999636
 30
0.0
 11
-40.799999999999947
 21
7.9999999999999662
 31
0.0
  0
LINE
  5
4234
  8
240
  6
CONTINUOUS
 10
-40.799999999999933
 20
-7.999999999999992
 30
0.0
 11
-43.799999999999947
 21
-7.1961524227065521
 31
0.0
  0
LINE
  5
4236
  8
240
  6
CONTINUOUS
 10
-43.799999999999947
 20
7.1961524227066027
 30
0.0
 11
-40.799999999999841
 21
8.0000000000000071
 31
0.0
  0
LINE
  5
4238
  8
240
  6
CONTINUOUS
 10
-43.799999999999947
 20
-7.1961524227065521
 30
0.0
 11
-43.799999999999947
 21
7.1961524227066027
 31
0.0
  0
LINE
  5
423E
  8
245
  6
CENTER2
 10
-61.213260871722703
 20
6.6345465745556034
 30
0.0
 11
-61.213260871722703
 21
-6.6345465745555883
 31
0.0
  0
LINE
  5
423F
  8
245
  6
CENTER2
 10
-67.847807446278296
 20
0.0000000000000071
 30
0.0
 11
-54.578714297167103
 21
0.0000000000000071
 31
0.0
  0
LINE
  5
4240
  8
241
  6
CONTINUOUS
 10
-65.213260871722696
 20
-2.309401076758526
 30
0.0
 11
-61.213260871722809
 21
-4.6188021535169881
 31
0.0
  0
LINE
  5
4241
  8
241
  6
CONTINUOUS
 10
-61.213260871722703
 20
4.6188021535170156
 30
0.0
 11
-65.213260871722696
 21
2.309401076758554
 31
0.0
  0
LINE
  5
4243
  8
241
  6
CONTINUOUS
 10
-65.213260871722696
 20
2.309401076758554
 30
0.0
 11
-65.213260871722696
 21
-2.309401076758526
 31
0.0
  0
LINE
  5
4244
  8
241
  6
CONTINUOUS
 10
-57.213260871722689
 20
-2.3094010767584972
 30
0.0
 11
-57.213260871722689
 21
2.3094010767585109
 31
0.0
  0
LINE
  5
4245
  8
241
  6
CONTINUOUS
 10
-61.213260871722809
 20
-4.6188021535169881
 30
0.0
 11
-57.213260871722689
 21
-2.3094010767584972
 31
0.0
  0
LINE
  5
4246
  8
241
  6
CONTINUOUS
 10
-57.213260871722689
 20
2.3094010767585109
 30
0.0
 11
-61.213260871722703
 21
4.6188021535170156
 31
0.0
  0
CIRCLE
  5
4249
  8
244
  6
HIDDEN2
 10
-0.4999906616557155
 20
9.4990336940301372
 30
0.0
 40
0.75
  0
LINE
  5
4258
  8
243
  6
HIDDEN2
 10
-2.5999999999999091
 20
4.6499999999999906
 30
0.0
 11
-35.5
 21
4.6499999999999906
 31
0.0
  0
LINE
  5
4259
  8
243
  6
HIDDEN2
 10
-35.5
 20
4.6188021535170032
 30
0.0
 11
-43.799999999999947
 21
4.6188021535169952
 31
0.0
  0
LINE
  5
425A
  8
243
  6
HIDDEN2
 10
-43.799999999999947
 20
2.3094010767585611
 30
0.0
 11
-35.518012085065102
 21
2.3094010767585611
 31
0.0
  0
LINE
  5
425F
  8
244
  6
HIDDEN2
 10
-1.75
 20
5.5000000000000711
 30
0.0
 11
-15.0
 21
5.5000000000000142
 31
0.0
  0
LINE
  5
4260
  8
243
  6
HIDDEN2
 10
-1.5
 20
5.7500000000000142
 30
0.0
 11
-2.5999999999999091
 21
4.6499999999999906
 31
0.0
  0
LINE
  5
4261
  8
243
  6
HIDDEN2
 10
0.0
 20
5.7500000000000142
 30
0.0
 11
-1.5
 21
5.7500000000000142
 31
0.0
  0
LINE
  5
4266
  8
244
  6
HIDDEN2
 10
-15.0
 20
5.5000000000000142
 30
0.0
 11
-16.472243186433388
 21
4.6499999999999906
 31
0.0
  0
LINE
  5
4273
  8
241
  6
CONTINUOUS
 10
-15.5
 20
-7.999999999999992
 30
0.0
 11
-15.5
 21
8.0000000000000071
 31
0.0
  0
CIRCLE
  5
4275
  8
244
  6
HIDDEN2
 10
-0.4999906616557084
 20
-9.4990336940301123
 30
0.0
 40
0.75
  0
LINE
  5
4276
  8
243
  6
HIDDEN2
 10
-2.5999999999999091
 20
-4.6499999999999648
 30
0.0
 11
-35.5
 21
-4.6499999999999861
 31
0.0
  0
LINE
  5
4277
  8
243
  6
HIDDEN2
 10
-35.5
 20
-4.618802153516997
 30
0.0
 11
-43.799999999999947
 21
-4.6188021535169952
 31
0.0
  0
LINE
  5
4278
  8
243
  6
HIDDEN2
 10
-43.799999999999947
 20
-2.3094010767585611
 30
0.0
 11
-35.518012085065102
 21
-2.3094010767585562
 31
0.0
  0
LINE
  5
4279
  8
243
  6
HIDDEN2
 10
-35.5
 20
4.6499999999999906
 30
0.0
 11
-35.5
 21
-4.6499999999999861
 31
0.0
  0
LINE
  5
427A
  8
244
  6
HIDDEN2
 10
-1.75
 20
-5.5000000000000444
 30
0.0
 11
-15.0
 21
-5.4999999999999947
 31
0.0
  0
LINE
  5
427B
  8
243
  6
HIDDEN2
 10
-1.499999999999992
 20
-5.7499999999999867
 30
0.0
 11
-2.5999999999999091
 21
-4.6499999999999648
 31
0.0
  0
LINE
  5
427C
  8
243
  6
HIDDEN2
 10
0.0000000000000071
 20
-5.7499999999999858
 30
0.0
 11
-1.499999999999992
 21
-5.7499999999999867
 31
0.0
  0
LINE
  5
427D
  8
243
  6
HIDDEN2
 10
-2.5999999999999091
 20
-4.6499999999999648
 30
0.0
 11
-2.5999999999995111
 21
4.6499999999999924
 31
0.0
  0
LINE
  5
427E
  8
243
  6
HIDDEN2
 10
-1.499999999999992
 20
-5.7499999999999867
 30
0.0
 11
-1.500000000000419
 21
5.7500000000000142
 31
0.0
  0
LINE
  5
427F
  8
244
  6
HIDDEN2
 10
-14.999999999999771
 20
-5.5000000000000524
 30
0.0
 11
-15.000000000000171
 21
5.5000000000000711
 31
0.0
  0
LINE
  5
4280
  8
244
  6
HIDDEN2
 10
-15.0
 20
-5.4999999999999947
 30
0.0
 11
-16.472243186433381
 21
-4.6499999999999728
 31
0.0
  0
TEXT
  5
42FA
  8
241
  6
CONTINUOUS
 10
-56.0
 20
35.0
 30
0.0
 40
4.0
  1
HSK100-CP-JA
  7
YOKO
  0
LINE
  5
42FB
  8
250
  6
CONTINUOUS
 10
23.300646541999889
 20
17.153795740728071
 30
0.0
 11
0.7673132086665646
 21
17.153795740728071
 31
0.0
  0
LINE
  5
42FC
  8
250
  6
CONTINUOUS
 10
0.7673132086665646
 20
17.153795740728071
 30
0.0
 11
-6.2317470489033919
 21
7.3170008230158681
 31
0.0
  0
LINE
  5
42FD
  8
250
  6
CONTINUOUS
 10
-6.2317470489033919
 20
7.3170008230158681
 30
0.0
 11
-7.5245765075559339
 21
5.5000000000000462
 31
0.0
  0
LINE
  5
42FE
  8
250
  6
CONTINUOUS
 10
-6.47095974430448
 20
7.4872050494426334
 30
0.0
 11
-7.5245765075559339
 21
5.5000000000000462
 31
0.0
  0
LINE
  5
42FF
  8
250
  6
CONTINUOUS
 10
-7.5245765075559339
 20
5.5000000000000462
 30
0.0
 11
-5.9925343535023039
 21
7.1467965965891018
 31
0.0
  0
LINE
  5
4301
  8
250
  6
CONTINUOUS
 10
-65.213260871722696
 20
-2.809401076758526
 30
0.0
 11
-65.213260871722696
 21
-15.0
 31
0.0
  0
LINE
  5
4302
  8
250
  6
CONTINUOUS
 10
-57.213260871722689
 20
-2.8094010767584972
 30
0.0
 11
-57.213260871722689
 21
-15.0
 31
0.0
  0
LINE
  5
4303
  8
250
  6
CONTINUOUS
 10
-62.983260871722699
 20
-14.0
 30
0.0
 11
-59.443260871722693
 21
-14.0
 31
0.0
  0
LINE
  5
4307
  8
250
  6
CONTINUOUS
 10
-43.799999999999947
 20
-7.6961524227065521
 30
0.0
 11
-43.799999999999947
 21
-22.0
 31
0.0
  0
LINE
  5
4308
  8
250
  6
CONTINUOUS
 10
0.0
 20
-11.499999999999989
 30
0.0
 11
-0.0000000000000007
 21
-22.0
 31
0.0
  0
LINE
  5
4309
  8
250
  6
CONTINUOUS
 10
-41.569999999999951
 20
-21.0
 30
0.0
 11
-2.23
 21
-21.0
 31
0.0
  0
TEXT
  5
430D
  8
250
  6
CONTINUOUS
 10
3.0339798753332321
 20
18.55379574072807
 30
0.0
 40
2.7999999999999989
  1
M11P1.75
  7
ACJISTS
  0
TEXT
  5
430E
  8
250
  6
CONTINUOUS
 10
-62.546594205056017
 20
-13.0
 30
0.0
 40
2.7999999999999989
  1
8
  0
LINE
  5
430F
  8
250
  6
CONTINUOUS
 10
-59.443260871722693
 20
-13.62833333333333
 30
0.0
 11
-57.213260871722689
 21
-14.0
 31
0.0
  0
LINE
  5
4310
  8
250
  6
CONTINUOUS
 10
-59.443260871722693
 20
-14.371666666666661
 30
0.0
 11
-57.213260871722689
 21
-14.0
 31
0.0
  0
LINE
  5
4311
  8
250
  6
CONTINUOUS
 10
-57.213260871722689
 20
-14.0
 30
0.0
 11
-59.443260871722693
 21
-14.0
 31
0.0
  0
LINE
  5
4312
  8
250
  6
CONTINUOUS
 10
-62.983260871722699
 20
-14.371666666666661
 30
0.0
 11
-65.213260871722696
 21
-14.0
 31
0.0
  0
LINE
  5
4313
  8
250
  6
CONTINUOUS
 10
-62.983260871722699
 20
-13.62833333333333
 30
0.0
 11
-65.213260871722696
 21
-14.0
 31
0.0
  0
LINE
  5
4314
  8
250
  6
CONTINUOUS
 10
-65.213260871722696
 20
-14.0
 30
0.0
 11
-62.983260871722699
 21
-14.0
 31
0.0
  0
TEXT
  5
4315
  8
250
  6
CONTINUOUS
 10
-26.566666666666642
 20
-20.0
 30
0.0
 40
2.7999999999999989
  1
43.8
  0
LINE
  5
4316
  8
250
  6
CONTINUOUS
 10
-2.23
 20
-20.62833333333333
 30
0.0
 11
-0.0000000000000006
 21
-21.0
 31
0.0
  0
LINE
  5
4317
  8
250
  6
CONTINUOUS
 10
-2.23
 20
-21.37166666666667
 30
0.0
 11
-0.0000000000000006
 21
-21.0
 31
0.0
  0
LINE
  5
4318
  8
250
  6
CONTINUOUS
 10
-0.0000000000000006
 20
-21.0
 30
0.0
 11
-2.23
 21
-21.0
 31
0.0
  0
LINE
  5
4319
  8
250
  6
CONTINUOUS
 10
-41.569999999999951
 20
-21.37166666666667
 30
0.0
 11
-43.799999999999947
 21
-21.0
 31
0.0
  0
LINE
  5
431A
  8
250
  6
CONTINUOUS
 10
-41.569999999999951
 20
-20.62833333333333
 30
0.0
 11
-43.799999999999947
 21
-21.0
 31
0.0
  0
LINE
  5
431B
  8
250
  6
CONTINUOUS
 10
-43.799999999999947
 20
-21.0
 30
0.0
 11
-41.569999999999951
 21
-21.0
 31
0.0
  0
VIEWPORT
  5
22
 67
     1
  8
0
 10
261.51769911504419
 20
148.5
 30
0.0
 40
523.0353982300885
 41
297.0
 68
     1
 69
     1
1001
ACAD
1000
MVIEW
1002
{
1070
    16
1010
0.0
1020
0.0
1030
0.0
1010
0.0
1020
0.0
1030
1.0
1040
0.0
1040
297.0
1040
261.51769911504419
1040
148.5
1040
50.0
1040
0.0
1040
0.0
1070
     0
1070
   100
1070
     1
1070
     1
1070
     0
1070
     0
1070
     0
1070
     0
1040
0.0
1040
0.0
1040
0.0
1040
1.0
1040
1.0
1040
10.0
1040
10.0
1070
     0
1002
{
1002
}
1002
}
1001
GENIUS_GENODEF_13
1002
{
1000
HIER
1070
     0
1002
}
1002
{
1000
MANEDIT
1070
     0
1002
}
1002
{
1000
NOSEL
1070
     0
1002
}
1002
{
1000
BEHIND
1070
     0
1002
}
1002
{
1000
OTHER
1070
     0
1002
}
1002
{
1000
REACTOR
1002
}
1001
GENIUS_GENOBJ-N-SDF_13
1002
{
1000
OWNER
1000
GEN
1002
}
1001
GENIUS_GENSCREG_15
1000
PF
1040
1.0
1000
DF
1040
1.0
1000
MIN
1011
0.0
1021
0.0
1031
0.0
1021
0.0
1031
0.0
1000
MAX
1011
523.0353982300885
1021
0.0
1031
0.0
1021
297.0
1031
0.0
1000
FLAGS
1070
     4
  0
ENDSEC
  0
EOF
