  0
SECTION
  2
HEADER
  9
$ACADVER
  1
AC1009
  9
$INSBASE
 10
0.0
 20
0.0
 30
0.0
  9
$EXTMIN
 10
-42.716579289999977
 20
-34.945010460000013
 30
0.0
  9
$EXTMAX
 10
273.0
 20
61.0
 30
0.0
  9
$LIMMIN
 10
0.0
 20
0.0
  9
$LIMMAX
 10
297.0
 20
210.0
  9
$ORTHOMODE
 70
     1
  9
$REGENMODE
 70
     1
  9
$FILLMODE
 70
     1
  9
$QTEXTMODE
 70
     0
  9
$MIRRTEXT
 70
     1
  9
$DRAGMODE
 70
     2
  9
$LTSCALE
 40
10.0
  9
$OSMODE
 70
    39
  9
$ATTMODE
 70
     1
  9
$TEXTSIZE
 40
3.0
  9
$TRACEWID
 40
1.0
  9
$TEXTSTYLE
  7
YOKO
  9
$CLAYER
  8
240
  9
$CELTYPE
  6
BYLAYER
  9
$CECOLOR
 62
   256
  9
$DIMSCALE
 40
1.0
  9
$DIMASZ
 40
2.2299999999999991
  9
$DIMEXO
 40
0.5
  9
$DIMDLI
 40
7.0
  9
$DIMRND
 40
0.0
  9
$DIMDLE
 40
0.0
  9
$DIMEXE
 40
1.0
  9
$DIMTP
 40
0.0
  9
$DIMTM
 40
0.01
  9
$DIMTXT
 40
2.799999999999998
  9
$DIMCEN
 40
0.0
  9
$DIMTSZ
 40
0.0
  9
$DIMTOL
 70
     0
  9
$DIMLIM
 70
     0
  9
$DIMTIH
 70
     0
  9
$DIMTOH
 70
     0
  9
$DIMSE1
 70
     0
  9
$DIMSE2
 70
     0
  9
$DIMTAD
 70
     3
  9
$DIMZIN
 70
     9
  9
$DIMBLK
  1
OPEN
  9
$DIMASO
 70
     1
  9
$DIMSHO
 70
     1
  9
$DIMPOST
  1

  9
$DIMAPOST
  1

  9
$DIMALT
 70
     0
  9
$DIMALTD
 70
     2
  9
$DIMALTF
 40
25.399999999999999
  9
$DIMLFAC
 40
1.0
  9
$DIMTOFL
 70
     1
  9
$DIMTVP
 40
0.0
  9
$DIMTIX
 70
     1
  9
$DIMSOXD
 70
     0
  9
$DIMSAH
 70
     0
  9
$DIMBLK1
  1

  9
$DIMBLK2
  1

  9
$DIMSTYLE
  2
BIGT
  9
$DIMCLRD
 70
   256
  9
$DIMCLRE
 70
   256
  9
$DIMCLRT
 70
    40
  9
$DIMTFAC
 40
1.0
  9
$DIMGAP
 40
1.0
  9
$LUNITS
 70
     2
  9
$LUPREC
 70
     6
  9
$SKETCHINC
 40
1.0
  9
$FILLETRAD
 40
0.0
  9
$AUNITS
 70
     0
  9
$AUPREC
 70
     6
  9
$MENU
  1
.
  9
$ELEVATION
 40
0.0
  9
$PELEVATION
 40
0.0
  9
$THICKNESS
 40
0.0
  9
$LIMCHECK
 70
     0
  9
$BLIPMODE
 70
     0
  9
$CHAMFERA
 40
0.2
  9
$CHAMFERB
 40
0.2
  9
$SKPOLY
 70
     0
  9
$TDCREATE
 40
2459375.6175483912
  9
$TDUPDATE
 40
2459650.3328194101
  9
$TDINDWG
 40
0.0443356597
  9
$TDUSRTIMER
 40
0.0443355787
  9
$USRTIMER
 70
     1
  9
$ANGBASE
 50
0.0
  9
$ANGDIR
 70
     0
  9
$PDMODE
 70
     1
  9
$PDSIZE
 40
0.0
  9
$PLINEWID
 40
0.0
  9
$COORDS
 70
     1
  9
$SPLFRAME
 70
     0
  9
$SPLINETYPE
 70
     6
  9
$SPLINESEGS
 70
     4
  9
$ATTDIA
 70
     1
  9
$ATTREQ
 70
     1
  9
$HANDLING
 70
     1
  9
$HANDSEED
  5
4AC8
  9
$SURFTAB1
 70
     6
  9
$SURFTAB2
 70
     6
  9
$SURFTYPE
 70
     6
  9
$SURFU
 70
     6
  9
$SURFV
 70
     6
  9
$UCSNAME
  2

  9
$UCSORG
 10
0.0
 20
0.0
 30
0.0
  9
$UCSXDIR
 10
1.0
 20
0.0
 30
0.0
  9
$UCSYDIR
 10
0.0
 20
1.0
 30
0.0
  9
$PUCSNAME
  2

  9
$PUCSORG
 10
0.0
 20
0.0
 30
0.0
  9
$PUCSXDIR
 10
1.0
 20
0.0
 30
0.0
  9
$PUCSYDIR
 10
0.0
 20
1.0
 30
0.0
  9
$USERI1
 70
     1
  9
$USERI2
 70
     0
  9
$USERI3
 70
     0
  9
$USERI4
 70
     0
  9
$USERI5
 70
     0
  9
$USERR1
 40
0.0
  9
$USERR2
 40
0.0
  9
$USERR3
 40
0.0
  9
$USERR4
 40
0.0
  9
$USERR5
 40
0.0
  9
$WORLDVIEW
 70
     1
  9
$SHADEDGE
 70
     3
  9
$SHADEDIF
 70
    70
  9
$TILEMODE
 70
     1
  9
$MAXACTVP
 70
    16
  9
$PLIMCHECK
 70
     0
  9
$PEXTMIN
 10
1.0000000000000000E+020
 20
1.0000000000000000E+020
 30
1.0000000000000000E+020
  9
$PEXTMAX
 10
-1.0000000000000000E+020
 20
-1.0000000000000000E+020
 30
-1.0000000000000000E+020
  9
$PLIMMIN
 10
0.0
 20
0.0
  9
$PLIMMAX
 10
420.0
 20
297.0
  9
$UNITMODE
 70
     0
  9
$VISRETAIN
 70
     1
  9
$PLINEGEN
 70
     0
  9
$PSLTSCALE
 70
     1
  0
ENDSEC
  0
SECTION
  2
TABLES
  0
TABLE
  2
VPORT
 70
     1
  0
VPORT
  2
*ACTIVE
 70
     0
 10
0.0
 20
0.0
 11
1.0
 21
1.0
 12
115.3122444517081
 22
27.015869068267421
 13
0.0
 23
0.0
 14
7.0
 24
7.0
 15
7.0
 25
7.0
 16
0.0
 26
0.0
 36
1.0
 17
0.0
 27
0.0
 37
0.0
 40
199.46165872017951
 41
1.709558823529411
 42
50.0
 43
0.0
 44
0.0
 50
0.0
 51
0.0
 71
     0
 72
  2000
 73
     1
 74
     0
 75
     0
 76
     1
 77
     0
 78
     0
  0
ENDTAB
  0
TABLE
  2
LTYPE
 70
    16
  0
LTYPE
  2
CONTINUOUS
 70
     0
  3
Solid line
 72
    65
 73
     0
 40
0.0
  0
LTYPE
  2
CENTER2
 70
     0
  3
___ _ ___ _ ___ _ ___ _ ___ _ ___ _ ___ _ ___ _
 72
    65
 73
     4
 40
1.125
 49
0.75
 49
-0.125
 49
0.125
 49
-0.125
  0
LTYPE
  2
HIDDEN2
 70
     0
  3
_ _ _ _ _ _ _ _ _ _ _ _ _ _ _ _ _ _ _ _ _ _ _ _
 72
    65
 73
     2
 40
0.1875
 49
0.125
 49
-0.0625
  0
LTYPE
  2
PHANTOM2
 70
     0
  3
___ _ _ ___ _ _ ___ _ _ ___ _ _ ___ _ _ ___ _ _
 72
    65
 73
     6
 40
1.25
 49
0.625
 49
-0.125
 49
0.125
 49
-0.125
 49
0.125
 49
-0.125
  0
LTYPE
  2
CENTER
 70
     0
  3
____ _ ____ _ ____ _ ____ _ ____ _ ____ _ ____ 
 72
    65
 73
     4
 40
2.0
 49
1.25
 49
-0.25
 49
0.25
 49
-0.25
  0
LTYPE
  2
AMCONSTR
 70
     0
  3
_______________________
 72
    65
 73
     2
 40
9999.0
 49
9999.0
 49
0.0
  0
LTYPE
  2
HIDDEN
 70
     0
  3
Hidden __ __ __ __ __ __ __ __ __ __ __ __ __ _
 72
    65
 73
     2
 40
9.5249999999999986
 49
6.3499999999999979
 49
-3.174999999999998
  0
LTYPE
  2
AMZIGZAG2
 70
     0
  3
/\/-/\/-/\/-/\/-/\/-/\/
 72
    65
 73
     2
 40
0.4401
 49
0.0001
 49
-0.4400000000000001
  0
LTYPE
  2
ACANSTGB
 70
     0
  3
__ . . __ . .
 72
    65
 73
     6
 40
0.35433070866
 49
0.15748031496
 49
-0.03937007874
 49
0.03937007874
 49
-0.03937007874
 49
0.03937007874
 49
-0.03937007874
  0
LTYPE
  2
ACANSTGL
 70
     0
  3
_ _ _ _ _
 72
    65
 73
     2
 40
0.11811023622
 49
0.07874015748
 49
-0.03937007874
  0
ENDTAB
  0
TABLE
  2
LAYER
 70
    10
  0
LAYER
  2
0
 70
     0
 62
     7
  6
CONTINUOUS
  0
LAYER
  2
240
 70
     0
 62
     4
  6
CONTINUOUS
  0
LAYER
  2
DEFPOINTS
 70
     0
 62
     7
  6
CONTINUOUS
  0
LAYER
  2
245
 70
     0
 62
     2
  6
CENTER2
  0
LAYER
  2
241
 70
     0
 62
   211
  6
CONTINUOUS
  0
LAYER
  2
243
 70
     0
 62
   211
  6
HIDDEN2
  0
LAYER
  2
247
 70
     0
 62
    60
  6
CONTINUOUS
  0
LAYER
  2
250
 70
     0
 62
     3
  6
CONTINUOUS
  0
ENDTAB
  0
TABLE
  2
STYLE
 70
     5
  0
STYLE
  2
STANDARD
 70
     0
 40
0.0
 41
1.0
 50
0.0
 71
     0
 42
3.0
  3
romans.shx
  4
extfont.shx
  0
STYLE
  2
YOKO
 70
     0
 40
0.0
 41
1.0
 50
0.0
 71
     0
 42
3.0
  3
romans.shx
  4
extfont.shx
  0
STYLE
  2

 70
     1
 40
0.0
 41
1.0
 50
0.0
 71
     0
 42
3.0
  3
genltshp.shx
  4

  0
STYLE
  2
ACANSGDT
 70
     0
 40
0.0
 41
1.0
 50
0.0
 71
     0
 42
3.0
  3
amgdt.shx
  4

  0
ENDTAB
  0
TABLE
  2
VIEW
 70
     0
  0
ENDTAB
  0
TABLE
  2
UCS
 70
     0
  0
ENDTAB
  0
TABLE
  2
APPID
 70
    46
  0
APPID
  2
ACAD
 70
     0
  0
APPID
  2
ACADANNOTATIVE
 70
     0
  0
APPID
  2
GLOBAL
 70
     0
  0
APPID
  2
DETAIL
 70
     0
  0
APPID
  2
GRPNAME
 70
     0
  0
APPID
  2
GPARA
 70
     0
  0
APPID
  2
MCAD_NO_VIS
 70
     0
  0
APPID
  2
ACAD_TEMP_GRAPHIC
 70
     0
  0
APPID
  2
ACATTRIBSERVICES
 70
     0
  0
APPID
  2
GENIUS_GENSCREG_15
 70
     0
  0
APPID
  2
GENIUS_GENODEF_13
 70
     0
  0
APPID
  2
GENIUS_GENOBJ-N-SDF_13
 70
     0
  0
APPID
  2
GENIUS_GENREC_14
 70
     0
  0
APPID
  2
GENIUS_GENOBJ-N-REC_13
 70
     0
  0
APPID
  2
GENIUS_GENDIMSH_14
 70
     0
  0
APPID
  2
GENIUS_GENOBJ-N-DIM_13
 70
     0
  0
APPID
  2
GENIUS_GENDIM_13
 70
     0
  0
APPID
  2
GENIUS_GENDTOL_13
 70
     0
  0
APPID
  2
GENIUS_GENOLIS_13
 70
     0
  0
APPID
  2
GENIUS_GENOENT_13
 70
     0
  0
APPID
  2
GENIUS_GENOBJ-F-FEM_13
 70
     0
  0
APPID
  2
GENIUS_GENOREF_13
 70
     0
  0
APPID
  2
GENIUS_GEFFEM_13
 70
     0
  0
APPID
  2
GENIUS_GEFFEMP_13
 70
     0
  0
APPID
  2
AD_DRAW
 70
     0
  0
APPID
  2
DESIGNERASSEMBLIES
 70
     0
  0
APPID
  2
ACADM_DIM_EDIT
 70
     0
  0
APPID
  2
AMDT_DM_ADJ
 70
     0
  0
APPID
  2
ITEMNAME
 70
     0
  0
APPID
  2
GENIUS_GENOBJ-N-FIL_13
 70
     0
  0
APPID
  2
GENIUS_GENFIL_13
 70
     0
  0
APPID
  2
GENIUS_GENOBJ-N-CHA_13
 70
     0
  0
APPID
  2
ACAD_NAV_VCDISPLAY
 70
     0
  0
APPID
  2
ACAD_PSEXT
 70
     0
  0
APPID
  2
ACAD_DSTYLE_DIMJAG
 70
     0
  0
APPID
  2
ACAD_DSTYLE_DIMTALN
 70
     0
  0
APPID
  2
ACAECLAYERSTANDARD
 70
     0
  0
APPID
  2
ACAD_EXEMPT_FROM_CAD_STANDARDS
 70
     0
  0
APPID
  2
ACAD_DSTYLE_DIMINSPECT
 70
     0
  0
APPID
  2
ACAD_DSTYLE_DIMRADIAL_EXTENSION
 70
     0
  0
APPID
  2
ACAD_MLEADERVER
 70
     0
  0
APPID
  2
ACAD_DSTYLE_DIMBREAK
 70
     0
  0
APPID
  2
ACAD_DSTYLE_DIMARC_LENGTH_
 70
     0
  0
APPID
  2
ACAD_DSTYLE_DIM_LINETYPE
 70
     0
  0
APPID
  2
ACAD_DSTYLE_DIM_EXT1_LINETYPE
 70
     0
  0
APPID
  2
ACAD_DSTYLE_DIM_EXT2_LINETYPE
 70
     0
  0
ENDTAB
  0
TABLE
  2
DIMSTYLE
 70
     8
  0
DIMSTYLE
  2
STANDARD
 70
     0
  3

  4

  5

  6

  7

 40
1.0
 41
0.18
 42
0.0625
 43
0.38
 44
0.18
 45
0.0
 46
0.0
 47
0.0
 48
0.0
140
0.18
141
0.09
142
0.0
143
25.399999999999999
144
1.0
145
0.0
146
1.0
147
0.09
 71
     0
 72
     0
 73
     1
 74
     1
 75
     0
 76
     0
 77
     0
 78
     0
170
     0
171
     2
172
     0
173
     0
174
     0
175
     0
176
     0
177
     0
178
     0
  0
DIMSTYLE
  2
BIGT
 70
     0
  3

  4

  5

  6

  7

 40
1.0
 41
2.2299999999999991
 42
0.5
 43
7.0
 44
1.0
 45
0.0
 46
0.0
 47
0.0
 48
0.01
140
2.799999999999998
141
0.0
142
0.0
143
25.399999999999999
144
1.0
145
0.0
146
1.0
147
1.0
 71
     0
 72
     0
 73
     0
 74
     0
 75
     0
 76
     0
 77
     3
 78
     9
170
     0
171
     2
172
     1
173
     0
174
     1
175
     0
176
   256
177
   256
178
    40
  0
DIMSTYLE
  2
AM_ANSI
 70
     0
  3

  4
mm
  5

  6

  7

 40
1.0
 41
0.12
 42
0.05
 43
0.5
 44
0.1
 45
0.0
 46
0.0
 47
0.1
 48
0.1
140
0.12
141
0.0
142
0.0
143
25.399999999999999
144
1.0
145
0.0
146
0.71
147
0.06
 71
     0
 72
     0
 73
     1
 74
     1
 75
     0
 76
     0
 77
     0
 78
     7
170
     0
171
     2
172
     0
173
     0
174
     0
175
     0
176
   256
177
   256
178
     2
  0
DIMSTYLE
  2
AM_ANSI$3
 70
     0
  3

  4
mm
  5

  6

  7

 40
1.0
 41
0.12
 42
0.05
 43
0.5
 44
0.1
 45
0.0
 46
0.0
 47
0.1
 48
0.1
140
0.12
141
0.0
142
0.0
143
25.399999999999999
144
1.0
145
0.0
146
0.71
147
0.06
 71
     0
 72
     0
 73
     1
 74
     1
 75
     0
 76
     0
 77
     0
 78
     7
170
     0
171
     2
172
     0
173
     0
174
     0
175
     0
176
   256
177
   256
178
     2
  0
DIMSTYLE
  2
AM_ANSI$4
 70
     0
  3

  4
mm
  5

  6

  7

 40
1.0
 41
0.12
 42
0.05
 43
0.5
 44
0.1
 45
0.0
 46
0.0
 47
0.1
 48
0.1
140
0.12
141
0.0
142
0.0
143
25.399999999999999
144
1.0
145
0.0
146
0.71
147
0.06
 71
     0
 72
     0
 73
     1
 74
     1
 75
     0
 76
     0
 77
     0
 78
     7
170
     0
171
     2
172
     0
173
     0
174
     0
175
     0
176
   256
177
   256
178
     2
  0
DIMSTYLE
  2
AM_ANSI$7
 70
     0
  3

  4
mm
  5

  6

  7

 40
1.0
 41
0.12
 42
0.05
 43
0.5
 44
0.1
 45
0.0
 46
0.0
 47
0.1
 48
0.1
140
0.12
141
0.0
142
0.0
143
25.399999999999999
144
1.0
145
0.0
146
0.71
147
0.06
 71
     0
 72
     0
 73
     1
 74
     1
 75
     0
 76
     0
 77
     0
 78
     7
170
     0
171
     2
172
     0
173
     0
174
     0
175
     0
176
   256
177
   256
178
     2
  0
DIMSTYLE
  2
AM_ANSI$SF
 70
     0
  3

  4
mm
  5

  6

  7

 40
1.0
 41
0.12
 42
0.05
 43
0.5
 44
0.1
 45
0.0
 46
0.0
 47
0.1
 48
0.1
140
0.12
141
0.0
142
0.0
143
25.399999999999999
144
1.0
145
0.0
146
0.71
147
0.06
 71
     0
 72
     0
 73
     1
 74
     1
 75
     1
 76
     1
 77
     0
 78
     7
170
     0
171
     2
172
     0
173
     0
174
     0
175
     0
176
   256
177
   256
178
     2
  0
DIMSTYLE
  2
AM_ANSI$SH
 70
     0
  3

  4
mm
  5

  6
GENAXEH
  7

 40
1.0
 41
0.12
 42
0.05
 43
0.5
 44
0.1
 45
0.0
 46
0.0
 47
0.1
 48
0.1
140
0.12
141
0.0
142
0.0
143
25.399999999999999
144
1.0
145
0.0
146
0.71
147
0.06
 71
     0
 72
     0
 73
     1
 74
     1
 75
     1
 76
     1
 77
     0
 78
     7
170
     0
171
     2
172
     0
173
     1
174
     0
175
     0
176
   256
177
   256
178
     2
  0
ENDTAB
  0
ENDSEC
  0
SECTION
  2
BLOCKS
  0
BLOCK
  8
0
  2
$MODEL_SPACE
 70
     0
 10
0.0
 20
0.0
 30
0.0
  3
$MODEL_SPACE
  1

  0
ENDBLK
  5
4766
  8
0
  0
BLOCK
 67
     1
  8
0
  2
$PAPER_SPACE
 70
     0
 10
0.0
 20
0.0
 30
0.0
  3
$PAPER_SPACE
  1

  0
ENDBLK
  5
4762
 67
     1
  8
0
  0
BLOCK
  8
0
  2
_OPEN
 70
     0
 10
0.0
 20
0.0
 30
0.0
  3
_OPEN
  1

  0
LINE
  5
45FD
  8
0
  6
BYBLOCK
 62
     0
 10
-1.0
 20
0.1666666666666666
 30
0.0
 11
0.0
 21
0.0
 31
0.0
  0
LINE
  5
45FE
  8
0
  6
BYBLOCK
 62
     0
 10
-1.0
 20
-0.1666666666666666
 30
0.0
 11
0.0
 21
0.0
 31
0.0
  0
LINE
  5
45FF
  8
0
  6
BYBLOCK
 62
     0
 10
0.0
 20
0.0
 30
0.0
 11
-1.0
 21
0.0
 31
0.0
  0
ENDBLK
  5
4600
  8
0
  0
BLOCK
  8
0
  2
GENAXEH
 70
     0
 10
0.0
 20
0.0
 30
0.0
  3
GENAXEH
  1

  0
LINE
  5
4638
  8
0
 10
-1.0
 20
0.0
 30
0.0
 11
1.0
 21
0.0
 31
0.0
  0
ENDBLK
  5
4639
  8
0
  0
BLOCK
  8
0
  2
_ACMFILLEDHALF
 70
     0
 10
0.0
 20
0.0
 30
0.0
  3
_ACMFILLEDHALF
  1

  0
TRACE
  5
482E
  8
240
 62
     0
 10
-0.8
 20
0.0
 30
0.0
 11
-1.0
 21
0.166666666
 31
0.0
 12
0.0
 22
0.0
 32
0.0
 13
0.0
 23
0.0
 33
0.0
  0
LINE
  5
482F
  8
240
 62
     0
 10
-1.0
 20
0.0
 30
0.0
 11
-0.8
 21
0.0
 31
0.0
  0
ENDBLK
  5
482D
  8
0
  0
ENDSEC
  0
SECTION
  2
ENTITIES
  0
ARC
  5
4254
  8
240
  6
CONTINUOUS
 10
30.99999999999989
 20
20.999999999999972
 30
0.0
 40
5.0
 50
180.0
 51
270.0
  0
ARC
  5
4255
  8
240
  6
CONTINUOUS
 10
30.999999999999879
 20
-21.0
 30
0.0
 40
5.0
 50
89.999999999999986
 51
180.0
  0
LINE
  5
4256
  8
240
  6
CONTINUOUS
 10
250.0
 20
15.999999999999959
 30
0.0
 11
30.99999999999989
 21
15.99999999999997
 31
0.0
  0
LINE
  5
4257
  8
240
  6
CONTINUOUS
 10
30.999999999999879
 20
-16.0
 30
0.0
 11
250.0
 21
-16.0
 31
0.0
  0
LINE
  5
42C4
  8
240
  6
CONTINUOUS
 10
253.0
 20
15.499999999999959
 30
0.0
 11
253.0
 21
-15.5
 31
0.0
  0
LINE
  5
42C5
  8
241
  6
CONTINUOUS
 10
250.0
 20
15.499999999999959
 30
0.0
 11
250.0
 21
-15.5
 31
0.0
  0
LINE
  5
42C8
  8
245
  6
CENTER2
 10
255.2533364222044
 20
-0.0000000000000206
 30
0.0
 11
-34.753212174237888
 21
-0.00000000000001
 31
0.0
  0
TEXT
  5
431C
  8
241
  6
CONTINUOUS
 10
-32.0
 20
56.0
 30
0.0
 40
5.0
  1
HSK-T63-SDB40DP-250
  7
YOKO
 11
-32.0
 21
56.0
 31
0.0
 73
     1
  0
LINE
  5
431D
  8
240
  6
CONTINUOUS
 10
-2.0
 20
24.215
 30
0.0
 11
-32.00000000000027
 21
22.715
 31
0.0
  0
LINE
  5
431E
  8
240
  6
CONTINUOUS
 10
0.0
 20
31.5
 30
0.0
 11
14.622500925240731
 21
31.5
 31
0.0
  0
LINE
  5
431F
  8
240
  6
CONTINUOUS
 10
0.0
 20
24.215
 30
0.0
 11
0.0
 21
31.5
 31
0.0
  0
LINE
  5
4320
  8
240
  6
CONTINUOUS
 10
16.125
 20
28.897595264191828
 30
0.0
 11
14.622500925240731
 21
31.5
 31
0.0
  0
LINE
  5
4321
  8
240
  6
CONTINUOUS
 10
16.125
 20
27.5
 30
0.0
 11
19.875
 21
27.5
 31
0.0
  0
LINE
  5
4322
  8
240
  6
CONTINUOUS
 10
16.125
 20
27.5
 30
0.0
 11
16.125
 21
28.897595264191828
 31
0.0
  0
LINE
  5
4323
  8
240
  6
CONTINUOUS
 10
19.875
 20
28.897595264191828
 30
0.0
 11
21.377499074759282
 21
31.5
 31
0.0
  0
LINE
  5
4324
  8
240
  6
CONTINUOUS
 10
19.875
 20
27.5
 30
0.0
 11
19.875
 21
28.897595264191828
 31
0.0
  0
LINE
  5
4325
  8
240
  6
CONTINUOUS
 10
-2.0
 20
24.215
 30
0.0
 11
0.0
 21
24.215
 31
0.0
  0
LINE
  5
4326
  8
240
  6
CONTINUOUS
 10
-32.00000000000027
 20
22.715
 30
0.0
 11
-32.000000000000007
 21
-22.71500000000006
 31
0.0
  0
LINE
  5
4327
  8
240
  6
CONTINUOUS
 10
-1.99999999999998
 20
-24.215000000000028
 30
0.0
 11
-32.000000000000007
 21
-22.71500000000006
 31
0.0
  0
LINE
  5
4328
  8
240
  6
CONTINUOUS
 10
21.377499074759289
 20
-31.500000000000021
 30
0.0
 11
26.0
 21
-31.500000000000458
 31
0.0
  0
LINE
  5
4329
  8
240
  6
CONTINUOUS
 10
0.0000000000000221
 20
-31.500000000000028
 30
0.0
 11
14.62250092524075
 21
-31.500000000000021
 31
0.0
  0
LINE
  5
432A
  8
240
  6
CONTINUOUS
 10
0.000000000000017
 20
-24.215000000000028
 30
0.0
 11
0.0000000000000221
 21
-31.500000000000028
 31
0.0
  0
LINE
  5
432B
  8
240
  6
CONTINUOUS
 10
16.125000000000021
 20
-28.89759526419186
 30
0.0
 11
14.62250092524075
 21
-31.500000000000021
 31
0.0
  0
LINE
  5
432C
  8
240
  6
CONTINUOUS
 10
16.125000000000021
 20
-27.500000000000021
 30
0.0
 11
19.875000000000021
 21
-27.500000000000021
 31
0.0
  0
LINE
  5
432D
  8
240
  6
CONTINUOUS
 10
16.125000000000021
 20
-27.500000000000021
 30
0.0
 11
16.125000000000021
 21
-28.89759526419186
 31
0.0
  0
LINE
  5
432E
  8
240
  6
CONTINUOUS
 10
19.875000000000021
 20
-28.89759526419185
 30
0.0
 11
21.377499074759289
 21
-31.500000000000021
 31
0.0
  0
LINE
  5
432F
  8
240
  6
CONTINUOUS
 10
19.875000000000021
 20
-27.500000000000021
 30
0.0
 11
19.875000000000021
 21
-28.89759526419185
 31
0.0
  0
LINE
  5
4330
  8
240
  6
CONTINUOUS
 10
-1.99999999999998
 20
-24.215000000000028
 30
0.0
 11
0.000000000000017
 21
-24.215000000000028
 31
0.0
  0
LINE
  5
4331
  8
241
  6
CONTINUOUS
 10
26.00000000000103
 20
19.999999999999851
 30
0.0
 11
26.00000000000021
 21
-20.999999999999901
 31
0.0
  0
LINE
  5
4332
  8
241
  6
CONTINUOUS
 10
21.377499074759282
 20
-31.500000000000021
 30
0.0
 11
21.377499074759388
 21
20.000000000000082
 31
0.0
  0
LINE
  5
4333
  8
241
  6
CONTINUOUS
 10
14.622500925240731
 20
-31.500000000000021
 30
0.0
 11
14.62250092524067
 21
20.000000000000082
 31
0.0
  0
LINE
  5
4334
  8
241
  6
CONTINUOUS
 10
16.125
 20
27.5
 30
0.0
 11
16.125
 21
-27.5
 31
0.0
  0
LINE
  5
4335
  8
241
  6
CONTINUOUS
 10
19.875
 20
27.5
 30
0.0
 11
19.875
 21
-27.5
 31
0.0
  0
LINE
  5
4336
  8
241
  6
CONTINUOUS
 10
21.377499074759282
 20
24.33618704727591
 30
0.0
 11
21.377499074759282
 21
31.499999999999989
 31
0.0
  0
LINE
  5
4337
  8
241
  6
CONTINUOUS
 10
14.622500925240731
 20
24.33618704727591
 30
0.0
 11
14.622500925240731
 21
31.499999999999989
 31
0.0
  0
LINE
  5
4338
  8
241
  6
CONTINUOUS
 10
0.0000000000000171
 20
-24.215000000000028
 30
0.0
 11
0.0
 21
24.215
 31
0.0
  0
LINE
  5
4339
  8
243
  6
HIDDEN2
 10
4.999999999999976
 20
31.499999999999989
 30
0.0
 11
4.999999999999976
 21
26.499999999999989
 31
0.0
1001
GRPNAME
1000
PASTMD2W
  0
LINE
  5
433A
  8
243
  6
HIDDEN2
 10
25.999999999999901
 20
-26.500000000000011
 30
0.0
 11
4.999999999999976
 21
-26.500000000000011
 31
0.0
1001
GRPNAME
1000
PASTMD2W
  0
LINE
  5
433B
  8
243
  6
HIDDEN2
 10
4.999999999999976
 20
-31.500000000000011
 30
0.0
 11
4.999999999999976
 21
-26.500000000000011
 31
0.0
1001
GRPNAME
1000
PASTMD2W
  0
LINE
  5
433C
  8
243
  6
HIDDEN2
 10
25.999999999999869
 20
26.499999999999989
 30
0.0
 11
4.999999999999976
 21
26.499999999999989
 31
0.0
1001
GRPNAME
1000
PASTMD2W
  0
LINE
  5
433D
  8
247
  6
CONTINUOUS
 10
6.499999999999976
 20
-17.250000000070042
 30
0.0
 11
6.499999999999976
 21
-10.557692308030029
 31
0.0
  0
ARC
  5
433E
  8
247
  6
CONTINUOUS
 10
4.750000000069952
 20
-17.250000000070042
 30
0.0
 40
1.7499999999299991
 50
180.0
 51
0.0
  0
ARC
  5
433F
  8
247
  6
CONTINUOUS
 10
4.750000000069952
 20
-10.557692308030029
 30
0.0
 40
1.7499999999299991
 50
0.0
 51
180.0
  0
LINE
  5
4340
  8
247
  6
CONTINUOUS
 10
3.000000000139984
 20
-16.384615384720011
 30
0.0
 11
6.0000000000199849
 21
-17.244851541962031
 31
0.0
  0
LINE
  5
4341
  8
247
  6
CONTINUOUS
 10
4.4230769231599911
 20
-15.484983818335831
 30
0.0
 11
4.4230769231599911
 21
-16.792676125975849
 31
0.0
  0
ARC
  5
4342
  8
247
  6
CONTINUOUS
 10
3.5495986677029592
 20
-15.14514381608979
 30
0.0
 40
0.5538165441895349
 50
72.997889675291773
 51
172.92416621851359
  0
ARC
  5
4343
  8
247
  6
CONTINUOUS
 10
3.4360330444657521
 20
-15.566878323028799
 30
0.0
 40
0.9904354236226808
 50
4.7429368522022113
 51
73.849226273266297
1001
GENIUS_GENOBJ-N-FIL_13
1002
{
1000
OWNER
1000
GEN
1002
}
1001
GENIUS_GENODEF_13
1002
{
1000
HIER
1070
     0
1002
}
1002
{
1000
MANEDIT
1070
     0
1002
}
1002
{
1000
NOSEL
1070
     0
1002
}
1002
{
1000
BEHIND
1070
     0
1002
}
1002
{
1000
OTHER
1070
     0
1002
}
1002
{
1000
REACTOR
1002
}
  0
LINE
  5
4344
  8
247
  6
CONTINUOUS
 10
6.0000000000199849
 20
-15.937159234321999
 30
0.0
 11
6.0000000000199849
 21
-17.244851541962031
 31
0.0
  0
LINE
  5
4345
  8
247
  6
CONTINUOUS
 10
3.000000000139984
 20
-16.384615384720011
 30
0.0
 11
3.000000000139984
 21
-15.076923077079989
 31
0.0
  0
ARC
  5
4346
  8
247
  6
CONTINUOUS
 10
4.9820242326655171
 20
-15.56091963654695
 30
0.0
 40
0.5640818586791229
 50
65.990941652528889
 51
172.26344345906909
  0
ARC
  5
4347
  8
247
  6
CONTINUOUS
 10
4.9874290391865452
 20
-16.038262685347039
 30
0.0
 40
1.0176059446230981
 50
5.7019851642564632
 51
77.277338436822376
1001
GENIUS_GENOBJ-N-FIL_13
1002
{
1000
OWNER
1000
GEN
1002
}
1001
GENIUS_GENODEF_13
1002
{
1000
HIER
1070
     0
1002
}
1002
{
1000
MANEDIT
1070
     0
1002
}
1002
{
1000
NOSEL
1070
     0
1002
}
1002
{
1000
BEHIND
1070
     0
1002
}
1002
{
1000
OTHER
1070
     0
1002
}
1002
{
1000
REACTOR
1002
}
  0
LINE
  5
4348
  8
247
  6
CONTINUOUS
 10
6.0000000000199849
 20
-14.28331308054204
 30
0.0
 11
3.000000000139984
 21
-13.42307692330002
 31
0.0
  0
LINE
  5
4349
  8
247
  6
CONTINUOUS
 10
3.000000000139984
 20
-11.000000000320041
 30
0.0
 11
3.000000000139984
 21
-11.56573661945664
 31
0.0
  0
LINE
  5
434A
  8
247
  6
CONTINUOUS
 10
6.0000000000199849
 20
-12.4615384618
 30
0.0
 11
6.0000000000199849
 21
-11.84615384644002
 31
0.0
  0
ARC
  5
434B
  8
247
  6
CONTINUOUS
 10
5.0832851359733446
 20
-10.708791209122859
 30
0.0
 40
2.2526500823422082
 50
202.35948814152559
 51
254.99324854284609
  0
ARC
  5
434C
  8
247
  6
CONTINUOUS
 10
3.808312655194503
 20
-11.37406947921324
 30
0.0
 40
0.8906723995727782
 50
94.994589319075317
 51
155.1663289573039
1001
GENIUS_GENOBJ-N-FIL_13
1002
{
1000
OWNER
1000
GEN
1002
}
1001
GENIUS_GENODEF_13
1002
{
1000
HIER
1070
     0
1002
}
1002
{
1000
MANEDIT
1070
     0
1002
}
1002
{
1000
NOSEL
1070
     0
1002
}
1002
{
1000
BEHIND
1070
     0
1002
}
1002
{
1000
OTHER
1070
     0
1002
}
1002
{
1000
REACTOR
1002
}
  0
ARC
  5
434D
  8
247
  6
CONTINUOUS
 10
4.6601458886677598
 20
-12.22645888621259
 30
0.0
 40
1.392781735586712
 50
15.846096555777221
 51
82.325137004169065
  0
ARC
  5
434E
  8
247
  6
CONTINUOUS
 10
4.95924343152726
 20
-11.642212725840359
 30
0.0
 40
1.324563662670287
 50
249.7136016704969
 51
321.78874565640689
1001
GENIUS_GENOBJ-N-FIL_13
1002
{
1000
OWNER
1000
GEN
1002
}
1001
GENIUS_GENODEF_13
1002
{
1000
HIER
1070
     0
1002
}
1002
{
1000
MANEDIT
1070
     0
1002
}
1002
{
1000
NOSEL
1070
     0
1002
}
1002
{
1000
BEHIND
1070
     0
1002
}
1002
{
1000
OTHER
1070
     0
1002
}
1002
{
1000
REACTOR
1002
}
  0
LINE
  5
434F
  8
247
  6
CONTINUOUS
 10
4.846153846219952
 20
-11.53846153875998
 30
0.0
 11
4.846153846219952
 21
-10.846153846479989
 31
0.0
  0
LINE
  5
4350
  8
247
  6
CONTINUOUS
 10
3.000000000139956
 20
-17.250000000070042
 30
0.0
 11
3.000000000139956
 21
-16.57692307702002
 31
0.0
  0
LINE
  5
4353
  8
250
  6
CONTINUOUS
 10
-18.449912619999989
 20
-34.945010460000013
 30
0.0
 11
-42.716579289999977
 21
-34.945010460000013
 31
0.0
1001
ITEMNAME
1000
LNSP2
  0
TEXT
  5
4354
  8
250
  6
CONTINUOUS
 10
-40.449912623333319
 20
-33.945010460000013
 30
0.0
 40
2.799999999999998
  1
HSK-T63
  7
YOKO
1001
ITEMNAME
1000
LNSP3
  0
LINE
  5
4355
  8
250
  6
CONTINUOUS
 10
-13.40408240568294
 20
-25.46204283660402
 30
0.0
 11
-11.96720962999999
 21
-23.716639520000012
 31
0.0
  0
LINE
  5
4356
  8
250
  6
CONTINUOUS
 10
-12.760336855666351
 20
-25.83370950349558
 30
0.0
 11
-11.96720962999999
 21
-23.716639520000012
 31
0.0
  0
LINE
  5
4357
  8
250
  6
CONTINUOUS
 10
-11.96720962999999
 20
-23.716639520000012
 30
0.0
 11
-13.082209630674649
 21
-25.647876170049791
 31
0.0
  0
LINE
  5
4358
  8
250
  6
CONTINUOUS
 10
-13.082209630674649
 20
-25.647876170049791
 30
0.0
 11
-18.449912619999989
 21
-34.945010460000013
 31
0.0
1001
ACAD
1000
DSTYLE
1002
{
1070
     6
1000
OPEN
1070
   343
1005
0
1002
}
  0
LINE
  5
4359
  8
240
  6
CONTINUOUS
 10
25.999999999999929
 20
-31.500000000000451
 30
0.0
 11
25.999999999999879
 21
-21.0
 31
0.0
  0
LINE
  5
435A
  8
241
  6
CONTINUOUS
 10
5.0000000000002247
 20
20.000000000000909
 30
0.0
 11
16.124999999999879
 21
20.000000000000341
 31
0.0
  0
LINE
  5
435B
  8
241
  6
CONTINUOUS
 10
21.377499074758688
 20
24.33618704727543
 30
0.0
 11
26.000000000000639
 21
24.33618704727559
 31
0.0
  0
ARC
  5
435C
  8
241
  6
CONTINUOUS
 10
12.111713903655639
 20
16.336187047275931
 30
0.0
 40
8.0
 50
90.0
 51
152.7433806908395
  0
LINE
  5
435D
  8
241
  6
CONTINUOUS
 10
12.111713903655639
 20
24.336187047275931
 30
0.0
 11
14.622500925240841
 21
24.33618704727564
 31
0.0
  0
LINE
  5
435E
  8
241
  6
CONTINUOUS
 10
14.622500925240731
 20
24.336187047275931
 30
0.0
 11
16.125
 21
20.858355928812792
 31
0.0
  0
LINE
  5
435F
  8
241
  6
CONTINUOUS
 10
21.377499074759282
 20
24.336187047275871
 30
0.0
 11
19.875
 21
20.858355928812792
 31
0.0
  0
LINE
  5
4360
  8
241
  6
CONTINUOUS
 10
19.874999999999879
 20
20.000000000000171
 30
0.0
 11
26.10102051443349
 21
20.000000000000171
 31
0.0
  0
LINE
  5
436B
  8
240
  6
CONTINUOUS
 10
25.99999999999989
 20
31.500000000000451
 30
0.0
 11
25.999999999999861
 21
21.0
 31
0.0
  0
LINE
  5
436C
  8
240
  6
CONTINUOUS
 10
21.377499074759299
 20
31.499999999999989
 30
0.0
 11
26.000000000000011
 21
31.50000000000043
 31
0.0
  0
LINE
  5
442C
  8
240
  6
CONTINUOUS
 10
253.0
 20
15.499999999999959
 30
0.0
 11
250.0
 21
15.499999999999959
 31
0.0
  0
LINE
  5
442D
  8
240
  6
CONTINUOUS
 10
250.0
 20
-15.5
 30
0.0
 11
253.0
 21
-15.5
 31
0.0
  0
LINE
  5
442E
  8
240
  6
CONTINUOUS
 10
250.0
 20
15.499999999999959
 30
0.0
 11
250.0
 21
15.999999999999959
 31
0.0
  0
LINE
  5
442F
  8
240
  6
CONTINUOUS
 10
250.0
 20
-15.5
 30
0.0
 11
250.0
 21
-16.0
 31
0.0
  0
LINE
  5
4522
  8
250
  6
CONTINUOUS
 10
250.5
 20
15.999999999999959
 30
0.0
 11
273.0
 21
15.999999999999959
 31
0.0
  0
LINE
  5
4523
  8
250
  6
CONTINUOUS
 10
250.5
 20
-16.0
 30
0.0
 11
273.0
 21
-16.0
 31
0.0
  0
LINE
  5
4524
  8
250
  6
CONTINUOUS
 10
272.0
 20
13.76999999999996
 30
0.0
 11
272.0
 21
-13.77000000000001
 31
0.0
  0
LINE
  5
4528
  8
250
  6
CONTINUOUS
 10
0.0
 20
32.0
 30
0.0
 11
0.0000000000000007
 21
43.0
 31
0.0
  0
LINE
  5
4529
  8
250
  6
CONTINUOUS
 10
250.0
 20
16.499999999999972
 30
0.0
 11
250.0
 21
43.0
 31
0.0
  0
LINE
  5
452A
  8
250
  6
CONTINUOUS
 10
2.2299999999999991
 20
42.0
 30
0.0
 11
247.77000000000001
 21
42.000000000000007
 31
0.0
  0
TEXT
  5
452E
  8
250
  6
CONTINUOUS
 10
271.0
 20
-3.933333333333334
 30
0.0
 40
2.799999999999998
  1
\U+220532
 50
90.0
  0
LINE
  5
452F
  8
250
  6
CONTINUOUS
 10
272.37166666666673
 20
-13.77000000000001
 30
0.0
 11
272.0
 21
-16.0
 31
0.0
  0
LINE
  5
4530
  8
250
  6
CONTINUOUS
 10
271.62833333333327
 20
-13.77000000000001
 30
0.0
 11
272.0
 21
-16.0
 31
0.0
  0
LINE
  5
4531
  8
250
  6
CONTINUOUS
 10
272.0
 20
-16.0
 30
0.0
 11
272.0
 21
-13.77000000000001
 31
0.0
  0
LINE
  5
4532
  8
250
  6
CONTINUOUS
 10
271.62833333333327
 20
13.76999999999996
 30
0.0
 11
272.0
 21
15.999999999999959
 31
0.0
  0
LINE
  5
4533
  8
250
  6
CONTINUOUS
 10
272.37166666666673
 20
13.76999999999996
 30
0.0
 11
272.0
 21
15.999999999999959
 31
0.0
  0
LINE
  5
4534
  8
250
  6
CONTINUOUS
 10
272.0
 20
15.999999999999959
 30
0.0
 11
272.0
 21
13.76999999999996
 31
0.0
  0
TEXT
  5
4535
  8
250
  6
CONTINUOUS
 10
110.3091579700092
 20
42.999999999999979
 30
0.0
 40
2.799999999999998
  1
250
  0
LINE
  5
4536
  8
250
  6
CONTINUOUS
 10
247.77000000000001
 20
42.371666666666663
 30
0.0
 11
250.0
 21
42.000000000000007
 31
0.0
  0
LINE
  5
4537
  8
250
  6
CONTINUOUS
 10
247.77000000000001
 20
41.628333333333337
 30
0.0
 11
250.0
 21
42.000000000000007
 31
0.0
  0
LINE
  5
4538
  8
250
  6
CONTINUOUS
 10
250.0
 20
42.000000000000007
 30
0.0
 11
247.77000000000001
 21
42.000000000000007
 31
0.0
  0
LINE
  5
4539
  8
250
  6
CONTINUOUS
 10
2.2299999999999991
 20
41.62833333333333
 30
0.0
 11
0.0000000000000006
 21
42.0
 31
0.0
  0
LINE
  5
453A
  8
250
  6
CONTINUOUS
 10
2.2299999999999991
 20
42.371666666666663
 30
0.0
 11
0.0000000000000006
 21
42.0
 31
0.0
  0
LINE
  5
453B
  8
250
  6
CONTINUOUS
 10
0.0000000000000006
 20
42.0
 30
0.0
 11
2.2299999999999991
 21
42.0
 31
0.0
  0
LINE
  5
4882
  8
241
  6
CONTINUOUS
 10
106.0000000000009
 20
15.99999999999995
 30
0.0
 11
106.0000000000003
 21
-16.000000000000021
 31
0.0
  0
VIEWPORT
  5
22
 67
     1
  8
0
 10
261.51769911504419
 20
148.5
 30
0.0
 40
523.0353982300885
 41
297.0
 68
     1
 69
     1
1001
ACAD
1000
MVIEW
1002
{
1070
    16
1010
0.0
1020
0.0
1030
0.0
1010
0.0
1020
0.0
1030
1.0
1040
0.0
1040
297.0
1040
261.51769911504419
1040
148.5
1040
50.0
1040
0.0
1040
0.0
1070
     0
1070
   100
1070
     1
1070
     1
1070
     0
1070
     0
1070
     0
1070
     0
1040
0.0
1040
0.0
1040
0.0
1040
1.0
1040
1.0
1040
10.0
1040
10.0
1070
     0
1002
{
1002
}
1002
}
1001
GENIUS_GENODEF_13
1002
{
1000
HIER
1070
     0
1002
}
1002
{
1000
MANEDIT
1070
     0
1002
}
1002
{
1000
NOSEL
1070
     0
1002
}
1002
{
1000
BEHIND
1070
     0
1002
}
1002
{
1000
OTHER
1070
     0
1002
}
1002
{
1000
REACTOR
1002
}
1001
GENIUS_GENOBJ-N-SDF_13
1002
{
1000
OWNER
1000
GEN
1002
}
1001
GENIUS_GENSCREG_15
1000
PF
1040
1.0
1000
DF
1040
1.0
1000
MIN
1011
0.0
1021
0.0
1031
0.0
1021
0.0
1031
0.0
1000
MAX
1011
523.0353982300885
1021
0.0
1031
0.0
1021
297.0
1031
0.0
1000
FLAGS
1070
     4
  0
ENDSEC
  0
EOF
