  0
SECTION
  2
HEADER
  9
$ACADVER
  1
AC1009
  9
$INSBASE
 10
0.0
 20
0.0
 30
0.0
  9
$EXTMIN
 10
-47.849412714668908
 20
-34.855896117334566
 30
-0.0015258207003583
  9
$EXTMAX
 10
144.02299493046189
 20
68.017354583870883
 30
0.0000000349246037
  9
$LIMMIN
 10
0.0
 20
0.0
  9
$LIMMAX
 10
297.0
 20
210.0
  9
$ORTHOMODE
 70
     1
  9
$REGENMODE
 70
     1
  9
$FILLMODE
 70
     1
  9
$QTEXTMODE
 70
     0
  9
$MIRRTEXT
 70
     1
  9
$DRAGMODE
 70
     2
  9
$LTSCALE
 40
10.0
  9
$OSMODE
 70
    45
  9
$ATTMODE
 70
     1
  9
$TEXTSIZE
 40
3.0
  9
$TRACEWID
 40
1.0
  9
$TEXTSTYLE
  7
YOKO
  9
$CLAYER
  8
240
  9
$CELTYPE
  6
BYLAYER
  9
$CECOLOR
 62
   256
  9
$DIMSCALE
 40
1.0
  9
$DIMASZ
 40
2.2299999999999991
  9
$DIMEXO
 40
0.5
  9
$DIMDLI
 40
7.0
  9
$DIMRND
 40
0.0
  9
$DIMDLE
 40
0.0
  9
$DIMEXE
 40
1.0
  9
$DIMTP
 40
0.0
  9
$DIMTM
 40
0.01
  9
$DIMTXT
 40
2.799999999999998
  9
$DIMCEN
 40
0.0
  9
$DIMTSZ
 40
0.0
  9
$DIMTOL
 70
     0
  9
$DIMLIM
 70
     0
  9
$DIMTIH
 70
     0
  9
$DIMTOH
 70
     0
  9
$DIMSE1
 70
     0
  9
$DIMSE2
 70
     0
  9
$DIMTAD
 70
     3
  9
$DIMZIN
 70
     9
  9
$DIMBLK
  1
OPEN
  9
$DIMASO
 70
     1
  9
$DIMSHO
 70
     1
  9
$DIMPOST
  1

  9
$DIMAPOST
  1

  9
$DIMALT
 70
     0
  9
$DIMALTD
 70
     2
  9
$DIMALTF
 40
25.399999999999999
  9
$DIMLFAC
 40
1.0
  9
$DIMTOFL
 70
     1
  9
$DIMTVP
 40
0.0
  9
$DIMTIX
 70
     1
  9
$DIMSOXD
 70
     0
  9
$DIMSAH
 70
     0
  9
$DIMBLK1
  1

  9
$DIMBLK2
  1

  9
$DIMSTYLE
  2
BIGT
  9
$DIMCLRD
 70
   256
  9
$DIMCLRE
 70
   256
  9
$DIMCLRT
 70
    40
  9
$DIMTFAC
 40
1.0
  9
$DIMGAP
 40
1.0
  9
$LUNITS
 70
     2
  9
$LUPREC
 70
     6
  9
$SKETCHINC
 40
1.0
  9
$FILLETRAD
 40
0.0
  9
$AUNITS
 70
     0
  9
$AUPREC
 70
     6
  9
$MENU
  1
.
  9
$ELEVATION
 40
0.0
  9
$PELEVATION
 40
0.0
  9
$THICKNESS
 40
0.0
  9
$LIMCHECK
 70
     0
  9
$BLIPMODE
 70
     0
  9
$CHAMFERA
 40
0.2
  9
$CHAMFERB
 40
0.2
  9
$SKPOLY
 70
     0
  9
$TDCREATE
 40
2457865.4095620601
  9
$TDUPDATE
 40
2457876.6627768292
  9
$TDINDWG
 40
0.0136297685
  9
$TDUSRTIMER
 40
0.0136297338
  9
$USRTIMER
 70
     1
  9
$ANGBASE
 50
0.0
  9
$ANGDIR
 70
     0
  9
$PDMODE
 70
     1
  9
$PDSIZE
 40
0.0
  9
$PLINEWID
 40
0.0
  9
$COORDS
 70
     1
  9
$SPLFRAME
 70
     0
  9
$SPLINETYPE
 70
     6
  9
$SPLINESEGS
 70
     4
  9
$ATTDIA
 70
     1
  9
$ATTREQ
 70
     1
  9
$HANDLING
 70
     1
  9
$HANDSEED
  5
4825
  9
$SURFTAB1
 70
     6
  9
$SURFTAB2
 70
     6
  9
$SURFTYPE
 70
     6
  9
$SURFU
 70
     6
  9
$SURFV
 70
     6
  9
$UCSNAME
  2

  9
$UCSORG
 10
0.0
 20
0.0
 30
0.0
  9
$UCSXDIR
 10
1.0
 20
0.0
 30
0.0
  9
$UCSYDIR
 10
0.0
 20
1.0
 30
0.0
  9
$PUCSNAME
  2

  9
$PUCSORG
 10
0.0
 20
0.0
 30
0.0
  9
$PUCSXDIR
 10
1.0
 20
0.0
 30
0.0
  9
$PUCSYDIR
 10
0.0
 20
1.0
 30
0.0
  9
$USERI1
 70
     1
  9
$USERI2
 70
     0
  9
$USERI3
 70
     0
  9
$USERI4
 70
     0
  9
$USERI5
 70
     0
  9
$USERR1
 40
0.0
  9
$USERR2
 40
0.0
  9
$USERR3
 40
0.0
  9
$USERR4
 40
0.0
  9
$USERR5
 40
0.0
  9
$WORLDVIEW
 70
     1
  9
$SHADEDGE
 70
     3
  9
$SHADEDIF
 70
    70
  9
$TILEMODE
 70
     1
  9
$MAXACTVP
 70
    16
  9
$PLIMCHECK
 70
     0
  9
$PEXTMIN
 10
1.0000000000000000E+020
 20
1.0000000000000000E+020
 30
1.0000000000000000E+020
  9
$PEXTMAX
 10
-1.0000000000000000E+020
 20
-1.0000000000000000E+020
 30
-1.0000000000000000E+020
  9
$PLIMMIN
 10
0.0
 20
0.0
  9
$PLIMMAX
 10
420.0
 20
297.0
  9
$UNITMODE
 70
     0
  9
$VISRETAIN
 70
     1
  9
$PLINEGEN
 70
     0
  9
$PSLTSCALE
 70
     1
  0
ENDSEC
  0
SECTION
  2
TABLES
  0
TABLE
  2
VPORT
 70
     1
  0
VPORT
  2
*ACTIVE
 70
     0
 10
0.0
 20
0.0
 11
1.0
 21
1.0
 12
61.236987582464081
 22
20.01450819257968
 13
0.0
 23
0.0
 14
7.0
 24
7.0
 15
7.0
 25
7.0
 16
0.0
 26
0.0
 36
1.0
 17
0.0
 27
0.0
 37
0.0
 40
176.37034499642829
 41
1.747512437810945
 42
50.0
 43
0.0
 44
0.0
 50
0.0
 51
0.0
 71
     0
 72
  2000
 73
     1
 74
     0
 75
     0
 76
     1
 77
     0
 78
     0
  0
ENDTAB
  0
TABLE
  2
LTYPE
 70
    20
  0
LTYPE
  2
CONTINUOUS
 70
     0
  3
Solid line
 72
    65
 73
     0
 40
0.0
  0
LTYPE
  2
CENTER2
 70
     0
  3
___ _ ___ _ ___ _ ___ _ ___ _ ___ _ ___ _ ___ _
 72
    65
 73
     4
 40
1.125
 49
0.75
 49
-0.125
 49
0.125
 49
-0.125
  0
LTYPE
  2
HIDDEN2
 70
     0
  3
_ _ _ _ _ _ _ _ _ _ _ _ _ _ _ _ _ _ _ _ _ _ _ _
 72
    65
 73
     2
 40
0.1875
 49
0.125
 49
-0.0625
  0
LTYPE
  2
AM_ISO02W050
 70
     0
  3
__ __ __ __ __ __ __ __ __ __ __ __ __ __ __
 72
    65
 73
     2
 40
7.5
 49
6.0
 49
-1.5
  0
LTYPE
  2
AMCONSTR
 70
     0
  3
_______________________
 72
    65
 73
     2
 40
9999.0
 49
9999.0
 49
0.0
  0
LTYPE
  2
ACISOWELD
 70
     0
  3
_ _ _ _ _
 72
    65
 73
     2
 40
2.0
 49
2.0
 49
-1.0
  0
LTYPE
  2
ACISOTGB
 70
     0
  3
__ . . __ . .
 72
    65
 73
     6
 40
9.0
 49
4.0
 49
-1.0
 49
1.0
 49
-1.0
 49
1.0
 49
-1.0
  0
LTYPE
  2
ACISOTGL
 70
     0
  3
_ _ _ _ _
 72
    65
 73
     2
 40
3.0
 49
2.0
 49
-1.0
  0
LTYPE
  2
AM_ISO08W050
 70
     0
  3
____ . ____ . ____ . ____ . ____ . ____ . ____
 72
    65
 73
     4
 40
18.0
 49
12.0
 49
-1.5
 49
3.0
 49
-1.5
  0
LTYPE
  2
AM_ISO09W050
 70
     0
  3
_____ . . _____ . . _____ . . ____ .. ____
 72
    65
 73
     6
 40
22.5
 49
12.0
 49
-1.5
 49
3.0
 49
-1.5
 49
3.0
 49
-1.5
  0
LTYPE
  2
AM_ISO08W050X2
 70
     0
  3
__ . __ . __ . __ . __ . __
 72
    65
 73
     4
 40
9.0
 49
6.0
 49
-0.75
 49
1.5
 49
-0.75
  0
LTYPE
  2
AM_ISO02W050X2
 70
     0
  3
 _ _ _ _ _ _ _ _ _ _ _ _
 72
    65
 73
     2
 40
3.75
 49
3.0
 49
-0.75
  0
LTYPE
  2
AMZIGZAG
 70
     0
  3
/\/-/\/-/\/-/\/-/\/-/\/
 72
    65
 73
     2
 40
11.0001
 49
0.0001
 49
-11.0
  0
LTYPE
  2
HIDDEN
 70
     0
  3
Hidden __ __ __ __ __ __ __ __ __ __ __ __ __ _
 72
    65
 73
     2
 40
0.375
 49
0.25
 49
-0.125
  0
LTYPE
  2
PHANTOM2
 70
     0
  3
Phantom (.5x) ___ _ _ ___ _ _ ___ _ _ ___ _ _
 72
    65
 73
     6
 40
1.25
 49
0.625
 49
-0.125
 49
0.125
 49
-0.125
 49
0.125
 49
-0.125
  0
LTYPE
  2
CENTER
 70
     0
  3
Center ____ _ ____ _ ____ _ ____ _ ____ _ ____
 72
    65
 73
     4
 40
2.0
 49
1.25
 49
-0.25
 49
0.25
 49
-0.25
  0
LTYPE
  2
AMZIGZAG2
 70
     0
  3
/\/-/\/-/\/-/\/-/\/-/\/
 72
    65
 73
     2
 40
0.4401
 49
0.0001
 49
-0.4400000000000001
  0
LTYPE
  2
ACANSTGB
 70
     0
  3
__ . . __ . .
 72
    65
 73
     6
 40
0.35433070866
 49
0.15748031496
 49
-0.03937007874
 49
0.03937007874
 49
-0.03937007874
 49
0.03937007874
 49
-0.03937007874
  0
LTYPE
  2
ACANSTGL
 70
     0
  3
_ _ _ _ _
 72
    65
 73
     2
 40
0.11811023622
 49
0.07874015748
 49
-0.03937007874
  0
ENDTAB
  0
TABLE
  2
LAYER
 70
    10
  0
LAYER
  2
0
 70
     0
 62
     7
  6
CONTINUOUS
  0
LAYER
  2
240
 70
     0
 62
     4
  6
CONTINUOUS
  0
LAYER
  2
DEFPOINTS
 70
     0
 62
     7
  6
CONTINUOUS
  0
LAYER
  2
245
 70
     0
 62
     2
  6
CENTER2
  0
LAYER
  2
241
 70
     0
 62
   211
  6
CONTINUOUS
  0
LAYER
  2
242
 70
     0
 62
     3
  6
CONTINUOUS
  0
LAYER
  2
243
 70
     0
 62
   211
  6
HIDDEN2
  0
LAYER
  2
247
 70
     0
 62
    60
  6
CONTINUOUS
  0
LAYER
  2
250
 70
     0
 62
     3
  6
CONTINUOUS
  0
ENDTAB
  0
TABLE
  2
STYLE
 70
     7
  0
STYLE
  2
STANDARD
 70
     0
 40
0.0
 41
1.0
 50
0.0
 71
     0
 42
3.0
  3
romans.shx
  4
extfont.shx
  0
STYLE
  2
YOKO
 70
     0
 40
0.0
 41
1.0
 50
0.0
 71
     0
 42
3.0
  3
romans.shx
  4
extfont.shx
  0
STYLE
  2
ACISOGDT
 70
     0
 40
0.0
 41
1.0
 50
0.0
 71
     0
 42
3.0
  3
amgdt.shx
  4
extfont.shx
  0
STYLE
  2

 70
     1
 40
0.0
 41
1.0
 50
0.0
 71
     0
 42
3.0
  3
genltshp.shx
  4

  0
STYLE
  2
ACANSGDT
 70
     0
 40
0.0
 41
1.0
 50
0.0
 71
     0
 42
3.0
  3
amgdt.shx
  4

  0
ENDTAB
  0
TABLE
  2
VIEW
 70
     0
  0
ENDTAB
  0
TABLE
  2
UCS
 70
     0
  0
ENDTAB
  0
TABLE
  2
APPID
 70
    40
  0
APPID
  2
ACAD
 70
     0
  0
APPID
  2
ACADANNOTATIVE
 70
     0
  0
APPID
  2
GLOBAL
 70
     0
  0
APPID
  2
DETAIL
 70
     0
  0
APPID
  2
GRPNAME
 70
     0
  0
APPID
  2
GPARA
 70
     0
  0
APPID
  2
MCAD_NO_VIS
 70
     0
  0
APPID
  2
ACAD_TEMP_GRAPHIC
 70
     0
  0
APPID
  2
ACATTRIBSERVICES
 70
     0
  0
APPID
  2
GENIUS_GENSCREG_15
 70
     0
  0
APPID
  2
GENIUS_GENODEF_13
 70
     0
  0
APPID
  2
GENIUS_GENOBJ-N-SDF_13
 70
     0
  0
APPID
  2
GENIUS_GENREC_14
 70
     0
  0
APPID
  2
GENIUS_GENOBJ-N-REC_13
 70
     0
  0
APPID
  2
GENIUS_GENDIMSH_14
 70
     0
  0
APPID
  2
GENIUS_GENOBJ-N-DIM_13
 70
     0
  0
APPID
  2
GENIUS_GENDIM_13
 70
     0
  0
APPID
  2
GENIUS_GENDTOL_13
 70
     0
  0
APPID
  2
GENIUS_GENOLIS_13
 70
     0
  0
APPID
  2
GENIUS_GENOENT_13
 70
     0
  0
APPID
  2
GENIUS_GENOBJ-F-FEM_13
 70
     0
  0
APPID
  2
GENIUS_GENOREF_13
 70
     0
  0
APPID
  2
GENIUS_GEFFEM_13
 70
     0
  0
APPID
  2
GENIUS_GEFFEMP_13
 70
     0
  0
APPID
  2
AD_DRAW
 70
     0
  0
APPID
  2
DESIGNERASSEMBLIES
 70
     0
  0
APPID
  2
ACADM_DIM_EDIT
 70
     0
  0
APPID
  2
AMDT_DM_ADJ
 70
     0
  0
APPID
  2
ITEMNAME
 70
     0
  0
APPID
  2
GENIUS_GENOBJ-N-FIL_13
 70
     0
  0
APPID
  2
GENIUS_GENFIL_13
 70
     0
  0
APPID
  2
GENIUS_GENOBJ-N-CHA_13
 70
     0
  0
APPID
  2
ACAECLAYERSTANDARD
 70
     0
  0
APPID
  2
ACAD_NAV_VCDISPLAY
 70
     0
  0
APPID
  2
ACAD_DSTYLE_DIMJAG
 70
     0
  0
APPID
  2
ACAD_DSTYLE_DIMBREAK
 70
     0
  0
APPID
  2
ACAD_MLEADERVER
 70
     0
  0
APPID
  2
ACAD_EXEMPT_FROM_CAD_STANDARDS
 70
     0
  0
APPID
  2
ACAD_PSEXT
 70
     0
  0
APPID
  2
ACAD_DSTYLE_DIMTALN
 70
     0
  0
ENDTAB
  0
TABLE
  2
DIMSTYLE
 70
    19
  0
DIMSTYLE
  2
STANDARD
 70
     0
  3

  4

  5

  6

  7

 40
1.0
 41
0.18
 42
0.0625
 43
0.38
 44
0.18
 45
0.0
 46
0.0
 47
0.0
 48
0.0
140
0.18
141
0.09
142
0.0
143
25.399999999999999
144
1.0
145
0.0
146
1.0
147
0.09
 71
     0
 72
     0
 73
     1
 74
     1
 75
     0
 76
     0
 77
     0
 78
     0
170
     0
171
     2
172
     0
173
     0
174
     0
175
     0
176
     0
177
     0
178
     0
  0
DIMSTYLE
  2
BIGT
 70
     0
  3

  4

  5

  6

  7

 40
1.0
 41
2.2299999999999991
 42
0.5
 43
7.0
 44
1.0
 45
0.0
 46
0.0
 47
0.0
 48
0.01
140
2.799999999999998
141
0.0
142
0.0
143
25.399999999999999
144
1.0
145
0.0
146
1.0
147
1.0
 71
     0
 72
     0
 73
     0
 74
     0
 75
     0
 76
     0
 77
     3
 78
     9
170
     0
171
     2
172
     1
173
     0
174
     1
175
     0
176
   256
177
   256
178
    40
  0
DIMSTYLE
  2
AM_ISO
 70
     0
  3

  4
"
  5

  6

  7

 40
1.0
 41
2.5
 42
1.0
 43
10.0
 44
1.0
 45
0.0
 46
0.0
 47
0.1
 48
0.1
140
3.5
141
0.0
142
0.0
143
0.0393701
144
1.0
145
0.0
146
0.71
147
1.5
 71
     0
 72
     0
 73
     0
 74
     0
 75
     0
 76
     0
 77
     1
 78
     8
170
     0
171
     2
172
     1
173
     0
174
     0
175
     0
176
   256
177
   256
178
     2
  0
DIMSTYLE
  2
AM_ISO$3
 70
     0
  3

  4
"
  5

  6

  7

 40
1.0
 41
2.5
 42
1.0
 43
10.0
 44
1.0
 45
0.0
 46
0.0
 47
0.1
 48
0.1
140
3.5
141
0.0
142
0.0
143
0.0393701
144
1.0
145
0.0
146
0.71
147
1.5
 71
     0
 72
     0
 73
     0
 74
     1
 75
     0
 76
     0
 77
     1
 78
     8
170
     0
171
     2
172
     0
173
     0
174
     0
175
     0
176
   256
177
   256
178
     2
  0
DIMSTYLE
  2
AM_ISO$4
 70
     0
  3

  4
"
  5

  6

  7

 40
1.0
 41
2.5
 42
1.0
 43
10.0
 44
1.0
 45
0.0
 46
0.0
 47
0.1
 48
0.1
140
3.5
141
0.0
142
0.0
143
0.0393701
144
1.0
145
0.0
146
0.71
147
1.5
 71
     0
 72
     0
 73
     0
 74
     1
 75
     0
 76
     0
 77
     1
 78
     8
170
     0
171
     2
172
     0
173
     0
174
     0
175
     0
176
   256
177
   256
178
     2
  0
DIMSTYLE
  2
AM_ISO$6
 70
     0
  3

  4
"
  5

  6

  7

 40
1.0
 41
2.5
 42
1.0
 43
10.0
 44
1.0
 45
0.0
 46
0.0
 47
0.1
 48
0.1
140
3.5
141
0.0
142
0.0
143
0.0393701
144
1.0
145
0.0
146
0.71
147
1.5
 71
     0
 72
     0
 73
     0
 74
     0
 75
     0
 76
     0
 77
     0
 78
     8
170
     0
171
     2
172
     1
173
     0
174
     0
175
     0
176
   256
177
   256
178
     2
  0
DIMSTYLE
  2
AM_ISO$7
 70
     0
  3

  4
"
  5

  6

  7

 40
1.0
 41
2.5
 42
1.0
 43
10.0
 44
1.0
 45
0.0
 46
0.0
 47
0.1
 48
0.1
140
5.0
141
0.0
142
0.0
143
0.0393701
144
1.0
145
0.0
146
0.71
147
1.5
 71
     0
 72
     0
 73
     0
 74
     0
 75
     0
 76
     0
 77
     1
 78
     8
170
     0
171
     2
172
     1
173
     0
174
     0
175
     0
176
   256
177
   256
178
     2
  0
DIMSTYLE
  2
AM_ISO$SF
 70
     0
  3

  4
"
  5

  6

  7

 40
1.0
 41
2.5
 42
1.0
 43
10.0
 44
1.0
 45
0.0
 46
0.0
 47
0.1
 48
0.1
140
3.5
141
0.0
142
0.0
143
0.0393701
144
1.0
145
0.0
146
0.71
147
1.5
 71
     0
 72
     0
 73
     0
 74
     0
 75
     1
 76
     1
 77
     1
 78
     8
170
     0
171
     2
172
     1
173
     0
174
     0
175
     0
176
   256
177
   256
178
     2
  0
DIMSTYLE
  2
AM_ISO$SH
 70
     0
  3

  4
"
  5

  6

  7

 40
1.0
 41
2.5
 42
1.0
 43
10.0
 44
1.0
 45
0.0
 46
0.0
 47
0.1
 48
0.1
140
3.5
141
0.0
142
0.0
143
0.0393701
144
2.0
145
0.0
146
0.71
147
1.5
 71
     0
 72
     0
 73
     0
 74
     0
 75
     1
 76
     1
 77
     1
 78
     8
170
     0
171
     2
172
     1
173
     1
174
     0
175
     0
176
   256
177
   256
178
     2
  0
DIMSTYLE
  2
AM_ANSI
 70
     0
  3

  4
mm
  5

  6

  7

 40
1.0
 41
0.12
 42
0.05
 43
0.5
 44
0.1
 45
0.0
 46
0.0
 47
0.1
 48
0.1
140
0.12
141
0.0
142
0.0
143
25.399999999999999
144
1.0
145
0.0
146
0.71
147
0.06
 71
     0
 72
     0
 73
     1
 74
     1
 75
     0
 76
     0
 77
     0
 78
     7
170
     0
171
     2
172
     0
173
     0
174
     0
175
     0
176
   256
177
   256
178
     2
  0
DIMSTYLE
  2
AM_ANSI$3
 70
     0
  3

  4
mm
  5

  6

  7

 40
1.0
 41
0.12
 42
0.05
 43
0.5
 44
0.1
 45
0.0
 46
0.0
 47
0.1
 48
0.1
140
0.12
141
0.0
142
0.0
143
25.399999999999999
144
1.0
145
0.0
146
0.71
147
0.06
 71
     0
 72
     0
 73
     1
 74
     1
 75
     0
 76
     0
 77
     0
 78
     7
170
     0
171
     2
172
     0
173
     0
174
     0
175
     0
176
   256
177
   256
178
     2
  0
DIMSTYLE
  2
AM_ANSI$4
 70
     0
  3

  4
mm
  5

  6

  7

 40
1.0
 41
0.12
 42
0.05
 43
0.5
 44
0.1
 45
0.0
 46
0.0
 47
0.1
 48
0.1
140
0.12
141
0.0
142
0.0
143
25.399999999999999
144
1.0
145
0.0
146
0.71
147
0.06
 71
     0
 72
     0
 73
     1
 74
     1
 75
     0
 76
     0
 77
     0
 78
     7
170
     0
171
     2
172
     0
173
     0
174
     0
175
     0
176
   256
177
   256
178
     2
  0
DIMSTYLE
  2
AM_ANSI$7
 70
     0
  3

  4
mm
  5

  6

  7

 40
1.0
 41
0.12
 42
0.05
 43
0.5
 44
0.1
 45
0.0
 46
0.0
 47
0.1
 48
0.1
140
0.12
141
0.0
142
0.0
143
25.399999999999999
144
1.0
145
0.0
146
0.71
147
0.06
 71
     0
 72
     0
 73
     1
 74
     1
 75
     0
 76
     0
 77
     0
 78
     7
170
     0
171
     2
172
     0
173
     0
174
     0
175
     0
176
   256
177
   256
178
     2
  0
DIMSTYLE
  2
AM_ANSI$SF
 70
     0
  3

  4
mm
  5

  6

  7

 40
1.0
 41
0.12
 42
0.05
 43
0.5
 44
0.1
 45
0.0
 46
0.0
 47
0.1
 48
0.1
140
0.12
141
0.0
142
0.0
143
25.399999999999999
144
1.0
145
0.0
146
0.71
147
0.06
 71
     0
 72
     0
 73
     1
 74
     1
 75
     1
 76
     1
 77
     0
 78
     7
170
     0
171
     2
172
     0
173
     0
174
     0
175
     0
176
   256
177
   256
178
     2
  0
DIMSTYLE
  2
AM_ANSI$SH
 70
     0
  3

  4
mm
  5

  6
GENAXEH
  7

 40
1.0
 41
0.12
 42
0.05
 43
0.5
 44
0.1
 45
0.0
 46
0.0
 47
0.1
 48
0.1
140
0.12
141
0.0
142
0.0
143
25.399999999999999
144
1.0
145
0.0
146
0.71
147
0.06
 71
     0
 72
     0
 73
     1
 74
     1
 75
     1
 76
     1
 77
     0
 78
     7
170
     0
171
     2
172
     0
173
     1
174
     0
175
     0
176
   256
177
   256
178
     2
  0
ENDTAB
  0
ENDSEC
  0
SECTION
  2
BLOCKS
  0
BLOCK
  8
0
  2
$MODEL_SPACE
 70
     0
 10
0.0
 20
0.0
 30
0.0
  3
$MODEL_SPACE
  1

  0
ENDBLK
  5
46B1
  8
0
  0
BLOCK
 67
     1
  8
0
  2
$PAPER_SPACE
 70
     0
 10
0.0
 20
0.0
 30
0.0
  3
$PAPER_SPACE
  1

  0
ENDBLK
  5
46AD
 67
     1
  8
0
  0
BLOCK
  8
0
  2
_OPEN
 70
     0
 10
0.0
 20
0.0
 30
0.0
  3
_OPEN
  1

  0
LINE
  5
3E1A
  8
0
  6
BYBLOCK
 62
     0
 10
-1.0
 20
0.1666666666666666
 30
0.0
 11
0.0
 21
0.0
 31
0.0
  0
LINE
  5
3E1B
  8
0
  6
BYBLOCK
 62
     0
 10
-1.0
 20
-0.1666666666666666
 30
0.0
 11
0.0
 21
0.0
 31
0.0
  0
LINE
  5
3E1C
  8
0
  6
BYBLOCK
 62
     0
 10
0.0
 20
0.0
 30
0.0
 11
-1.0
 21
0.0
 31
0.0
  0
ENDBLK
  5
3E1D
  8
0
  0
BLOCK
  8
0
  2
GENAXEH
 70
     0
 10
0.0
 20
0.0
 30
0.0
  3
GENAXEH
  1

  0
LINE
  5
3E45
  8
0
 10
-1.0
 20
0.0
 30
0.0
 11
1.0
 21
0.0
 31
0.0
  0
ENDBLK
  5
3E46
  8
0
  0
BLOCK
  8
0
  2
_ACMFILLEDHALF
 70
     0
 10
0.0
 20
0.0
 30
0.0
  3
_ACMFILLEDHALF
  1

  0
TRACE
  5
475C
  8
240
 62
     0
 10
-0.8
 20
0.0
 30
0.0
 11
-1.0
 21
0.166666666
 31
0.0
 12
0.0
 22
0.0
 32
0.0
 13
0.0
 23
0.0
 33
0.0
  0
LINE
  5
475D
  8
240
 62
     0
 10
-1.0
 20
0.0
 30
0.0
 11
-0.8
 21
0.0
 31
0.0
  0
ENDBLK
  5
475B
  8
0
  0
ENDSEC
  0
SECTION
  2
ENTITIES
  0
LINE
  5
42BD
  8
245
  6
CENTER2
 10
-33.00000000000005
 20
0.0
 30
0.0
 11
129.0
 21
0.0
 31
0.0
1001
GRPNAME
1000
PASTMD2U
  0
LINE
  5
42BE
  8
241
  6
CONTINUOUS
 10
14.622500929999971
 20
31.5
 30
0.0
 11
14.622500929999971
 21
24.336187050000039
 31
0.0
1001
GRPNAME
1000
PASTMD2W
  0
LINE
  5
42BF
  8
240
  6
CONTINUOUS
 10
16.124999999999972
 20
28.897595259999999
 30
0.0
 11
14.622500929999971
 21
31.5
 31
0.0
1001
GRPNAME
1000
PASTMD2W
  0
LINE
  5
42C0
  8
240
  6
CONTINUOUS
 10
19.874999999999972
 20
28.897595259999999
 30
0.0
 11
21.377499069999971
 21
31.5
 31
0.0
1001
GRPNAME
1000
PASTMD2W
  0
LINE
  5
42C1
  8
240
  6
CONTINUOUS
 10
-0.0000000000000284
 20
24.315000000207881
 30
0.0
 11
0.0000000000000284
 21
31.49999999999989
 31
0.0
1001
GRPNAME
1000
PASTMD2W
  0
LINE
  5
42C2
  8
243
  6
HIDDEN2
 10
4.999999999999968
 20
31.5
 30
0.0
 11
4.999999999999968
 21
26.5
 31
0.0
1001
GRPNAME
1000
PASTMD2W
  0
LINE
  5
42C4
  8
241
  6
CONTINUOUS
 10
21.377499069999971
 20
31.5
 30
0.0
 11
21.377499069999971
 21
24.336187050000039
 31
0.0
1001
GRPNAME
1000
PASTMD2W
  0
LINE
  5
42C5
  8
240
  6
CONTINUOUS
 10
-0.0000000000000284
 20
24.315000000207881
 30
0.0
 11
-32.000000000000121
 21
22.714999996881321
 31
0.0
1001
GRPNAME
1000
PASTMD2W
  0
LINE
  5
42C6
  8
240
  6
CONTINUOUS
 10
-0.0000000000000284
 20
-24.315000000207881
 30
0.0
 11
-32.00000000000005
 21
-22.714999996881492
 31
0.0
1001
GRPNAME
1000
PASTMD2W
  0
LINE
  5
42C7
  8
240
  6
CONTINUOUS
 10
-32.00000000000005
 20
-22.714999996881492
 30
0.0
 11
-32.00000000000005
 21
22.714999996881321
 31
0.0
1001
GRPNAME
1000
PASTMD2W
  0
LINE
  5
42C8
  8
241
  6
CONTINUOUS
 10
-0.0000000000000284
 20
-24.315000000207881
 30
0.0
 11
0.0
 21
24.315000000207849
 31
0.0
1001
GRPNAME
1000
PASTMD2W
  0
LINE
  5
42C9
  8
241
  6
CONTINUOUS
 10
25.999999999999972
 20
-31.0
 30
0.0
 11
25.999999999999972
 21
20.0
 31
0.0
  0
LINE
  5
42CA
  8
241
  6
CONTINUOUS
 10
14.622500929999971
 20
20.0
 30
0.0
 11
14.622500929999971
 21
-31.5
 31
0.0
1001
GRPNAME
1000
PASTMD2W
  0
LINE
  5
42CB
  8
241
  6
CONTINUOUS
 10
21.377499069999939
 20
20.0
 30
0.0
 11
21.377499069999971
 21
-31.5
 31
0.0
1001
GRPNAME
1000
PASTMD2W
  0
LINE
  5
42CC
  8
241
  6
CONTINUOUS
 10
16.124999999999972
 20
-27.5
 30
0.0
 11
16.124999999999972
 21
27.5
 31
0.0
1001
GRPNAME
1000
PASTMD2W
  0
LINE
  5
42CD
  8
241
  6
CONTINUOUS
 10
19.874999999999972
 20
-27.5
 30
0.0
 11
19.874999999999972
 21
27.5
 31
0.0
1001
GRPNAME
1000
PASTMD2W
  0
LINE
  5
42CE
  8
243
  6
HIDDEN2
 10
31.999999999999989
 20
-26.5
 30
0.0
 11
4.999999999999968
 21
-26.5
 31
0.0
1001
GRPNAME
1000
PASTMD2W
  0
LINE
  5
42CF
  8
240
  6
CONTINUOUS
 10
14.622500929999971
 20
-31.5
 30
0.0
 11
0.0000000000000284
 21
-31.499999999999861
 31
0.0
1001
GRPNAME
1000
PASTMD2W
  0
LINE
  5
42D0
  8
243
  6
HIDDEN2
 10
4.999999999999968
 20
-31.5
 30
0.0
 11
4.999999999999968
 21
-26.5
 31
0.0
1001
GRPNAME
1000
PASTMD2W
  0
LINE
  5
42D1
  8
240
  6
CONTINUOUS
 10
-0.0000000000000284
 20
-24.315000000207881
 30
0.0
 11
0.0000000000000284
 21
-31.499999999999861
 31
0.0
1001
GRPNAME
1000
PASTMD2W
  0
LINE
  5
42D2
  8
240
  6
CONTINUOUS
 10
19.874999999999972
 20
-27.5
 30
0.0
 11
16.124999999999972
 21
-27.5
 31
0.0
1001
GRPNAME
1000
PASTMD2W
  0
LINE
  5
42D3
  8
240
  6
CONTINUOUS
 10
16.124999999999972
 20
-27.5
 30
0.0
 11
16.124999999999972
 21
-28.897595259999999
 31
0.0
1001
GRPNAME
1000
PASTMD2W
  0
LINE
  5
42D4
  8
240
  6
CONTINUOUS
 10
16.124999999999972
 20
-28.897595259999999
 30
0.0
 11
14.622500929999971
 21
-31.5
 31
0.0
1001
GRPNAME
1000
PASTMD2W
  0
LINE
  5
42D6
  8
240
  6
CONTINUOUS
 10
19.874999999999972
 20
-27.5
 30
0.0
 11
19.874999999999972
 21
-28.897595259999999
 31
0.0
1001
GRPNAME
1000
PASTMD2W
  0
LINE
  5
42D7
  8
240
  6
CONTINUOUS
 10
25.50000000000033
 20
-31.499999999999549
 30
0.0
 11
21.377499069999971
 21
-31.5
 31
0.0
1001
GRPNAME
1000
PASTMD2W
  0
LINE
  5
42D8
  8
240
  6
CONTINUOUS
 10
19.874999999999972
 20
-28.897595259999999
 30
0.0
 11
21.377499069999971
 21
-31.5
 31
0.0
1001
GRPNAME
1000
PASTMD2W
  0
LINE
  5
42D9
  8
243
  6
HIDDEN2
 10
31.999999999999989
 20
26.5
 30
0.0
 11
4.999999999999968
 21
26.5
 31
0.0
1001
GRPNAME
1000
PASTMD2W
  0
ARC
  5
42DA
  8
241
  6
CONTINUOUS
 10
12.11171389999998
 20
16.336187050000031
 30
0.0
 40
8.0
 50
89.999999989999736
 51
152.74338068000031
1001
GRPNAME
1000
PASTMD2W
  0
LINE
  5
42DB
  8
241
  6
CONTINUOUS
 10
16.124999999999972
 20
20.0
 30
0.0
 11
4.999999999999968
 21
20.0
 31
0.0
1001
GRPNAME
1000
PASTMD2W
  0
LINE
  5
42DC
  8
240
  6
CONTINUOUS
 10
19.874999999999972
 20
27.5
 30
0.0
 11
16.124999999999972
 21
27.5
 31
0.0
1001
GRPNAME
1000
PASTMD2W
  0
LINE
  5
42DD
  8
241
  6
CONTINUOUS
 10
14.622500929999971
 20
24.336187050000039
 30
0.0
 11
16.124999999999972
 21
20.85835593000002
 31
0.0
1001
GRPNAME
1000
PASTMD2W
  0
LINE
  5
42DE
  8
241
  6
CONTINUOUS
 10
14.622500929999971
 20
24.336187050000039
 30
0.0
 11
12.11171389999998
 21
24.336187050000039
 31
0.0
1001
GRPNAME
1000
PASTMD2W
  0
LINE
  5
42DF
  8
240
  6
CONTINUOUS
 10
16.124999999999972
 20
27.5
 30
0.0
 11
16.124999999999972
 21
28.897595259999999
 31
0.0
1001
GRPNAME
1000
PASTMD2W
  0
LINE
  5
42E0
  8
241
  6
CONTINUOUS
 10
21.377499069999971
 20
24.336187050000039
 30
0.0
 11
19.874999999999972
 21
20.85835593000002
 31
0.0
1001
GRPNAME
1000
PASTMD2W
  0
LINE
  5
42E1
  8
241
  6
CONTINUOUS
 10
31.999999999996071
 20
20.0
 30
0.0
 11
19.874999999999972
 21
20.0
 31
0.0
1001
GRPNAME
1000
PASTMD2W
  0
LINE
  5
42E2
  8
241
  6
CONTINUOUS
 10
25.499999999999961
 20
24.336187050000039
 30
0.0
 11
21.377499069999971
 21
24.336187050000039
 31
0.0
1001
GRPNAME
1000
PASTMD2W
  0
LINE
  5
42E3
  8
240
  6
CONTINUOUS
 10
19.874999999999972
 20
27.5
 30
0.0
 11
19.874999999999972
 21
28.897595259999999
 31
0.0
1001
GRPNAME
1000
PASTMD2W
  0
LINE
  5
42E4
  8
240
  6
CONTINUOUS
 10
14.622500929999971
 20
31.5
 30
0.0
 11
0.0000000000000284
 21
31.49999999999989
 31
0.0
1001
GRPNAME
1000
PASTMD2W
  0
LINE
  5
42E5
  8
240
  6
CONTINUOUS
 10
25.499999999999432
 20
31.499999999999641
 30
0.0
 11
21.377499069999971
 21
31.5
 31
0.0
1001
GRPNAME
1000
PASTMD2W
  0
LINE
  5
42E6
  8
243
  6
HIDDEN2
 10
-18.996025403784671
 20
-17.00000000000011
 30
0.0
 11
-32.000000000000092
 21
-17.00000000000011
 31
0.0
1001
GRPNAME
1000
PASTMD2W
  0
LINE
  5
42E7
  8
243
  6
HIDDEN2
 10
-22.000000000000139
 20
-23.215000000000249
 30
0.0
 11
-22.000000000000139
 21
-17.00000000000011
 31
0.0
1001
GRPNAME
1000
PASTMD2W
  0
LINE
  5
42E8
  8
243
  6
HIDDEN2
 10
-6.2449979983984178
 20
-20.00000000000011
 30
0.0
 11
-17.263974596215721
 21
-20.0
 31
0.0
1001
GRPNAME
1000
PASTMD2W
  0
LINE
  5
42E9
  8
243
  6
HIDDEN2
 10
-18.996025403784671
 20
-17.00000000000011
 30
0.0
 11
-17.263974596215721
 21
-20.0
 31
0.0
1001
GRPNAME
1000
PASTMD2W
  0
LINE
  5
42EA
  8
245
  6
CENTER2
 10
-8.9999999999999112
 20
-18.00000000000011
 30
0.0
 11
-8.9999999999999112
 21
-25.86500000000024
 31
0.0
  0
LINE
  5
42EB
  8
243
  6
HIDDEN2
 10
-12.749999999999909
 20
-20.00000000000011
 30
0.0
 11
-12.749999999999909
 21
-23.67750000000024
 31
0.0
  0
ARC
  5
42EC
  8
243
  6
HIDDEN2
 10
-6.2449979983984178
 20
-12.0
 30
0.0
 40
8.0000000000001101
 50
269.99999996141401
 51
321.31781250792199
1001
GRPNAME
1000
PASTMD2W
  0
LINE
  5
42ED
  8
243
  6
HIDDEN2
 10
-5.2499999999999121
 20
-20.00000000000011
 30
0.0
 11
-5.2499999999999121
 21
-24.05250000000024
 31
0.0
  0
LINE
  5
42EE
  8
243
  6
HIDDEN2
 10
-18.996025403784561
 20
17.0
 30
0.0
 11
-31.99999999999989
 21
17.0
 31
0.0
1001
GRPNAME
1000
PASTMD2W
  0
LINE
  5
42EF
  8
243
  6
HIDDEN2
 10
-25.999999999999918
 20
23.014999999999869
 30
0.0
 11
-25.999999999999918
 21
17.0
 31
0.0
1001
GRPNAME
1000
PASTMD2W
  0
ARC
  5
42F0
  8
243
  6
HIDDEN2
 10
-6.2449979983984178
 20
12.0
 30
0.0
 40
7.9999999999998144
 50
38.682187201645299
 51
89.999999748157876
1001
GRPNAME
1000
PASTMD2W
  0
LINE
  5
42F1
  8
243
  6
HIDDEN2
 10
-18.996025403784561
 20
17.0
 30
0.0
 11
-17.26397459621478
 21
20.00000000000006
 31
0.0
1001
GRPNAME
1000
PASTMD2W
  0
LINE
  5
42F2
  8
245
  6
CENTER2
 10
-8.9999999999999112
 20
25.864999999999789
 30
0.0
 11
-8.9999999999999112
 21
18.0
 31
0.0
  0
LINE
  5
42F3
  8
243
  6
HIDDEN2
 10
-6.2449979983983042
 20
20.0
 30
0.0
 11
-17.26397459621478
 21
20.00000000000006
 31
0.0
1001
GRPNAME
1000
PASTMD2W
  0
LINE
  5
42F4
  8
243
  6
HIDDEN2
 10
-12.749999999999909
 20
23.677499999999789
 30
0.0
 11
-12.749999999999909
 21
20.0
 31
0.0
  0
LINE
  5
42F5
  8
243
  6
HIDDEN2
 10
-5.2499999999999121
 20
24.052499999999789
 30
0.0
 11
-5.2499999999999121
 21
20.0
 31
0.0
  0
LINE
  5
42F6
  8
247
  6
CONTINUOUS
 10
6.499999999999968
 20
-17.250000000070031
 30
0.0
 11
6.499999999999968
 21
-10.557692308030029
 31
0.0
  0
ARC
  5
42F7
  8
247
  6
CONTINUOUS
 10
4.7500000000699441
 20
-17.250000000070031
 30
0.0
 40
1.7499999999299991
 50
180.0
 51
0.0
  0
ARC
  5
42F8
  8
247
  6
CONTINUOUS
 10
4.7500000000699441
 20
-10.557692308030029
 30
0.0
 40
1.7499999999299991
 50
0.0
 51
180.0
  0
LINE
  5
42F9
  8
247
  6
CONTINUOUS
 10
3.000000000139976
 20
-16.38461538472
 30
0.0
 11
6.0000000000199769
 21
-17.244851541962021
 31
0.0
  0
LINE
  5
42FA
  8
247
  6
CONTINUOUS
 10
4.4230769231599822
 20
-15.48498381833582
 30
0.0
 11
4.4230769231599822
 21
-16.792676125975841
 31
0.0
  0
ARC
  5
42FB
  8
247
  6
CONTINUOUS
 10
3.5495986677029521
 20
-15.14514381608978
 30
0.0
 40
0.5538165441895349
 50
72.997889675291773
 51
172.92416621851359
  0
ARC
  5
42FC
  8
247
  6
CONTINUOUS
 10
3.4360330444657441
 20
-15.56687832302879
 30
0.0
 40
0.9904354236226808
 50
4.7429368522022122
 51
73.849226273266297
1001
GENIUS_GENOBJ-N-FIL_13
1002
{
1000
OWNER
1000
GEN
1002
}
1001
GENIUS_GENODEF_13
1002
{
1000
HIER
1070
     0
1002
}
1002
{
1000
MANEDIT
1070
     0
1002
}
1002
{
1000
NOSEL
1070
     0
1002
}
1002
{
1000
BEHIND
1070
     0
1002
}
1002
{
1000
OTHER
1070
     0
1002
}
1002
{
1000
REACTOR
1002
}
  0
LINE
  5
42FD
  8
247
  6
CONTINUOUS
 10
6.0000000000199769
 20
-15.937159234321991
 30
0.0
 11
6.0000000000199769
 21
-17.244851541962021
 31
0.0
  0
LINE
  5
42FE
  8
247
  6
CONTINUOUS
 10
3.000000000139976
 20
-16.38461538472
 30
0.0
 11
3.000000000139976
 21
-15.07692307707998
 31
0.0
  0
ARC
  5
42FF
  8
247
  6
CONTINUOUS
 10
4.9820242326655091
 20
-15.56091963654694
 30
0.0
 40
0.5640818586791229
 50
65.990941652528889
 51
172.26344345906909
  0
ARC
  5
4300
  8
247
  6
CONTINUOUS
 10
4.9874290391865372
 20
-16.038262685347028
 30
0.0
 40
1.0176059446230981
 50
5.7019851642564632
 51
77.277338436822376
1001
GENIUS_GENOBJ-N-FIL_13
1002
{
1000
OWNER
1000
GEN
1002
}
1001
GENIUS_GENODEF_13
1002
{
1000
HIER
1070
     0
1002
}
1002
{
1000
MANEDIT
1070
     0
1002
}
1002
{
1000
NOSEL
1070
     0
1002
}
1002
{
1000
BEHIND
1070
     0
1002
}
1002
{
1000
OTHER
1070
     0
1002
}
1002
{
1000
REACTOR
1002
}
  0
LINE
  5
4301
  8
247
  6
CONTINUOUS
 10
6.0000000000199769
 20
-14.28331308054203
 30
0.0
 11
3.000000000139976
 21
-13.423076923300011
 31
0.0
  0
LINE
  5
4302
  8
247
  6
CONTINUOUS
 10
3.000000000139976
 20
-11.00000000032003
 30
0.0
 11
3.000000000139976
 21
-11.565736619456629
 31
0.0
  0
LINE
  5
4303
  8
247
  6
CONTINUOUS
 10
6.0000000000199769
 20
-12.461538461799989
 30
0.0
 11
6.0000000000199769
 21
-11.846153846440011
 31
0.0
  0
ARC
  5
4304
  8
247
  6
CONTINUOUS
 10
5.0832851359733411
 20
-10.708791209122859
 30
0.0
 40
2.2526500823422122
 50
202.35948814152559
 51
254.99324854284609
  0
ARC
  5
4305
  8
247
  6
CONTINUOUS
 10
3.808312655194495
 20
-11.37406947921323
 30
0.0
 40
0.8906723995727782
 50
94.994589319075317
 51
155.1663289573039
1001
GENIUS_GENOBJ-N-FIL_13
1002
{
1000
OWNER
1000
GEN
1002
}
1001
GENIUS_GENODEF_13
1002
{
1000
HIER
1070
     0
1002
}
1002
{
1000
MANEDIT
1070
     0
1002
}
1002
{
1000
NOSEL
1070
     0
1002
}
1002
{
1000
BEHIND
1070
     0
1002
}
1002
{
1000
OTHER
1070
     0
1002
}
1002
{
1000
REACTOR
1002
}
  0
ARC
  5
4306
  8
247
  6
CONTINUOUS
 10
4.6601458886677563
 20
-12.22645888621258
 30
0.0
 40
1.392781735586712
 50
15.846096555777221
 51
82.325137004169065
  0
ARC
  5
4307
  8
247
  6
CONTINUOUS
 10
4.9592434315272547
 20
-11.64221272584035
 30
0.0
 40
1.324563662670287
 50
249.7136016704969
 51
321.78874565640689
1001
GENIUS_GENOBJ-N-FIL_13
1002
{
1000
OWNER
1000
GEN
1002
}
1001
GENIUS_GENODEF_13
1002
{
1000
HIER
1070
     0
1002
}
1002
{
1000
MANEDIT
1070
     0
1002
}
1002
{
1000
NOSEL
1070
     0
1002
}
1002
{
1000
BEHIND
1070
     0
1002
}
1002
{
1000
OTHER
1070
     0
1002
}
1002
{
1000
REACTOR
1002
}
  0
LINE
  5
4308
  8
247
  6
CONTINUOUS
 10
4.8461538462199449
 20
-11.53846153875997
 30
0.0
 11
4.8461538462199449
 21
-10.84615384647998
 31
0.0
  0
LINE
  5
4309
  8
250
  6
CONTINUOUS
 10
-18.436872775073201
 20
-25.210403317106
 30
0.0
 11
-17.0
 21
-23.465000000000028
 31
0.0
  0
LINE
  5
430A
  8
250
  6
CONTINUOUS
 10
-17.793127224926788
 20
-25.582069983772669
 30
0.0
 11
-17.0
 21
-23.465000000000028
 31
0.0
  0
LINE
  5
430B
  8
250
  6
CONTINUOUS
 10
-17.0
 20
-23.465000000000028
 30
0.0
 11
-18.114999999999998
 21
-25.396236650439331
 31
0.0
  0
LINE
  5
430C
  8
250
  6
CONTINUOUS
 10
-18.114999999999998
 20
-25.396236650439331
 30
0.0
 11
-23.572223203118511
 21
-34.848424506484321
 31
0.0
  0
TEXT
  5
430D
  8
250
  6
CONTINUOUS
 10
-45.572223203118497
 20
-33.848424506484321
 30
0.0
 40
2.799999999999998
  1
HSK-T63
  7
YOKO
1001
ITEMNAME
1000
LNSP3
  0
LINE
  5
430E
  8
250
  6
CONTINUOUS
 10
-23.572223203118511
 20
-34.848424506484321
 30
0.0
 11
-47.838889869785127
 21
-34.848424506484321
 31
0.0
1001
ITEMNAME
1000
LNSP2
  0
LINE
  5
430F
  8
247
  6
CONTINUOUS
 10
3.0000000001399481
 20
-17.250000000070031
 30
0.0
 11
3.0000000001399481
 21
-16.576923077020009
 31
0.0
  0
LINE
  5
4391
  8
250
  6
CONTINUOUS
 10
50.999999999999972
 20
16.5
 30
0.0
 11
50.999999999999972
 21
43.0
 31
0.0
  0
LINE
  5
4392
  8
250
  6
CONTINUOUS
 10
125.0
 20
18.500000002044821
 30
0.0
 11
125.0
 21
43.0
 31
0.0
  0
LINE
  5
4393
  8
250
  6
CONTINUOUS
 10
53.229999999999961
 20
42.0
 30
0.0
 11
122.77
 21
42.0
 31
0.0
  0
LINE
  5
4394
  8
250
  6
CONTINUOUS
 10
53.229999999999983
 20
41.628333325899987
 30
0.0
 11
50.999999999999972
 21
42.0
 31
0.0
  0
LINE
  5
4395
  8
250
  6
CONTINUOUS
 10
53.229999999999983
 20
42.371666674099998
 30
0.0
 11
50.999999999999972
 21
42.0
 31
0.0
  0
LINE
  5
4396
  8
250
  6
CONTINUOUS
 10
50.999999999999972
 20
42.0
 30
0.0
 11
53.229999999999983
 21
42.0
 31
0.0
  0
LINE
  5
4397
  8
250
  6
CONTINUOUS
 10
122.77
 20
42.371666674099998
 30
0.0
 11
125.0
 21
42.0
 31
0.0
  0
LINE
  5
4398
  8
250
  6
CONTINUOUS
 10
122.77
 20
41.628333325899987
 30
0.0
 11
125.0
 21
42.0
 31
0.0
  0
LINE
  5
4399
  8
250
  6
CONTINUOUS
 10
125.0
 20
42.0
 30
0.0
 11
122.77
 21
42.0
 31
0.0
  0
TEXT
  5
439A
  8
250
  6
CONTINUOUS
 10
76.278979293333322
 20
43.0
 30
0.0
 40
2.799999999999998
  1
üimax.74üj
1001
ACAD
1000
MTEXTBEGIN
1070
    73
1070
     1
1070
    44
1040
1.0
1070
    74
1070
     0
1000
MTEXTEND
  0
LINE
  5
439B
  8
250
  6
CONTINUOUS
 10
-0.0000000000000141
 20
31.99999999999989
 30
0.0
 11
-0.000000000000013
 21
50.0
 31
0.0
  0
LINE
  5
439C
  8
250
  6
CONTINUOUS
 10
125.0
 20
18.500000002044821
 30
0.0
 11
125.0
 21
50.0
 31
0.0
  0
LINE
  5
439D
  8
250
  6
CONTINUOUS
 10
2.229999999999984
 20
49.0
 30
0.0
 11
122.77
 21
49.0
 31
0.0
  0
LINE
  5
439E
  8
250
  6
CONTINUOUS
 10
2.229999999999984
 20
48.628333325900002
 30
0.0
 11
-0.0000000000000131
 21
49.0
 31
0.0
  0
LINE
  5
439F
  8
250
  6
CONTINUOUS
 10
2.229999999999984
 20
49.371666674099998
 30
0.0
 11
-0.0000000000000131
 21
49.0
 31
0.0
  0
LINE
  5
43A0
  8
250
  6
CONTINUOUS
 10
-0.0000000000000131
 20
49.0
 30
0.0
 11
2.229999999999984
 21
49.0
 31
0.0
  0
LINE
  5
43A1
  8
250
  6
CONTINUOUS
 10
122.77
 20
49.371666674099998
 30
0.0
 11
125.0
 21
49.0
 31
0.0
  0
LINE
  5
43A2
  8
250
  6
CONTINUOUS
 10
122.77
 20
48.628333325900002
 30
0.0
 11
125.0
 21
49.0
 31
0.0
  0
LINE
  5
43A3
  8
250
  6
CONTINUOUS
 10
125.0
 20
49.0
 30
0.0
 11
122.77
 21
49.0
 31
0.0
  0
TEXT
  5
43A4
  8
250
  6
CONTINUOUS
 10
58.350348353601298
 20
50.0
 30
0.0
 40
2.799999999999998
  1
125
1001
ACAD
1000
MTEXTBEGIN
1070
    73
1070
     1
1070
    44
1040
1.0
1070
    74
1070
     0
1000
MTEXTEND
  0
TEXT
  5
43A5
  8
241
  6
CONTINUOUS
 10
-32.000000000000007
 20
63.0
 30
0.0
 40
5.0
  1
HSK-T63-BSL32-125
  7
YOKO
 11
-32.000000000000007
 21
63.0
 31
0.0
 73
     1
  0
LINE
  5
43A6
  8
250
  6
CONTINUOUS
 10
125.5
 20
16.0
 30
0.0
 11
137.0
 21
16.0
 31
0.0
  0
LINE
  5
43A7
  8
250
  6
CONTINUOUS
 10
136.0
 20
-13.77
 30
0.0
 11
136.0
 21
13.77
 31
0.0
  0
LINE
  5
43A8
  8
250
  6
CONTINUOUS
 10
135.6283333259
 20
13.77
 30
0.0
 11
136.0
 21
16.0
 31
0.0
  0
LINE
  5
43A9
  8
250
  6
CONTINUOUS
 10
136.3716666741
 20
13.77
 30
0.0
 11
136.0
 21
16.0
 31
0.0
  0
LINE
  5
43AA
  8
250
  6
CONTINUOUS
 10
136.0
 20
16.0
 30
0.0
 11
136.0
 21
13.77
 31
0.0
  0
TEXT
  5
43AB
  8
250
  6
CONTINUOUS
 10
135.0
 20
-3.93333333333333
 30
0.0
 40
2.799999999999998
  1
\U+2205
 50
90.0
1001
ACAD
1000
MTEXTBEGIN
1070
    73
1070
     1
1070
    44
1040
1.0
1070
    74
1070
     0
1000
MTEXTEND
  0
TEXT
  5
43AC
  8
250
  6
CONTINUOUS
 10
135.0
 20
-1.399999999999997
 30
0.0
 40
2.799999999999998
  1
32
 50
90.0
1001
ACAD
1000
MTEXTBEGIN
1070
    73
1070
     1
1070
    44
1040
1.0
1070
    74
1070
     0
1000
MTEXTEND
  0
LINE
  5
43AD
  8
250
  6
CONTINUOUS
 10
121.76634939318519
 20
-32.0
 30
0.0
 11
144.0
 21
-32.0
 31
0.0
  0
LINE
  5
43AE
  8
250
  6
CONTINUOUS
 10
121.76634939318519
 20
32.0
 30
0.0
 11
144.0
 21
32.0
 31
0.0
  0
LINE
  5
43AF
  8
250
  6
CONTINUOUS
 10
143.0
 20
-29.77
 30
0.0
 11
143.0
 21
29.77
 31
0.0
  0
LINE
  5
43B0
  8
250
  6
CONTINUOUS
 10
143.3716666741
 20
-29.77
 30
0.0
 11
143.0
 21
-32.0
 31
0.0
  0
LINE
  5
43B1
  8
250
  6
CONTINUOUS
 10
142.6283333259
 20
-29.77
 30
0.0
 11
143.0
 21
-32.0
 31
0.0
  0
LINE
  5
43B2
  8
250
  6
CONTINUOUS
 10
143.0
 20
-32.0
 30
0.0
 11
143.0
 21
-29.77
 31
0.0
  0
LINE
  5
43B3
  8
250
  6
CONTINUOUS
 10
142.6283333259
 20
29.77
 30
0.0
 11
143.0
 21
32.0
 31
0.0
  0
LINE
  5
43B4
  8
250
  6
CONTINUOUS
 10
143.3716666741
 20
29.77
 30
0.0
 11
143.0
 21
32.0
 31
0.0
  0
LINE
  5
43B5
  8
250
  6
CONTINUOUS
 10
143.0
 20
32.0
 30
0.0
 11
143.0
 21
29.77
 31
0.0
  0
TEXT
  5
43B6
  8
250
  6
CONTINUOUS
 10
142.0
 20
-3.999999999999996
 30
0.0
 40
2.799999999999998
  1
\U+2205
 50
90.0
1001
ACAD
1000
MTEXTBEGIN
1070
    73
1070
     1
1070
    44
1040
1.0
1070
    74
1070
     0
1000
MTEXTEND
  0
TEXT
  5
43B7
  8
250
  6
CONTINUOUS
 10
142.0
 20
-1.466666666666665
 30
0.0
 40
2.799999999999998
  1
64
 50
90.0
1001
ACAD
1000
MTEXTBEGIN
1070
    73
1070
     1
1070
    44
1040
1.0
1070
    74
1070
     0
1000
MTEXTEND
  0
LINE
  5
43B8
  8
243
  6
HIDDEN2
 10
50.999999999999972
 20
16.0
 30
0.0
 11
125.0
 21
16.0
 31
0.0
  0
LINE
  5
43B9
  8
240
  6
CONTINUOUS
 10
43.500000000000178
 20
32.0
 30
0.0
 11
121.2487113029474
 21
32.0
 31
0.0
  0
LINE
  5
43BA
  8
240
  6
CONTINUOUS
 10
43.500000000004441
 20
-32.0
 30
0.0
 11
121.2487113029474
 21
-32.0
 31
0.0
  0
CIRCLE
  5
43BB
  8
241
  6
CONTINUOUS
 10
56.999999999999979
 20
0.0
 30
0.0
 40
6.0
  0
CIRCLE
  5
43BC
  8
242
  6
CONTINUOUS
 10
56.999999999999979
 20
0.0
 30
0.0
 40
5.375
  0
LINE
  5
43BD
  8
243
  6
HIDDEN2
 10
31.999999999999989
 20
26.5
 30
0.0
 11
31.999999999999989
 21
30.999999999999659
 31
0.0
  0
LINE
  5
43BE
  8
241
  6
CONTINUOUS
 10
42.499999999999588
 20
30.99999999999886
 30
0.0
 11
42.499999999999588
 21
-31.0
 31
0.0
  0
LINE
  5
43C0
  8
243
  6
HIDDEN2
 10
31.999999999999989
 20
-26.5
 30
0.0
 11
31.999999999999989
 21
-31.0
 31
0.0
  0
LINE
  5
43C2
  8
241
  6
CONTINUOUS
 10
25.499999999999961
 20
24.336187050000039
 30
0.0
 11
25.999999999999989
 21
23.685438560000001
 31
0.0
  0
POLYLINE
  5
43C3
  8
241
  6
CONTINUOUS
 66
     1
 10
0.0
 20
0.0
 30
0.0
 70
     8
  0
VERTEX
  5
45BF
  8
241
 10
32.0
 20
20.0
 30
0.0
 70
    32
  0
VERTEX
  5
45C0
  8
241
 10
31.999600000000001
 20
20.045200000000001
 30
0.0
 70
    32
  0
VERTEX
  5
45C1
  8
241
 10
31.9985
 20
20.090399999999999
 30
0.0
 70
    32
  0
VERTEX
  5
45C2
  8
241
 10
31.996600000000001
 20
20.1357
 30
0.0
 70
    32
  0
VERTEX
  5
45C3
  8
241
 10
31.994
 20
20.180800000000001
 30
0.0
 70
    32
  0
VERTEX
  5
45C4
  8
241
 10
31.990600000000001
 20
20.225999999999999
 30
0.0
 70
    32
  0
VERTEX
  5
45C5
  8
241
 10
31.986499999999999
 20
20.271100000000001
 30
0.0
 70
    32
  0
VERTEX
  5
45C6
  8
241
 10
31.9816
 20
20.316199999999998
 30
0.0
 70
    32
  0
VERTEX
  5
45C7
  8
241
 10
31.975899999999999
 20
20.3612
 30
0.0
 70
    32
  0
VERTEX
  5
45C8
  8
241
 10
31.9695
 20
20.406199999999998
 30
0.0
 70
    32
  0
VERTEX
  5
45C9
  8
241
 10
31.962399999999999
 20
20.4511
 30
0.0
 70
    32
  0
VERTEX
  5
45CA
  8
241
 10
31.954499999999999
 20
20.495999999999999
 30
0.0
 70
    32
  0
VERTEX
  5
45CB
  8
241
 10
31.945900000000002
 20
20.540800000000001
 30
0.0
 70
    32
  0
VERTEX
  5
45CC
  8
241
 10
31.936499999999999
 20
20.5855
 30
0.0
 70
    32
  0
VERTEX
  5
45CD
  8
241
 10
31.926400000000001
 20
20.630099999999999
 30
0.0
 70
    32
  0
VERTEX
  5
45CE
  8
241
 10
31.915500000000002
 20
20.674600000000002
 30
0.0
 70
    32
  0
VERTEX
  5
45CF
  8
241
 10
31.9039
 20
20.719000000000001
 30
0.0
 70
    32
  0
VERTEX
  5
45D0
  8
241
 10
31.8916
 20
20.763300000000001
 30
0.0
 70
    32
  0
VERTEX
  5
45D1
  8
241
 10
31.878499999999999
 20
20.807500000000001
 30
0.0
 70
    32
  0
VERTEX
  5
45D2
  8
241
 10
31.864699999999999
 20
20.851600000000001
 30
0.0
 70
    32
  0
VERTEX
  5
45D3
  8
241
 10
31.850200000000001
 20
20.895499999999998
 30
0.0
 70
    32
  0
VERTEX
  5
45D4
  8
241
 10
31.834900000000001
 20
20.939299999999999
 30
0.0
 70
    32
  0
VERTEX
  5
45D5
  8
241
 10
31.818899999999999
 20
20.983000000000001
 30
0.0
 70
    32
  0
VERTEX
  5
45D6
  8
241
 10
31.802199999999999
 20
21.026499999999999
 30
0.0
 70
    32
  0
VERTEX
  5
45D7
  8
241
 10
31.784700000000001
 20
21.069800000000001
 30
0.0
 70
    32
  0
VERTEX
  5
45D8
  8
241
 10
31.766500000000001
 20
21.113
 30
0.0
 70
    32
  0
VERTEX
  5
45D9
  8
241
 10
31.747599999999998
 20
21.156099999999999
 30
0.0
 70
    32
  0
VERTEX
  5
45DA
  8
241
 10
31.728000000000002
 20
21.198899999999998
 30
0.0
 70
    32
  0
VERTEX
  5
45DB
  8
241
 10
31.707699999999999
 20
21.241599999999998
 30
0.0
 70
    32
  0
VERTEX
  5
45DC
  8
241
 10
31.686699999999998
 20
21.284099999999999
 30
0.0
 70
    32
  0
VERTEX
  5
45DD
  8
241
 10
31.664999999999999
 20
21.3264
 30
0.0
 70
    32
  0
VERTEX
  5
45DE
  8
241
 10
31.642499999999998
 20
21.368500000000001
 30
0.0
 70
    32
  0
VERTEX
  5
45DF
  8
241
 10
31.619399999999999
 20
21.410399999999999
 30
0.0
 70
    32
  0
VERTEX
  5
45E0
  8
241
 10
31.595600000000001
 20
21.452000000000002
 30
0.0
 70
    32
  0
VERTEX
  5
45E1
  8
241
 10
31.571000000000002
 20
21.493500000000001
 30
0.0
 70
    32
  0
VERTEX
  5
45E2
  8
241
 10
31.5458
 20
21.534700000000001
 30
0.0
 70
    32
  0
VERTEX
  5
45E3
  8
241
 10
31.5199
 20
21.575700000000001
 30
0.0
 70
    32
  0
VERTEX
  5
45E4
  8
241
 10
31.493400000000001
 20
21.616499999999998
 30
0.0
 70
    32
  0
VERTEX
  5
45E5
  8
241
 10
31.466100000000001
 20
21.657
 30
0.0
 70
    32
  0
VERTEX
  5
45E6
  8
241
 10
31.438199999999998
 20
21.697299999999998
 30
0.0
 70
    32
  0
VERTEX
  5
45E7
  8
241
 10
31.409600000000001
 20
21.737300000000001
 30
0.0
 70
    32
  0
VERTEX
  5
45E8
  8
241
 10
31.380400000000002
 20
21.777100000000001
 30
0.0
 70
    32
  0
VERTEX
  5
45E9
  8
241
 10
31.3504
 20
21.816500000000001
 30
0.0
 70
    32
  0
VERTEX
  5
45EA
  8
241
 10
31.319900000000001
 20
21.855799999999999
 30
0.0
 70
    32
  0
VERTEX
  5
45EB
  8
241
 10
31.288599999999999
 20
21.8947
 30
0.0
 70
    32
  0
VERTEX
  5
45EC
  8
241
 10
31.256799999999998
 20
21.933299999999999
 30
0.0
 70
    32
  0
VERTEX
  5
45ED
  8
241
 10
31.224299999999999
 20
21.971699999999998
 30
0.0
 70
    32
  0
VERTEX
  5
45EE
  8
241
 10
31.191099999999999
 20
22.009799999999998
 30
0.0
 70
    32
  0
VERTEX
  5
45EF
  8
241
 10
31.157299999999999
 20
22.047499999999999
 30
0.0
 70
    32
  0
VERTEX
  5
45F0
  8
241
 10
31.122900000000001
 20
22.085000000000001
 30
0.0
 70
    32
  0
VERTEX
  5
45F1
  8
241
 10
31.087900000000001
 20
22.1221
 30
0.0
 70
    32
  0
VERTEX
  5
45F2
  8
241
 10
31.052299999999999
 20
22.158899999999999
 30
0.0
 70
    32
  0
VERTEX
  5
45F3
  8
241
 10
31.015999999999998
 20
22.195399999999999
 30
0.0
 70
    32
  0
VERTEX
  5
45F4
  8
241
 10
30.979199999999999
 20
22.2316
 30
0.0
 70
    32
  0
VERTEX
  5
45F5
  8
241
 10
30.941700000000001
 20
22.267399999999999
 30
0.0
 70
    32
  0
VERTEX
  5
45F6
  8
241
 10
30.903700000000001
 20
22.302900000000001
 30
0.0
 70
    32
  0
VERTEX
  5
45F7
  8
241
 10
30.865100000000002
 20
22.338000000000001
 30
0.0
 70
    32
  0
VERTEX
  5
45F8
  8
241
 10
30.825800000000001
 20
22.372800000000002
 30
0.0
 70
    32
  0
VERTEX
  5
45F9
  8
241
 10
30.786000000000001
 20
22.4072
 30
0.0
 70
    32
  0
VERTEX
  5
45FA
  8
241
 10
30.745699999999999
 20
22.441299999999998
 30
0.0
 70
    32
  0
VERTEX
  5
45FB
  8
241
 10
30.704799999999999
 20
22.475000000000001
 30
0.0
 70
    32
  0
VERTEX
  5
45FC
  8
241
 10
30.6633
 20
22.508299999999998
 30
0.0
 70
    32
  0
VERTEX
  5
45FD
  8
241
 10
30.621200000000002
 20
22.5413
 30
0.0
 70
    32
  0
VERTEX
  5
45FE
  8
241
 10
30.578700000000001
 20
22.573799999999999
 30
0.0
 70
    32
  0
VERTEX
  5
45FF
  8
241
 10
30.535499999999999
 20
22.606000000000002
 30
0.0
 70
    32
  0
VERTEX
  5
4600
  8
241
 10
30.491900000000001
 20
22.637799999999999
 30
0.0
 70
    32
  0
VERTEX
  5
4601
  8
241
 10
30.447700000000001
 20
22.6692
 30
0.0
 70
    32
  0
VERTEX
  5
4602
  8
241
 10
30.402999999999999
 20
22.700199999999999
 30
0.0
 70
    32
  0
VERTEX
  5
4603
  8
241
 10
30.357800000000001
 20
22.730699999999999
 30
0.0
 70
    32
  0
VERTEX
  5
4604
  8
241
 10
30.312100000000001
 20
22.760899999999999
 30
0.0
 70
    32
  0
VERTEX
  5
4605
  8
241
 10
30.265899999999998
 20
22.790600000000001
 30
0.0
 70
    32
  0
VERTEX
  5
4606
  8
241
 10
30.219200000000001
 20
22.82
 30
0.0
 70
    32
  0
VERTEX
  5
4607
  8
241
 10
30.172000000000001
 20
22.8489
 30
0.0
 70
    32
  0
VERTEX
  5
4608
  8
241
 10
30.124300000000002
 20
22.877400000000002
 30
0.0
 70
    32
  0
VERTEX
  5
4609
  8
241
 10
30.0762
 20
22.9054
 30
0.0
 70
    32
  0
VERTEX
  5
460A
  8
241
 10
30.0276
 20
22.933
 30
0.0
 70
    32
  0
VERTEX
  5
460B
  8
241
 10
29.9785
 20
22.9602
 30
0.0
 70
    32
  0
VERTEX
  5
460C
  8
241
 10
29.928999999999998
 20
22.986899999999999
 30
0.0
 70
    32
  0
VERTEX
  5
460D
  8
241
 10
29.879000000000001
 20
23.013200000000001
 30
0.0
 70
    32
  0
VERTEX
  5
460E
  8
241
 10
29.828700000000001
 20
23.039000000000001
 30
0.0
 70
    32
  0
VERTEX
  5
460F
  8
241
 10
29.777899999999999
 20
23.064299999999999
 30
0.0
 70
    32
  0
VERTEX
  5
4610
  8
241
 10
29.726600000000001
 20
23.089200000000002
 30
0.0
 70
    32
  0
VERTEX
  5
4611
  8
241
 10
29.675000000000001
 20
23.113700000000001
 30
0.0
 70
    32
  0
VERTEX
  5
4612
  8
241
 10
29.622900000000001
 20
23.137599999999999
 30
0.0
 70
    32
  0
VERTEX
  5
4613
  8
241
 10
29.570499999999999
 20
23.161100000000001
 30
0.0
 70
    32
  0
VERTEX
  5
4614
  8
241
 10
29.517700000000001
 20
23.184100000000001
 30
0.0
 70
    32
  0
VERTEX
  5
4615
  8
241
 10
29.464500000000001
 20
23.206700000000001
 30
0.0
 70
    32
  0
VERTEX
  5
4616
  8
241
 10
29.410900000000002
 20
23.2287
 30
0.0
 70
    32
  0
VERTEX
  5
4617
  8
241
 10
29.356999999999999
 20
23.250299999999999
 30
0.0
 70
    32
  0
VERTEX
  5
4618
  8
241
 10
29.302700000000002
 20
23.2713
 30
0.0
 70
    32
  0
VERTEX
  5
4619
  8
241
 10
29.248100000000001
 20
23.291899999999998
 30
0.0
 70
    32
  0
VERTEX
  5
461A
  8
241
 10
29.193100000000001
 20
23.312000000000001
 30
0.0
 70
    32
  0
VERTEX
  5
461B
  8
241
 10
29.137799999999999
 20
23.331600000000002
 30
0.0
 70
    32
  0
VERTEX
  5
461C
  8
241
 10
29.082100000000001
 20
23.3507
 30
0.0
 70
    32
  0
VERTEX
  5
461D
  8
241
 10
29.026199999999999
 20
23.369299999999999
 30
0.0
 70
    32
  0
VERTEX
  5
461E
  8
241
 10
28.969999999999999
 20
23.3873
 30
0.0
 70
    32
  0
VERTEX
  5
461F
  8
241
 10
28.913399999999999
 20
23.404900000000001
 30
0.0
 70
    32
  0
VERTEX
  5
4620
  8
241
 10
28.8566
 20
23.422000000000001
 30
0.0
 70
    32
  0
VERTEX
  5
4621
  8
241
 10
28.799499999999998
 20
23.438500000000001
 30
0.0
 70
    32
  0
VERTEX
  5
4622
  8
241
 10
28.742100000000001
 20
23.454499999999999
 30
0.0
 70
    32
  0
VERTEX
  5
4623
  8
241
 10
28.6844
 20
23.469999999999999
 30
0.0
 70
    32
  0
VERTEX
  5
4624
  8
241
 10
28.6266
 20
23.484999999999999
 30
0.0
 70
    32
  0
VERTEX
  5
4625
  8
241
 10
28.5684
 20
23.499400000000001
 30
0.0
 70
    32
  0
VERTEX
  5
4626
  8
241
 10
28.510000000000002
 20
23.513400000000001
 30
0.0
 70
    32
  0
VERTEX
  5
4627
  8
241
 10
28.4514
 20
23.526700000000002
 30
0.0
 70
    32
  0
VERTEX
  5
4628
  8
241
 10
28.392600000000002
 20
23.5396
 30
0.0
 70
    32
  0
VERTEX
  5
4629
  8
241
 10
28.333600000000001
 20
23.5519
 30
0.0
 70
    32
  0
VERTEX
  5
462A
  8
241
 10
28.2743
 20
23.563700000000001
 30
0.0
 70
    32
  0
VERTEX
  5
462B
  8
241
 10
28.2149
 20
23.574999999999999
 30
0.0
 70
    32
  0
VERTEX
  5
462C
  8
241
 10
28.1553
 20
23.585699999999999
 30
0.0
 70
    32
  0
VERTEX
  5
462D
  8
241
 10
28.095500000000001
 20
23.5959
 30
0.0
 70
    32
  0
VERTEX
  5
462E
  8
241
 10
28.035599999999999
 20
23.605499999999999
 30
0.0
 70
    32
  0
VERTEX
  5
462F
  8
241
 10
27.9755
 20
23.614599999999999
 30
0.0
 70
    32
  0
VERTEX
  5
4630
  8
241
 10
27.915199999999999
 20
23.623200000000001
 30
0.0
 70
    32
  0
VERTEX
  5
4631
  8
241
 10
27.854800000000001
 20
23.6312
 30
0.0
 70
    32
  0
VERTEX
  5
4632
  8
241
 10
27.7943
 20
23.6386
 30
0.0
 70
    32
  0
VERTEX
  5
4633
  8
241
 10
27.733699999999999
 20
23.645499999999998
 30
0.0
 70
    32
  0
VERTEX
  5
4634
  8
241
 10
27.672899999999998
 20
23.651900000000001
 30
0.0
 70
    32
  0
VERTEX
  5
4635
  8
241
 10
27.612100000000002
 20
23.657699999999998
 30
0.0
 70
    32
  0
VERTEX
  5
4636
  8
241
 10
27.551100000000002
 20
23.663
 30
0.0
 70
    32
  0
VERTEX
  5
4637
  8
241
 10
27.490100000000002
 20
23.6677
 30
0.0
 70
    32
  0
VERTEX
  5
4638
  8
241
 10
27.428999999999998
 20
23.671800000000001
 30
0.0
 70
    32
  0
VERTEX
  5
4639
  8
241
 10
27.367799999999999
 20
23.6755
 30
0.0
 70
    32
  0
VERTEX
  5
463A
  8
241
 10
27.3066
 20
23.6785
 30
0.0
 70
    32
  0
VERTEX
  5
463B
  8
241
 10
27.2453
 20
23.681000000000001
 30
0.0
 70
    32
  0
VERTEX
  5
463C
  8
241
 10
27.184000000000001
 20
23.6829
 30
0.0
 70
    32
  0
VERTEX
  5
463D
  8
241
 10
27.122699999999998
 20
23.6843
 30
0.0
 70
    32
  0
VERTEX
  5
463E
  8
241
 10
27.061399999999999
 20
23.685199999999998
 30
0.0
 70
    32
  0
VERTEX
  5
463F
  8
241
 10
27.0
 20
23.685400000000001
 30
0.0
 70
    32
  0
SEQEND
  5
4640
  8
241
  0
LINE
  5
43C4
  8
241
  6
CONTINUOUS
 10
25.999999999999989
 20
23.685438560000001
 30
0.0
 11
26.999999999999989
 21
23.685438560000001
 31
0.0
  0
LINE
  5
43C6
  8
241
  6
CONTINUOUS
 10
66.633974599999974
 20
32.0
 30
0.0
 11
66.633974599999974
 21
-32.0
 31
0.0
  0
LINE
  5
43C7
  8
241
  6
CONTINUOUS
 10
68.366025399999984
 20
32.0
 30
0.0
 11
68.366025399999984
 21
-32.0
 31
0.0
  0
LINE
  5
43C8
  8
241
  6
CONTINUOUS
 10
71.633974599999974
 20
32.0
 30
0.0
 11
71.633974599999974
 21
-32.0
 31
0.0
  0
LINE
  5
43C9
  8
241
  6
CONTINUOUS
 10
73.366025399999984
 20
32.0
 30
0.0
 11
73.366025399999984
 21
-32.0
 31
0.0
  0
LINE
  5
43CA
  8
241
  6
CONTINUOUS
 10
92.633974599999974
 20
32.0
 30
0.0
 11
92.633974599999974
 21
-32.0
 31
0.0
  0
LINE
  5
43CB
  8
241
  6
CONTINUOUS
 10
94.366025399999998
 20
32.0
 30
0.0
 11
94.366025399999998
 21
-32.0
 31
0.0
  0
LINE
  5
43CC
  8
241
  6
CONTINUOUS
 10
99.366025399999998
 20
32.0
 30
0.0
 11
99.366025399999998
 21
-32.0
 31
0.0
  0
LINE
  5
43CD
  8
241
  6
CONTINUOUS
 10
97.633974599999959
 20
32.0
 30
0.0
 11
97.633974599999959
 21
-32.0
 31
0.0
  0
LINE
  5
43CE
  8
241
  6
CONTINUOUS
 10
121.24871131
 20
31.99999997367933
 30
0.0
 11
121.24871131
 21
-31.999999973679301
 31
0.0
  0
LINE
  5
43CF
  8
240
  6
CONTINUOUS
 10
125.0
 20
18.000000002044821
 30
0.0
 11
121.2487113029474
 21
32.0
 31
0.0
  0
LINE
  5
43D9
  8
240
  6
CONTINUOUS
 10
125.0
 20
-18.000000002044821
 30
0.0
 11
121.2487113029474
 21
-32.0
 31
0.0
  0
LINE
  5
43DB
  8
245
  6
CENTER2
 10
56.999999999999979
 20
7.0
 30
0.0
 11
56.999999999999979
 21
-7.0
 31
0.0
  0
LINE
  5
43DC
  8
241
  6
CONTINUOUS
 10
79.999999999999986
 20
-1.7320508100000001
 30
0.0
 11
82.999999999999986
 21
-3.4641016200000001
 31
0.0
  0
LINE
  5
43DD
  8
241
  6
CONTINUOUS
 10
82.999999999999986
 20
-3.4641016200000001
 30
0.0
 11
85.999999999999986
 21
-1.7320508100000001
 31
0.0
  0
LINE
  5
43DE
  8
241
  6
CONTINUOUS
 10
85.999999999999986
 20
-1.7320508100000001
 30
0.0
 11
85.999999999999986
 21
1.7320508100000001
 31
0.0
  0
LINE
  5
43DF
  8
241
  6
CONTINUOUS
 10
85.999999999999986
 20
1.7320508100000001
 30
0.0
 11
82.999999999999986
 21
3.4641016200000001
 31
0.0
  0
LINE
  5
43E0
  8
241
  6
CONTINUOUS
 10
82.999999999999986
 20
3.4641016200000001
 30
0.0
 11
79.999999999999986
 21
1.7320508100000001
 31
0.0
  0
LINE
  5
43E1
  8
241
  6
CONTINUOUS
 10
79.999999999999986
 20
1.7320508100000001
 30
0.0
 11
79.999999999999986
 21
-1.7320508100000001
 31
0.0
  0
CIRCLE
  5
43E2
  8
241
  6
CONTINUOUS
 10
82.999999999999986
 20
0.0
 30
0.0
 40
6.0
  0
CIRCLE
  5
43E3
  8
242
  6
CONTINUOUS
 10
82.999999999999986
 20
0.0
 30
0.0
 40
5.375
  0
LINE
  5
43E4
  8
245
  6
CENTER2
 10
82.999999999999986
 20
7.0
 30
0.0
 11
82.999999999999986
 21
-7.0
 31
0.0
  0
LINE
  5
43E5
  8
241
  6
CONTINUOUS
 10
53.999999999999979
 20
-1.7320508100000001
 30
0.0
 11
56.999999999999979
 21
-3.4641016200000001
 31
0.0
  0
LINE
  5
43E6
  8
241
  6
CONTINUOUS
 10
56.999999999999979
 20
-3.4641016200000001
 30
0.0
 11
60.0
 21
-1.7320508100000001
 31
0.0
  0
LINE
  5
43E7
  8
241
  6
CONTINUOUS
 10
60.0
 20
-1.7320508100000001
 30
0.0
 11
60.0
 21
1.7320508100000001
 31
0.0
  0
LINE
  5
43E8
  8
241
  6
CONTINUOUS
 10
60.0
 20
1.7320508100000001
 30
0.0
 11
56.999999999999979
 21
3.4641016200000001
 31
0.0
  0
LINE
  5
43E9
  8
241
  6
CONTINUOUS
 10
56.999999999999979
 20
3.4641016200000001
 30
0.0
 11
53.999999999999979
 21
1.7320508100000001
 31
0.0
  0
LINE
  5
43EA
  8
241
  6
CONTINUOUS
 10
53.999999999999979
 20
1.7320508100000001
 30
0.0
 11
53.999999999999979
 21
-1.7320508100000001
 31
0.0
  0
LINE
  5
43EB
  8
240
  6
CONTINUOUS
 10
125.0
 20
18.000000002044821
 30
0.0
 11
125.0
 21
-18.000000002044821
 31
0.0
  0
LINE
  5
43EC
  8
241
  6
CONTINUOUS
 10
106.0
 20
-1.7320508100000001
 30
0.0
 11
109.0
 21
-3.4641016200000001
 31
0.0
  0
LINE
  5
43ED
  8
241
  6
CONTINUOUS
 10
109.0
 20
-3.4641016200000001
 30
0.0
 11
112.0
 21
-1.7320508100000001
 31
0.0
  0
LINE
  5
43EE
  8
241
  6
CONTINUOUS
 10
112.0
 20
-1.7320508100000001
 30
0.0
 11
112.0
 21
1.7320508100000001
 31
0.0
  0
LINE
  5
43EF
  8
241
  6
CONTINUOUS
 10
112.0
 20
1.7320508100000001
 30
0.0
 11
109.0
 21
3.4641016200000001
 31
0.0
  0
LINE
  5
43F0
  8
241
  6
CONTINUOUS
 10
109.0
 20
3.4641016200000001
 30
0.0
 11
106.0
 21
1.7320508100000001
 31
0.0
  0
LINE
  5
43F1
  8
241
  6
CONTINUOUS
 10
106.0
 20
1.7320508100000001
 30
0.0
 11
106.0
 21
-1.7320508100000001
 31
0.0
  0
CIRCLE
  5
43F2
  8
241
  6
CONTINUOUS
 10
109.0
 20
0.0
 30
0.0
 40
6.0
  0
CIRCLE
  5
43F3
  8
242
  6
CONTINUOUS
 10
109.0
 20
0.0
 30
0.0
 40
5.375
  0
LINE
  5
43F4
  8
245
  6
CENTER2
 10
109.0
 20
7.0
 30
0.0
 11
109.0
 21
-7.0
 31
0.0
  0
LINE
  5
43F7
  8
250
  6
CONTINUOUS
 10
125.5
 20
-16.0
 30
0.0
 11
137.0
 21
-16.0
 31
0.0
  0
LINE
  5
43F8
  8
250
  6
CONTINUOUS
 10
135.6283333259
 20
-13.77
 30
0.0
 11
136.0
 21
-16.0
 31
0.0
  0
LINE
  5
43F9
  8
250
  6
CONTINUOUS
 10
136.3716666741
 20
-13.77
 30
0.0
 11
136.0
 21
-16.0
 31
0.0
  0
LINE
  5
43FA
  8
250
  6
CONTINUOUS
 10
136.0
 20
-16.0
 30
0.0
 11
136.0
 21
-13.77
 31
0.0
  0
LINE
  5
43FB
  8
243
  6
HIDDEN2
 10
50.999999999999972
 20
-16.0
 30
0.0
 11
125.0
 21
-16.0
 31
0.0
  0
LINE
  5
43FC
  8
241
  6
CONTINUOUS
 10
25.999999999999972
 20
23.685438560000001
 30
0.0
 11
25.999999999999972
 21
31.00000000000011
 31
0.0
  0
LINE
  5
47BD
  8
240
  6
CONTINUOUS
 10
25.9999999999972
 20
31.000000000000121
 30
0.0
 11
42.499999999999588
 21
30.99999999999886
 31
0.0
  0
LINE
  5
47BE
  8
240
  6
CONTINUOUS
 10
25.999999999999989
 20
-31.0
 30
0.0
 11
42.500000000000071
 21
-31.0
 31
0.0
  0
LINE
  5
47BF
  8
240
  6
CONTINUOUS
 10
25.999999999999989
 20
-30.99999999999994
 30
0.0
 11
25.50000000000033
 21
-31.499999999999549
 31
0.0
  0
LINE
  5
47C0
  8
240
  6
CONTINUOUS
 10
25.9999999999972
 20
31.000000000000121
 30
0.0
 11
25.499999999999432
 21
31.499999999999641
 31
0.0
  0
LINE
  5
47C1
  8
240
  6
CONTINUOUS
 10
43.500000000000178
 20
32.0
 30
0.0
 11
42.499999999999559
 21
30.999999999999719
 31
0.0
  0
LINE
  5
47C2
  8
240
  6
CONTINUOUS
 10
43.500000000004441
 20
-32.0
 30
0.0
 11
42.499999999999588
 21
-30.999999999995481
 31
0.0
  0
VIEWPORT
  5
22
 67
     1
  8
0
 10
261.51769911504419
 20
148.5
 30
0.0
 40
523.0353982300885
 41
297.0
 68
     1
 69
     1
1001
ACAD
1000
MVIEW
1002
{
1070
    16
1010
0.0
1020
0.0
1030
0.0
1010
0.0
1020
0.0
1030
1.0
1040
0.0
1040
297.0
1040
261.51769911504419
1040
148.5
1040
50.0
1040
0.0
1040
0.0
1070
     0
1070
   100
1070
     1
1070
     1
1070
     0
1070
     0
1070
     0
1070
     0
1040
0.0
1040
0.0
1040
0.0
1040
1.0
1040
1.0
1040
10.0
1040
10.0
1070
     0
1002
{
1002
}
1002
}
1001
GENIUS_GENODEF_13
1002
{
1000
HIER
1070
     0
1002
}
1002
{
1000
MANEDIT
1070
     0
1002
}
1002
{
1000
NOSEL
1070
     0
1002
}
1002
{
1000
BEHIND
1070
     0
1002
}
1002
{
1000
OTHER
1070
     0
1002
}
1002
{
1000
REACTOR
1002
}
1001
GENIUS_GENOBJ-N-SDF_13
1002
{
1000
OWNER
1000
GEN
1002
}
1001
GENIUS_GENSCREG_15
1000
PF
1040
1.0
1000
DF
1040
1.0
1000
MIN
1011
0.0
1021
0.0
1031
0.0
1021
0.0
1031
0.0
1000
MAX
1011
523.0353982300885
1021
0.0
1031
0.0
1021
297.0
1031
0.0
1000
FLAGS
1070
     4
  0
ENDSEC
  0
EOF
