  0
SECTION
  2
HEADER
  9
$ACADVER
  1
AC1009
  9
$INSBASE
 10
0.0
 20
0.0
 30
0.0
  9
$EXTMIN
 10
-59.86923900000005
 20
-49.999999999999957
 30
0.0
  9
$EXTMAX
 10
130.49999999999989
 20
82.000000000000014
 30
0.0
  9
$LIMMIN
 10
0.0
 20
0.0
  9
$LIMMAX
 10
297.0
 20
210.0
  9
$ORTHOMODE
 70
     0
  9
$REGENMODE
 70
     1
  9
$FILLMODE
 70
     1
  9
$QTEXTMODE
 70
     0
  9
$MIRRTEXT
 70
     1
  9
$DRAGMODE
 70
     2
  9
$LTSCALE
 40
10.0
  9
$OSMODE
 70
    45
  9
$ATTMODE
 70
     1
  9
$TEXTSIZE
 40
3.0
  9
$TRACEWID
 40
1.0
  9
$TEXTSTYLE
  7
YOKO
  9
$CLAYER
  8
240
  9
$CELTYPE
  6
BYLAYER
  9
$CECOLOR
 62
   256
  9
$DIMSCALE
 40
1.0
  9
$DIMASZ
 40
2.2299999999999991
  9
$DIMEXO
 40
0.5
  9
$DIMDLI
 40
7.0
  9
$DIMRND
 40
0.0
  9
$DIMDLE
 40
0.0
  9
$DIMEXE
 40
1.0
  9
$DIMTP
 40
0.0
  9
$DIMTM
 40
0.01
  9
$DIMTXT
 40
2.7999999999999989
  9
$DIMCEN
 40
0.0
  9
$DIMTSZ
 40
0.0
  9
$DIMTOL
 70
     0
  9
$DIMLIM
 70
     0
  9
$DIMTIH
 70
     0
  9
$DIMTOH
 70
     0
  9
$DIMSE1
 70
     0
  9
$DIMSE2
 70
     0
  9
$DIMTAD
 70
     3
  9
$DIMZIN
 70
     9
  9
$DIMBLK
  1
OPEN
  9
$DIMASO
 70
     1
  9
$DIMSHO
 70
     1
  9
$DIMPOST
  1

  9
$DIMAPOST
  1

  9
$DIMALT
 70
     0
  9
$DIMALTD
 70
     2
  9
$DIMALTF
 40
25.399999999999999
  9
$DIMLFAC
 40
1.0
  9
$DIMTOFL
 70
     1
  9
$DIMTVP
 40
0.0
  9
$DIMTIX
 70
     1
  9
$DIMSOXD
 70
     0
  9
$DIMSAH
 70
     0
  9
$DIMBLK1
  1

  9
$DIMBLK2
  1

  9
$DIMSTYLE
  2
BIGT
  9
$DIMCLRD
 70
   256
  9
$DIMCLRE
 70
   256
  9
$DIMCLRT
 70
    40
  9
$DIMTFAC
 40
1.0
  9
$DIMGAP
 40
1.0
  9
$LUNITS
 70
     2
  9
$LUPREC
 70
     6
  9
$SKETCHINC
 40
1.0
  9
$FILLETRAD
 40
0.0
  9
$AUNITS
 70
     0
  9
$AUPREC
 70
     6
  9
$MENU
  1
.
  9
$ELEVATION
 40
0.0
  9
$PELEVATION
 40
0.0
  9
$THICKNESS
 40
0.0
  9
$LIMCHECK
 70
     0
  9
$BLIPMODE
 70
     0
  9
$CHAMFERA
 40
0.2
  9
$CHAMFERB
 40
0.2
  9
$SKPOLY
 70
     0
  9
$TDCREATE
 40
2457865.4497125
  9
$TDUPDATE
 40
2457865.539206794
  9
$TDINDWG
 40
0.0092947917
  9
$TDUSRTIMER
 40
0.0092947685
  9
$USRTIMER
 70
     1
  9
$ANGBASE
 50
0.0
  9
$ANGDIR
 70
     0
  9
$PDMODE
 70
     1
  9
$PDSIZE
 40
0.0
  9
$PLINEWID
 40
0.0
  9
$COORDS
 70
     1
  9
$SPLFRAME
 70
     0
  9
$SPLINETYPE
 70
     6
  9
$SPLINESEGS
 70
     4
  9
$ATTDIA
 70
     1
  9
$ATTREQ
 70
     1
  9
$HANDLING
 70
     1
  9
$HANDSEED
  5
450E
  9
$SURFTAB1
 70
     6
  9
$SURFTAB2
 70
     6
  9
$SURFTYPE
 70
     6
  9
$SURFU
 70
     6
  9
$SURFV
 70
     6
  9
$UCSNAME
  2

  9
$UCSORG
 10
0.0
 20
0.0
 30
0.0
  9
$UCSXDIR
 10
1.0
 20
0.0
 30
0.0
  9
$UCSYDIR
 10
0.0
 20
1.0
 30
0.0
  9
$PUCSNAME
  2

  9
$PUCSORG
 10
0.0
 20
0.0
 30
0.0
  9
$PUCSXDIR
 10
1.0
 20
0.0
 30
0.0
  9
$PUCSYDIR
 10
0.0
 20
1.0
 30
0.0
  9
$USERI1
 70
     1
  9
$USERI2
 70
     0
  9
$USERI3
 70
     0
  9
$USERI4
 70
     0
  9
$USERI5
 70
     0
  9
$USERR1
 40
0.0
  9
$USERR2
 40
0.0
  9
$USERR3
 40
0.0
  9
$USERR4
 40
0.0
  9
$USERR5
 40
0.0
  9
$WORLDVIEW
 70
     1
  9
$SHADEDGE
 70
     3
  9
$SHADEDIF
 70
    70
  9
$TILEMODE
 70
     1
  9
$MAXACTVP
 70
    16
  9
$PLIMCHECK
 70
     0
  9
$PEXTMIN
 10
1.0000000000000000E+020
 20
1.0000000000000000E+020
 30
1.0000000000000000E+020
  9
$PEXTMAX
 10
-1.0000000000000000E+020
 20
-1.0000000000000000E+020
 30
-1.0000000000000000E+020
  9
$PLIMMIN
 10
0.0
 20
0.0
  9
$PLIMMAX
 10
420.0
 20
297.0
  9
$UNITMODE
 70
     0
  9
$VISRETAIN
 70
     1
  9
$PLINEGEN
 70
     0
  9
$PSLTSCALE
 70
     1
  0
ENDSEC
  0
SECTION
  2
TABLES
  0
TABLE
  2
VPORT
 70
     1
  0
VPORT
  2
*ACTIVE
 70
     0
 10
0.0
 20
0.0
 11
1.0
 21
1.0
 12
37.990646525825838
 22
15.44021492522802
 13
0.0
 23
0.0
 14
7.0
 24
7.0
 15
7.0
 25
7.0
 16
0.0
 26
0.0
 36
1.0
 17
0.0
 27
0.0
 37
0.0
 40
191.11720283970709
 41
1.5383771929824559
 42
50.0
 43
0.0
 44
0.0
 50
0.0
 51
0.0
 71
     0
 72
  2000
 73
     1
 74
     0
 75
     0
 76
     1
 77
     0
 78
     0
  0
ENDTAB
  0
TABLE
  2
LTYPE
 70
    21
  0
LTYPE
  2
CONTINUOUS
 70
     0
  3
Solid line
 72
    65
 73
     0
 40
0.0
  0
LTYPE
  2
CENTER2
 70
     0
  3
___ _ ___ _ ___ _ ___ _ ___ _ ___ _ ___ _ ___ _
 72
    65
 73
     4
 40
1.125
 49
0.75
 49
-0.125
 49
0.125
 49
-0.125
  0
LTYPE
  2
HIDDEN2
 70
     0
  3
_ _ _ _ _ _ _ _ _ _ _ _ _ _ _ _ _ _ _ _ _ _ _ _
 72
    65
 73
     2
 40
0.1875
 49
0.125
 49
-0.0625
  0
LTYPE
  2
AM_ISO02W050
 70
     0
  3
__ __ __ __ __ __ __ __ __ __ __ __ __ __ __
 72
    65
 73
     2
 40
7.5
 49
6.0
 49
-1.5
  0
LTYPE
  2
AMCONSTR
 70
     0
  3
_______________________
 72
    65
 73
     2
 40
9999.0
 49
9999.0
 49
0.0
  0
LTYPE
  2
ACISOWELD
 70
     0
  3
_ _ _ _ _
 72
    65
 73
     2
 40
2.0
 49
2.0
 49
-1.0
  0
LTYPE
  2
ACISOTGB
 70
     0
  3
__ . . __ . .
 72
    65
 73
     6
 40
9.0
 49
4.0
 49
-1.0
 49
1.0
 49
-1.0
 49
1.0
 49
-1.0
  0
LTYPE
  2
ACISOTGL
 70
     0
  3
_ _ _ _ _
 72
    65
 73
     2
 40
3.0
 49
2.0
 49
-1.0
  0
LTYPE
  2
AM_ISO08W050
 70
     0
  3
____ . ____ . ____ . ____ . ____ . ____ . ____
 72
    65
 73
     4
 40
18.0
 49
12.0
 49
-1.5
 49
3.0
 49
-1.5
  0
LTYPE
  2
AM_ISO09W050
 70
     0
  3
_____ . . _____ . . _____ . . ____ .. ____
 72
    65
 73
     6
 40
22.5
 49
12.0
 49
-1.5
 49
3.0
 49
-1.5
 49
3.0
 49
-1.5
  0
LTYPE
  2
AM_ISO08W050X2
 70
     0
  3
__ . __ . __ . __ . __ . __
 72
    65
 73
     4
 40
9.0
 49
6.0
 49
-0.75
 49
1.5
 49
-0.75
  0
LTYPE
  2
AM_ISO02W050X2
 70
     0
  3
 _ _ _ _ _ _ _ _ _ _ _ _
 72
    65
 73
     2
 40
3.75
 49
3.0
 49
-0.75
  0
LTYPE
  2
AMZIGZAG
 70
     0
  3
/\/-/\/-/\/-/\/-/\/-/\/
 72
    65
 73
     2
 40
11.0001
 49
0.0001
 49
-11.0
  0
ENDTAB
  0
TABLE
  2
LAYER
 70
     9
  0
LAYER
  2
0
 70
     0
 62
     7
  6
CONTINUOUS
  0
LAYER
  2
DEFPOINTS
 70
     0
 62
     7
  6
CONTINUOUS
  0
LAYER
  2
245
 70
     0
 62
     2
  6
CENTER2
  0
LAYER
  2
240
 70
     0
 62
     4
  6
CONTINUOUS
  0
LAYER
  2
241
 70
     0
 62
   211
  6
CONTINUOUS
  0
LAYER
  2
242
 70
     0
 62
     3
  6
CONTINUOUS
  0
LAYER
  2
243
 70
     0
 62
   211
  6
HIDDEN2
  0
LAYER
  2
247
 70
     0
 62
    60
  6
CONTINUOUS
  0
LAYER
  2
250
 70
     0
 62
     3
  6
CONTINUOUS
  0
ENDTAB
  0
TABLE
  2
STYLE
 70
     8
  0
STYLE
  2
STANDARD
 70
     0
 40
0.0
 41
1.0
 50
0.0
 71
     0
 42
3.0
  3
romans.shx
  4
extfont.shx
  0
STYLE
  2
ACISOGDT
 70
     0
 40
0.0
 41
1.0
 50
0.0
 71
     0
 42
3.0
  3
amgdt.shx
  4
extfont.shx
  0
STYLE
  2
YOKO
 70
     0
 40
0.0
 41
1.0
 50
0.0
 71
     0
 42
3.0
  3
romans.shx
  4
extfont.shx
  0
STYLE
  2

 70
     1
 40
0.0
 41
1.0
 50
0.0
 71
     0
 42
3.0
  3
genltshp.shx
  4

  0
ENDTAB
  0
TABLE
  2
VIEW
 70
     0
  0
ENDTAB
  0
TABLE
  2
UCS
 70
     0
  0
ENDTAB
  0
TABLE
  2
APPID
 70
    37
  0
APPID
  2
ACAD
 70
     0
  0
APPID
  2
GLOBAL
 70
     0
  0
APPID
  2
DETAIL
 70
     0
  0
APPID
  2
GRPNAME
 70
     0
  0
APPID
  2
GPARA
 70
     0
  0
APPID
  2
MCAD_NO_VIS
 70
     0
  0
APPID
  2
ACAD_TEMP_GRAPHIC
 70
     0
  0
APPID
  2
ACATTRIBSERVICES
 70
     0
  0
APPID
  2
GENIUS_GENSCREG_15
 70
     0
  0
APPID
  2
GENIUS_GENODEF_13
 70
     0
  0
APPID
  2
GENIUS_GENOBJ-N-SDF_13
 70
     0
  0
APPID
  2
GENIUS_GENREC_14
 70
     0
  0
APPID
  2
GENIUS_GENOBJ-N-REC_13
 70
     0
  0
APPID
  2
GENIUS_GENDIMSH_14
 70
     0
  0
APPID
  2
GENIUS_GENOBJ-N-DIM_13
 70
     0
  0
APPID
  2
GENIUS_GENDIM_13
 70
     0
  0
APPID
  2
GENIUS_GENDTOL_13
 70
     0
  0
APPID
  2
GENIUS_GENOLIS_13
 70
     0
  0
APPID
  2
GENIUS_GENOENT_13
 70
     0
  0
APPID
  2
GENIUS_GENOBJ-F-FEM_13
 70
     0
  0
APPID
  2
GENIUS_GENOREF_13
 70
     0
  0
APPID
  2
GENIUS_GEFFEM_13
 70
     0
  0
APPID
  2
GENIUS_GEFFEMP_13
 70
     0
  0
APPID
  2
AD_DRAW
 70
     0
  0
APPID
  2
DESIGNERASSEMBLIES
 70
     0
  0
APPID
  2
ACADM_DIM_EDIT
 70
     0
  0
APPID
  2
AMDT_DM_ADJ
 70
     0
  0
APPID
  2
ITEMNAME
 70
     0
  0
APPID
  2
GENIUS_GENOBJ-N-FIL_13
 70
     0
  0
APPID
  2
GENIUS_GENFIL_13
 70
     0
  0
APPID
  2
GENIUS_GENOBJ-N-CHA_13
 70
     0
  0
APPID
  2
ACAECLAYERSTANDARD
 70
     0
  0
APPID
  2
ACAD_NAV_VCDISPLAY
 70
     0
  0
APPID
  2
ACAD_DSTYLE_DIMJAG
 70
     0
  0
APPID
  2
ACAD_DSTYLE_DIMBREAK
 70
     0
  0
APPID
  2
ACAD_EXEMPT_FROM_CAD_STANDARDS
 70
     0
  0
APPID
  2
ACAD_MLEADERVER
 70
     0
  0
ENDTAB
  0
TABLE
  2
DIMSTYLE
 70
    29
  0
DIMSTYLE
  2
BIGT
 70
     0
  3

  4

  5
OPEN
  6

  7

 40
1.0
 41
2.2299999999999991
 42
0.5
 43
7.0
 44
1.0
 45
0.0
 46
0.0
 47
0.0
 48
0.01
140
2.7999999999999989
141
0.0
142
0.0
143
25.399999999999999
144
1.0
145
0.0
146
1.0
147
1.0
 71
     0
 72
     0
 73
     0
 74
     0
 75
     0
 76
     0
 77
     3
 78
     9
170
     0
171
     2
172
     1
173
     0
174
     1
175
     0
176
   256
177
   256
178
    40
  0
DIMSTYLE
  2
AM_ISO
 70
     0
  3

  4
"
  5

  6

  7

 40
1.0
 41
2.5
 42
1.0
 43
10.0
 44
1.0
 45
0.0
 46
0.0
 47
0.1
 48
0.1
140
3.5
141
0.0
142
0.0
143
0.0393701
144
1.0
145
0.0
146
0.71
147
1.5
 71
     0
 72
     0
 73
     0
 74
     0
 75
     0
 76
     0
 77
     1
 78
     8
170
     0
171
     2
172
     1
173
     0
174
     0
175
     0
176
   256
177
   256
178
     2
  0
DIMSTYLE
  2
AM_ISO$3
 70
     0
  3

  4
"
  5

  6

  7

 40
1.0
 41
2.5
 42
1.0
 43
10.0
 44
1.0
 45
0.0
 46
0.0
 47
0.1
 48
0.1
140
3.5
141
0.0
142
0.0
143
0.0393701
144
1.0
145
0.0
146
0.71
147
1.5
 71
     0
 72
     0
 73
     0
 74
     1
 75
     0
 76
     0
 77
     1
 78
     8
170
     0
171
     2
172
     0
173
     0
174
     0
175
     0
176
   256
177
   256
178
     2
  0
DIMSTYLE
  2
AM_ISO$4
 70
     0
  3

  4
"
  5

  6

  7

 40
1.0
 41
2.5
 42
1.0
 43
10.0
 44
1.0
 45
0.0
 46
0.0
 47
0.1
 48
0.1
140
3.5
141
0.0
142
0.0
143
0.0393701
144
1.0
145
0.0
146
0.71
147
1.5
 71
     0
 72
     0
 73
     0
 74
     1
 75
     0
 76
     0
 77
     1
 78
     8
170
     0
171
     2
172
     0
173
     0
174
     0
175
     0
176
   256
177
   256
178
     2
  0
DIMSTYLE
  2
AM_ISO$6
 70
     0
  3

  4
"
  5

  6

  7

 40
1.0
 41
2.5
 42
1.0
 43
10.0
 44
1.0
 45
0.0
 46
0.0
 47
0.1
 48
0.1
140
3.5
141
0.0
142
0.0
143
0.0393701
144
1.0
145
0.0
146
0.71
147
1.5
 71
     0
 72
     0
 73
     0
 74
     0
 75
     0
 76
     0
 77
     0
 78
     8
170
     0
171
     2
172
     1
173
     0
174
     0
175
     0
176
   256
177
   256
178
     2
  0
DIMSTYLE
  2
AM_ISO$7
 70
     0
  3

  4
"
  5

  6

  7

 40
1.0
 41
2.5
 42
1.0
 43
10.0
 44
1.0
 45
0.0
 46
0.0
 47
0.1
 48
0.1
140
5.0
141
0.0
142
0.0
143
0.0393701
144
1.0
145
0.0
146
0.71
147
1.5
 71
     0
 72
     0
 73
     0
 74
     0
 75
     0
 76
     0
 77
     1
 78
     8
170
     0
171
     2
172
     1
173
     0
174
     0
175
     0
176
   256
177
   256
178
     2
  0
DIMSTYLE
  2
AM_ISO$SF
 70
     0
  3

  4
"
  5

  6

  7

 40
1.0
 41
2.5
 42
1.0
 43
10.0
 44
1.0
 45
0.0
 46
0.0
 47
0.1
 48
0.1
140
3.5
141
0.0
142
0.0
143
0.0393701
144
1.0
145
0.0
146
0.71
147
1.5
 71
     0
 72
     0
 73
     0
 74
     0
 75
     1
 76
     1
 77
     1
 78
     8
170
     0
171
     2
172
     1
173
     0
174
     0
175
     0
176
   256
177
   256
178
     2
  0
DIMSTYLE
  2
AM_ISO$SH
 70
     0
  3

  4
"
  5

  6
GENAXEH
  7

 40
1.0
 41
2.5
 42
1.0
 43
10.0
 44
1.0
 45
0.0
 46
0.0
 47
0.1
 48
0.1
140
3.5
141
0.0
142
0.0
143
0.0393701
144
2.0
145
0.0
146
0.71
147
1.5
 71
     0
 72
     0
 73
     0
 74
     0
 75
     1
 76
     1
 77
     1
 78
     8
170
     0
171
     2
172
     1
173
     1
174
     0
175
     0
176
   256
177
   256
178
     2
  0
ENDTAB
  0
ENDSEC
  0
SECTION
  2
BLOCKS
  0
BLOCK
  8
0
  2
$MODEL_SPACE
 70
     0
 10
0.0
 20
0.0
 30
0.0
  3
$MODEL_SPACE
  1

  0
ENDBLK
  5
1C
  8
0
  0
BLOCK
 67
     1
  8
0
  2
$PAPER_SPACE
 70
     0
 10
0.0
 20
0.0
 30
0.0
  3
$PAPER_SPACE
  1

  0
ENDBLK
  5
19
 67
     1
  8
0
  0
BLOCK
  8
0
  2
_OPEN
 70
     0
 10
0.0
 20
0.0
 30
0.0
  3
_OPEN
  1

  0
LINE
  5
3E1A
  8
0
  6
BYBLOCK
 62
     0
 10
-1.0
 20
0.1666666666666666
 30
0.0
 11
0.0
 21
0.0
 31
0.0
  0
LINE
  5
3E1B
  8
0
  6
BYBLOCK
 62
     0
 10
-1.0
 20
-0.1666666666666666
 30
0.0
 11
0.0
 21
0.0
 31
0.0
  0
LINE
  5
3E1C
  8
0
  6
BYBLOCK
 62
     0
 10
0.0
 20
0.0
 30
0.0
 11
-1.0
 21
0.0
 31
0.0
  0
ENDBLK
  5
3E1D
  8
0
  0
BLOCK
  8
0
  2
GENAXEH
 70
     0
 10
0.0
 20
0.0
 30
0.0
  3
GENAXEH
  1

  0
LINE
  5
3E45
  8
0
 10
-1.0
 20
0.0
 30
0.0
 11
1.0
 21
0.0
 31
0.0
  0
ENDBLK
  5
3E46
  8
0
  0
ENDSEC
  0
SECTION
  2
ENTITIES
  0
LINE
  5
42BF
  8
245
  6
CENTER2
 10
-51.78893325440162
 20
-0.0000000000000711
 30
0.0
 11
112.0
 21
0.0
 31
0.0
1001
GRPNAME
1000
PASTMD3W
  0
ARC
  5
42C0
  8
243
  6
HIDDEN2
 10
-9.4966925428961986
 20
-19.49999999999995
 30
0.0
 40
11.99999999805476
 50
270.00000005784239
 51
321.92687672764129
1001
GRPNAME
1000
PASTMD0M
  0
LINE
  5
42C1
  8
243
  6
HIDDEN2
 10
-9.4966925428961986
 20
-31.499999999999961
 30
0.0
 11
-27.11662432702553
 21
-31.499999999999961
 31
0.0
1001
GRPNAME
1000
PASTMD0M
  0
LINE
  5
42C2
  8
243
  6
HIDDEN2
 10
-30.003375672974471
 20
-26.499999999999961
 30
0.0
 11
-50.0
 21
-26.499999999999961
 31
0.0
1001
GRPNAME
1000
PASTMD0M
  0
LINE
  5
42C3
  8
243
  6
HIDDEN2
 10
-30.003375672974471
 20
-26.499999999999961
 30
0.0
 11
-27.11662432702553
 21
-31.499999999999961
 31
0.0
1001
GRPNAME
1000
PASTMD0M
  0
LINE
  5
42C4
  8
243
  6
HIDDEN2
 10
-35.0
 20
-36.249999999999957
 30
0.0
 11
-35.0
 21
-26.499999999999961
 31
0.0
1001
GRPNAME
1000
PASTMD0M
  0
LINE
  5
42C5
  8
243
  6
HIDDEN2
 10
4.9999999999990878
 20
-49.999999999999957
 30
0.0
 11
4.9999999999990878
 21
-43.99999999999995
 31
0.0
1001
GRPNAME
1000
PASTMD0M
  0
LINE
  5
42C6
  8
243
  6
HIDDEN2
 10
28.999999999999091
 20
-43.99999999999995
 30
0.0
 11
4.9999999999990878
 21
-43.99999999999995
 31
0.0
1001
GRPNAME
1000
PASTMD0M
  0
ARC
  5
42C7
  8
243
  6
HIDDEN2
 10
-9.4966925428961986
 20
19.500000000000039
 30
0.0
 40
11.999999998054779
 50
38.073123330214379
 51
90.0
1001
GRPNAME
1000
PASTMD0M
  0
LINE
  5
42C8
  8
243
  6
HIDDEN2
 10
-9.4966925428961986
 20
31.49999999805555
 30
0.0
 11
-27.116624326987509
 21
31.500000000065921
 31
0.0
1001
GRPNAME
1000
PASTMD0M
  0
LINE
  5
42C9
  8
243
  6
HIDDEN2
 10
-40.0
 20
26.500000000000039
 30
0.0
 11
-40.0
 21
36.00000000000005
 31
0.0
1001
GRPNAME
1000
PASTMD0M
  0
LINE
  5
42CA
  8
243
  6
HIDDEN2
 10
-30.003375672974471
 20
26.500000000000039
 30
0.0
 11
-27.116624326987509
 21
31.500000000065921
 31
0.0
1001
GRPNAME
1000
PASTMD0M
  0
LINE
  5
42CB
  8
243
  6
HIDDEN2
 10
-30.003375672974471
 20
26.500000000000039
 30
0.0
 11
-50.0
 21
26.500000000000039
 31
0.0
1001
GRPNAME
1000
PASTMD0M
  0
LINE
  5
42CC
  8
241
  6
CONTINUOUS
 10
23.24759526419075
 20
-49.999999999999957
 30
0.0
 11
23.24759526419075
 21
31.500000000000039
 31
0.0
1001
GRPNAME
1000
PASTMD0M
  0
LINE
  5
42CD
  8
241
  6
CONTINUOUS
 10
16.752404735808341
 20
-49.999999999999957
 30
0.0
 11
16.752404735807659
 21
31.500000000000039
 31
0.0
1001
GRPNAME
1000
PASTMD0M
  0
LINE
  5
42CE
  8
243
  6
HIDDEN2
 10
4.9999999999990878
 20
44.000000000000021
 30
0.0
 11
4.9999999999990878
 21
50.000000000000021
 31
0.0
1001
GRPNAME
1000
PASTMD0M
  0
LINE
  5
42CF
  8
243
  6
HIDDEN2
 10
28.999999999999091
 20
44.000000000000021
 30
0.0
 11
4.9999999999990878
 21
44.000000000000021
 31
0.0
1001
GRPNAME
1000
PASTMD0M
  0
LINE
  5
42D0
  8
240
  6
CONTINUOUS
 10
16.752404735808341
 20
-49.999999999999957
 30
0.0
 11
0.0
 21
-49.999999999999957
 31
0.0
1001
GRPNAME
1000
PASTMD0M
  0
LINE
  5
42D1
  8
240
  6
CONTINUOUS
 10
28.999999999999091
 20
-49.999999999999957
 30
0.0
 11
23.24759526419075
 21
-49.999999999999957
 31
0.0
1001
GRPNAME
1000
PASTMD0M
  0
LINE
  5
42D2
  8
240
  6
CONTINUOUS
 10
18.125
 20
-47.622595264191602
 30
0.0
 11
16.752404735808341
 21
-49.999999999999957
 31
0.0
1001
GRPNAME
1000
PASTMD0M
  0
LINE
  5
42D3
  8
240
  6
CONTINUOUS
 10
21.87499999999908
 20
-47.622595264191602
 30
0.0
 11
23.24759526419075
 21
-49.999999999999957
 31
0.0
1001
GRPNAME
1000
PASTMD0M
  0
LINE
  5
42D4
  8
241
  6
CONTINUOUS
 10
21.874999999999151
 20
31.500000000000039
 30
0.0
 11
21.87499999999898
 21
-45.999999999999957
 31
0.0
1001
GRPNAME
1000
PASTMD0M
  0
LINE
  5
42D5
  8
240
  6
CONTINUOUS
 10
21.874999999998799
 20
-45.999999999999957
 30
0.0
 11
21.87499999999908
 21
-47.622595264191602
 31
0.0
1001
GRPNAME
1000
PASTMD0M
  0
LINE
  5
42D6
  8
240
  6
CONTINUOUS
 10
21.874999999998799
 20
-45.999999999999957
 30
0.0
 11
18.124999999999702
 21
-45.999999999999957
 31
0.0
1001
GRPNAME
1000
PASTMD0M
  0
LINE
  5
42D7
  8
241
  6
CONTINUOUS
 10
18.12500000000006
 20
31.500000000000039
 30
0.0
 11
18.124999999999879
 21
-45.999999999999957
 31
0.0
1001
GRPNAME
1000
PASTMD0M
  0
LINE
  5
42D8
  8
240
  6
CONTINUOUS
 10
18.124999999999702
 20
-45.999999999999957
 30
0.0
 11
18.125
 21
-47.622595264191602
 31
0.0
1001
GRPNAME
1000
PASTMD0M
  0
LINE
  5
42D9
  8
240
  6
CONTINUOUS
 10
0.0
 20
-49.999999999999957
 30
0.0
 11
0.0
 21
-37.999999999999602
 31
0.0
1001
GRPNAME
1000
PASTMD0M
  0
LINE
  5
42DA
  8
241
  6
CONTINUOUS
 10
0.0
 20
-37.999999999999602
 30
0.0
 11
0.0000000000000284
 21
37.999999999999673
 31
0.0
1001
GRPNAME
1000
PASTMD0M
  0
LINE
  5
42DB
  8
245
  6
CENTER2
 10
-15.0
 20
-37.899999999999601
 30
0.0
 11
-15.0
 21
-29.577193358162571
 31
0.0
1001
GRPNAME
1000
PASTMD0M
  0
LINE
  5
42DC
  8
245
  6
CENTER2
 10
-15.0
 20
29.577193358162489
 30
0.0
 11
-15.0
 21
37.899999999999679
 31
0.0
1001
GRPNAME
1000
PASTMD0M
  0
LINE
  5
42DD
  8
243
  6
HIDDEN2
 10
-9.0000000000000568
 20
-37.549999999999621
 30
0.0
 11
-9.0
 21
-31.48971627984352
 31
0.0
1001
GRPNAME
1000
PASTMD0M
  0
LINE
  5
42DE
  8
243
  6
HIDDEN2
 10
-9.0
 20
31.489716279843648
 30
0.0
 11
-9.0
 21
37.54999999999967
 31
0.0
1001
GRPNAME
1000
PASTMD0M
  0
LINE
  5
42DF
  8
243
  6
HIDDEN2
 10
-21.0
 20
-36.949999999999669
 30
0.0
 11
-21.0
 21
-31.499999999999961
 31
0.0
1001
GRPNAME
1000
PASTMD0M
  0
LINE
  5
42E0
  8
243
  6
HIDDEN2
 10
-21.0
 20
31.499999999368061
 30
0.0
 11
-21.0
 21
36.949999999999747
 31
0.0
1001
GRPNAME
1000
PASTMD0M
  0
LINE
  5
42E1
  8
240
  6
CONTINUOUS
 10
0.0
 20
-37.999999999999602
 30
0.0
 11
-50.0
 21
-35.49999999999973
 31
0.0
1001
GRPNAME
1000
PASTMD0M
  0
LINE
  5
42E2
  8
240
  6
CONTINUOUS
 10
28.999999999999091
 20
-49.999999999999957
 30
0.0
 11
28.999999999999091
 21
-35.488732308862403
 31
0.0
1001
GRPNAME
1000
PASTMD0M
  0
LINE
  5
42E3
  8
241
  6
CONTINUOUS
 10
28.999999999999091
 20
-35.488732308862403
 30
0.0
 11
28.999999999999091
 21
35.488732308862261
 31
0.0
1001
GRPNAME
1000
PASTMD0M
  0
ARC
  5
42E4
  8
241
  6
CONTINUOUS
 10
14.636897857918941
 20
28.8297566260715
 30
0.0
 40
10.0
 50
90.0
 51
164.51272597362981
  0
LINE
  5
42E5
  8
241
  6
CONTINUOUS
 10
4.9999999999990878
 20
31.500000000000039
 30
0.0
 11
28.999999999999091
 21
31.500000000000039
 31
0.0
  0
LINE
  5
42E6
  8
241
  6
CONTINUOUS
 10
18.124999999999321
 20
33.50000000000005
 30
0.0
 11
18.124999999999702
 21
46.000000000000043
 31
0.0
1001
GRPNAME
1000
PASTMD0M
  0
LINE
  5
42E7
  8
241
  6
CONTINUOUS
 10
18.124999999999321
 20
33.50000000000005
 30
0.0
 11
21.874999999999321
 21
33.50000000000005
 31
0.0
  0
LINE
  5
42E8
  8
241
  6
CONTINUOUS
 10
21.874999999999321
 20
33.50000000000005
 30
0.0
 11
21.874999999999321
 21
46.000000000000043
 31
0.0
1001
GRPNAME
1000
PASTMD0M
  0
LINE
  5
42E9
  8
241
  6
CONTINUOUS
 10
16.752404735807659
 20
38.8297566260715
 30
0.0
 11
16.752404735807659
 21
50.000000000000021
 31
0.0
1001
GRPNAME
1000
PASTMD0M
  0
LINE
  5
42EA
  8
241
  6
CONTINUOUS
 10
23.24759526419075
 20
38.8297566260715
 30
0.0
 11
23.24759526419075
 21
50.000000000000021
 31
0.0
1001
GRPNAME
1000
PASTMD0M
  0
LINE
  5
42EB
  8
241
  6
CONTINUOUS
 10
18.124999999999321
 20
36.45235189026338
 30
0.0
 11
16.752404735807879
 21
38.8297566260715
 31
0.0
  0
LINE
  5
42EC
  8
241
  6
CONTINUOUS
 10
21.874999999999321
 20
36.452351890263621
 30
0.0
 11
23.24759526419075
 21
38.8297566260715
 31
0.0
  0
LINE
  5
42ED
  8
241
  6
CONTINUOUS
 10
14.636897857918941
 20
38.8297566260715
 30
0.0
 11
16.752404735807659
 21
38.8297566260715
 31
0.0
  0
LINE
  5
42EE
  8
241
  6
CONTINUOUS
 10
23.24759526419075
 20
38.8297566260715
 30
0.0
 11
28.999999999999091
 21
38.8297566260715
 31
0.0
  0
LINE
  5
42EF
  8
240
  6
CONTINUOUS
 10
16.752404735808341
 20
50.000000000000021
 30
0.0
 11
0.0
 21
50.000000000000021
 31
0.0
1001
GRPNAME
1000
PASTMD0M
  0
LINE
  5
42F0
  8
240
  6
CONTINUOUS
 10
28.999999999999091
 20
50.000000000000021
 30
0.0
 11
23.24759526419075
 21
50.000000000000021
 31
0.0
1001
GRPNAME
1000
PASTMD0M
  0
LINE
  5
42F1
  8
240
  6
CONTINUOUS
 10
18.125
 20
47.622595264191702
 30
0.0
 11
16.752404735808341
 21
50.000000000000021
 31
0.0
1001
GRPNAME
1000
PASTMD0M
  0
LINE
  5
42F2
  8
240
  6
CONTINUOUS
 10
21.87499999999908
 20
47.622595264191702
 30
0.0
 11
23.24759526419075
 21
50.000000000000021
 31
0.0
1001
GRPNAME
1000
PASTMD0M
  0
LINE
  5
42F3
  8
240
  6
CONTINUOUS
 10
21.874999999998799
 20
46.000000000000043
 30
0.0
 11
21.87499999999908
 21
47.622595264191702
 31
0.0
1001
GRPNAME
1000
PASTMD0M
  0
LINE
  5
42F4
  8
240
  6
CONTINUOUS
 10
21.874999999998799
 20
46.000000000000043
 30
0.0
 11
18.124999999999702
 21
46.000000000000043
 31
0.0
1001
GRPNAME
1000
PASTMD0M
  0
LINE
  5
42F5
  8
240
  6
CONTINUOUS
 10
18.124999999999702
 20
46.000000000000043
 30
0.0
 11
18.125
 21
47.622595264191702
 31
0.0
1001
GRPNAME
1000
PASTMD0M
  0
LINE
  5
42F6
  8
240
  6
CONTINUOUS
 10
-50.0
 20
35.499999999999829
 30
0.0
 11
-50.0
 21
-35.49999999999973
 31
0.0
1001
GRPNAME
1000
PASTMD0M
  0
LINE
  5
42F7
  8
240
  6
CONTINUOUS
 10
0.0
 20
50.000000000000021
 30
0.0
 11
0.0
 21
37.999999999999673
 31
0.0
1001
GRPNAME
1000
PASTMD0M
  0
LINE
  5
42F8
  8
240
  6
CONTINUOUS
 10
0.0
 20
37.999999999999673
 30
0.0
 11
-50.0
 21
35.499999999999829
 31
0.0
1001
GRPNAME
1000
PASTMD0M
  0
LINE
  5
42F9
  8
240
  6
CONTINUOUS
 10
28.999999999999091
 20
50.000000000000021
 30
0.0
 11
28.999999999999091
 21
35.488732308862261
 31
0.0
1001
GRPNAME
1000
PASTMD0M
  0
LINE
  5
42FA
  8
247
  6
CONTINUOUS
 10
9.9999999999999432
 20
-26.250000000070049
 30
0.0
 11
9.9999999999999432
 21
-19.557692308030042
 31
0.0
  0
ARC
  5
42FB
  8
247
  6
CONTINUOUS
 10
8.2500000000699174
 20
-26.250000000070049
 30
0.0
 40
1.7499999999299991
 50
180.0
 51
0.0
  0
ARC
  5
42FC
  8
247
  6
CONTINUOUS
 10
8.2500000000699174
 20
-19.557692308030042
 30
0.0
 40
1.7499999999299991
 50
0.0
 51
180.0
  0
LINE
  5
42FD
  8
247
  6
CONTINUOUS
 10
6.5000000001399458
 20
-25.384615384720021
 30
0.0
 11
9.500000000019952
 21
-26.244851541962039
 31
0.0
  0
LINE
  5
42FE
  8
247
  6
CONTINUOUS
 10
7.9230769231599529
 20
-24.484983818335841
 30
0.0
 11
7.9230769231599529
 21
-25.792676125975859
 31
0.0
  0
ARC
  5
42FF
  8
247
  6
CONTINUOUS
 10
7.049598667702921
 20
-24.145143816089799
 30
0.0
 40
0.5538165441895349
 50
72.99788967529534
 51
172.92416621851359
  0
ARC
  5
4300
  8
247
  6
CONTINUOUS
 10
6.9360330444657139
 20
-24.566878323028799
 30
0.0
 40
0.9904354236226808
 50
4.7429368522022122
 51
73.849226273266424
1001
GENIUS_GENOBJ-N-FIL_13
1002
{
1000
OWNER
1000
GEN
1002
}
1001
GENIUS_GENODEF_13
1002
{
1000
HIER
1070
     0
1002
}
1002
{
1000
MANEDIT
1070
     0
1002
}
1002
{
1000
NOSEL
1070
     0
1002
}
1002
{
1000
BEHIND
1070
     0
1002
}
1002
{
1000
OTHER
1070
     0
1002
}
1002
{
1000
REACTOR
1002
}
  0
LINE
  5
4301
  8
247
  6
CONTINUOUS
 10
9.500000000019952
 20
-24.937159234322021
 30
0.0
 11
9.500000000019952
 21
-26.244851541962039
 31
0.0
  0
LINE
  5
4302
  8
247
  6
CONTINUOUS
 10
6.5000000001399458
 20
-25.384615384720021
 30
0.0
 11
6.5000000001399458
 21
-24.07692307708
 31
0.0
  0
ARC
  5
4303
  8
247
  6
CONTINUOUS
 10
8.4820242326654807
 20
-24.560919636546959
 30
0.0
 40
0.5640818586791229
 50
65.990941652528889
 51
172.26344345906909
  0
ARC
  5
4304
  8
247
  6
CONTINUOUS
 10
8.4874290391865088
 20
-25.03826268534711
 30
0.0
 40
1.0176059446230981
 50
5.7019851642564632
 51
77.277338436822191
1001
GENIUS_GENOBJ-N-FIL_13
1002
{
1000
OWNER
1000
GEN
1002
}
1001
GENIUS_GENODEF_13
1002
{
1000
HIER
1070
     0
1002
}
1002
{
1000
MANEDIT
1070
     0
1002
}
1002
{
1000
NOSEL
1070
     0
1002
}
1002
{
1000
BEHIND
1070
     0
1002
}
1002
{
1000
OTHER
1070
     0
1002
}
1002
{
1000
REACTOR
1002
}
  0
LINE
  5
4305
  8
247
  6
CONTINUOUS
 10
9.500000000019952
 20
-23.28331308054204
 30
0.0
 11
6.5000000001399458
 21
-22.42307692330003
 31
0.0
  0
LINE
  5
4306
  8
247
  6
CONTINUOUS
 10
6.5000000001399458
 20
-20.000000000319989
 30
0.0
 11
6.5000000001399458
 21
-20.56573661945659
 31
0.0
  0
LINE
  5
4307
  8
247
  6
CONTINUOUS
 10
9.500000000019952
 20
-21.4615384618
 30
0.0
 11
9.500000000019952
 21
-20.846153846440028
 31
0.0
  0
ARC
  5
4308
  8
247
  6
CONTINUOUS
 10
8.5832851359733127
 20
-19.708791209122879
 30
0.0
 40
2.2526500823422122
 50
202.3594881415259
 51
254.99324854284609
  0
ARC
  5
4309
  8
247
  6
CONTINUOUS
 10
7.3083126551944702
 20
-20.37406947921324
 30
0.0
 40
0.8906723995727782
 50
94.994589319075374
 51
155.1663289573039
1001
GENIUS_GENOBJ-N-FIL_13
1002
{
1000
OWNER
1000
GEN
1002
}
1001
GENIUS_GENODEF_13
1002
{
1000
HIER
1070
     0
1002
}
1002
{
1000
MANEDIT
1070
     0
1002
}
1002
{
1000
NOSEL
1070
     0
1002
}
1002
{
1000
BEHIND
1070
     0
1002
}
1002
{
1000
OTHER
1070
     0
1002
}
1002
{
1000
REACTOR
1002
}
  0
ARC
  5
430A
  8
247
  6
CONTINUOUS
 10
8.1601458886677278
 20
-21.226458886212601
 30
0.0
 40
1.392781735586712
 50
15.8460965557808
 51
82.325137004169122
  0
ARC
  5
430B
  8
247
  6
CONTINUOUS
 10
8.4592434315272271
 20
-20.642212725840359
 30
0.0
 40
1.324563662670287
 50
249.7136016704969
 51
321.78874565640632
1001
GENIUS_GENOBJ-N-FIL_13
1002
{
1000
OWNER
1000
GEN
1002
}
1001
GENIUS_GENODEF_13
1002
{
1000
HIER
1070
     0
1002
}
1002
{
1000
MANEDIT
1070
     0
1002
}
1002
{
1000
NOSEL
1070
     0
1002
}
1002
{
1000
BEHIND
1070
     0
1002
}
1002
{
1000
OTHER
1070
     0
1002
}
1002
{
1000
REACTOR
1002
}
  0
LINE
  5
430C
  8
247
  6
CONTINUOUS
 10
8.3461538462199201
 20
-20.538461538759989
 30
0.0
 11
8.3461538462199201
 21
-19.846153846479989
 31
0.0
  0
LINE
  5
430D
  8
250
  6
CONTINUOUS
 10
-32.935905670000011
 20
-48.713341000781
 30
0.0
 11
-59.86923900000005
 21
-48.713341000781
 31
0.0
1001
ITEMNAME
1000
LNSP2
  0
TEXT
  5
430E
  8
250
  6
CONTINUOUS
 10
-57.602572333333342
 20
-47.713341000780993
 30
0.0
 40
2.799999999999998
  1
HSK-T100
  7
YOKO
1001
ITEMNAME
1000
LNSP3
1001
ACAD
1000
MTEXTBEGIN
1070
    73
1070
     1
1070
    44
1040
1.0
1070
    74
1070
     0
1000
MTEXTEND
  0
LINE
  5
430F
  8
250
  6
CONTINUOUS
 10
-27.000000001057909
 20
-38.432050807739088
 30
0.0
 11
-32.935905670000011
 21
-48.713341000781
 31
0.0
1001
ACAD
1000
DSTYLE
1002
{
1070
     6
1000
OPEN
1070
    41
1040
2.0
1070
    42
1040
2.0
1070
    44
1040
2.0
1070
   140
1040
4.0
1070
   343
1005
0
1002
}
  0
LINE
  5
4310
  8
250
  6
CONTINUOUS
 10
-27.288675135550928
 20
-38.265384140896131
 30
0.0
 11
-26.0
 21
-36.700000000780967
 31
0.0
  0
LINE
  5
4311
  8
250
  6
CONTINUOUS
 10
-26.71132486656489
 20
-38.598717474582067
 30
0.0
 11
-26.0
 21
-36.700000000780967
 31
0.0
  0
LINE
  5
4312
  8
250
  6
CONTINUOUS
 10
-26.0
 20
-36.700000000780967
 30
0.0
 11
-27.000000001057909
 21
-38.432050807739088
 31
0.0
  0
LINE
  5
4313
  8
247
  6
CONTINUOUS
 10
6.500000000139889
 20
-26.250000000070049
 30
0.0
 11
6.500000000139889
 21
-25.576923077020052
 31
0.0
  0
LINE
  5
4391
  8
250
  6
CONTINUOUS
 10
0.0000000000000001
 20
50.500000000000021
 30
0.0
 11
0.0000000000000009
 21
64.000000000000014
 31
0.0
  0
LINE
  5
4392
  8
250
  6
CONTINUOUS
 10
109.9999999999998
 20
12.49999999999986
 30
0.0
 11
109.9999999999998
 21
64.000000000000014
 31
0.0
  0
LINE
  5
4393
  8
250
  6
CONTINUOUS
 10
2.2299999999999991
 20
63.0
 30
0.0
 11
107.7699999999998
 21
63.0
 31
0.0
  0
LINE
  5
4394
  8
250
  6
CONTINUOUS
 10
2.2299999999999991
 20
62.62833333333333
 30
0.0
 11
0.0000000000000008
 21
63.0
 31
0.0
  0
LINE
  5
4395
  8
250
  6
CONTINUOUS
 10
2.2299999999999991
 20
63.371666666666663
 30
0.0
 11
0.0000000000000008
 21
63.0
 31
0.0
  0
LINE
  5
4396
  8
250
  6
CONTINUOUS
 10
0.0000000000000008
 20
63.0
 30
0.0
 11
2.2299999999999991
 21
63.0
 31
0.0
  0
LINE
  5
4397
  8
250
  6
CONTINUOUS
 10
107.7699999999998
 20
63.37166666666667
 30
0.0
 11
109.9999999999998
 21
63.0
 31
0.0
  0
LINE
  5
4398
  8
250
  6
CONTINUOUS
 10
107.7699999999998
 20
62.62833333333333
 30
0.0
 11
109.9999999999998
 21
63.0
 31
0.0
  0
LINE
  5
4399
  8
250
  6
CONTINUOUS
 10
109.9999999999998
 20
63.0
 30
0.0
 11
107.7699999999998
 21
63.0
 31
0.0
  0
TEXT
  5
439A
  8
250
  6
CONTINUOUS
 10
51.799999999999912
 20
64.000000000000028
 30
0.0
 40
2.799999999999998
  1
110
1001
ACAD
1000
MTEXTBEGIN
1070
    73
1070
     1
1070
    44
1040
1.0
1070
    74
1070
     0
1000
MTEXTEND
  0
LINE
  5
439B
  8
250
  6
CONTINUOUS
 10
49.99999999967855
 20
10.499999999993589
 30
0.0
 11
49.99999999967855
 21
57.000000000000007
 31
0.0
  0
LINE
  5
439C
  8
250
  6
CONTINUOUS
 10
109.9999999999998
 20
12.49999999999986
 30
0.0
 11
109.9999999999998
 21
57.000000000000007
 31
0.0
  0
LINE
  5
439D
  8
250
  6
CONTINUOUS
 10
52.22999999967854
 20
56.000000000000007
 30
0.0
 11
107.7699999999998
 21
56.000000000000007
 31
0.0
  0
LINE
  5
439E
  8
250
  6
CONTINUOUS
 10
52.22999999967854
 20
55.62833333333333
 30
0.0
 11
49.99999999967855
 21
56.000000000000007
 31
0.0
  0
LINE
  5
439F
  8
250
  6
CONTINUOUS
 10
52.22999999967854
 20
56.37166666666667
 30
0.0
 11
49.99999999967855
 21
56.000000000000007
 31
0.0
  0
LINE
  5
43A0
  8
250
  6
CONTINUOUS
 10
49.99999999967855
 20
56.000000000000007
 30
0.0
 11
52.22999999967854
 21
56.000000000000007
 31
0.0
  0
LINE
  5
43A1
  8
250
  6
CONTINUOUS
 10
107.7699999999998
 20
56.371666666666677
 30
0.0
 11
109.9999999999998
 21
56.000000000000007
 31
0.0
  0
LINE
  5
43A2
  8
250
  6
CONTINUOUS
 10
107.7699999999998
 20
55.62833333333333
 30
0.0
 11
109.9999999999998
 21
56.000000000000007
 31
0.0
  0
LINE
  5
43A3
  8
250
  6
CONTINUOUS
 10
109.9999999999998
 20
56.000000000000007
 30
0.0
 11
107.7699999999998
 21
56.000000000000007
 31
0.0
  0
TEXT
  5
43A4
  8
250
  6
CONTINUOUS
 10
69.710376252365975
 20
57.000000000000007
 30
0.0
 40
2.799999999999998
  1
üimax.60üj
1001
ACAD
1000
MTEXTBEGIN
1070
    73
1070
     1
1070
    44
1040
1.0
1070
    74
1070
     0
1000
MTEXTEND
  0
LINE
  5
43A5
  8
250
  6
CONTINUOUS
 10
110.4999999999998
 20
10.000000000000719
 30
0.0
 11
123.4999999999999
 21
10.000000000000711
 31
0.0
  0
LINE
  5
43A6
  8
250
  6
CONTINUOUS
 10
122.4999999999999
 20
-7.7700000000005902
 30
0.0
 11
122.4999999999999
 21
7.7700000000007146
 31
0.0
  0
LINE
  5
43A7
  8
250
  6
CONTINUOUS
 10
122.1283333333332
 20
7.770000000000711
 30
0.0
 11
122.4999999999999
 21
10.000000000000711
 31
0.0
  0
LINE
  5
43A8
  8
250
  6
CONTINUOUS
 10
122.8716666666666
 20
7.770000000000711
 30
0.0
 11
122.4999999999999
 21
10.000000000000711
 31
0.0
  0
LINE
  5
43A9
  8
250
  6
CONTINUOUS
 10
122.4999999999999
 20
10.000000000000711
 30
0.0
 11
122.4999999999999
 21
7.770000000000711
 31
0.0
  0
TEXT
  5
43AA
  8
250
  6
CONTINUOUS
 10
121.4999999999999
 20
-3.9333333333333171
 30
0.0
 40
2.7999999999999989
  1
\U+2205
 50
90.0
1001
ACAD
1000
MTEXTBEGIN
1070
    73
1070
     1
1070
    44
1040
1.0
1070
    74
1070
     0
1000
MTEXTEND
  0
TEXT
  5
43AB
  8
250
  6
CONTINUOUS
 10
121.4999999999999
 20
-1.3999999999999839
 30
0.0
 40
2.799999999999998
  1
20
 50
90.0
1001
ACAD
1000
MTEXTBEGIN
1070
    73
1070
     1
1070
    44
1040
1.0
1070
    74
1070
     0
1000
MTEXTEND
  0
LINE
  5
43AC
  8
250
  6
CONTINUOUS
 10
107.03429858860029
 20
-24.99999999999995
 30
0.0
 11
130.49999999999989
 21
-24.99999999999995
 31
0.0
  0
LINE
  5
43AD
  8
250
  6
CONTINUOUS
 10
107.03429858859511
 20
25.000000000019561
 30
0.0
 11
130.49999999999989
 21
25.000000000019561
 31
0.0
  0
LINE
  5
43AE
  8
250
  6
CONTINUOUS
 10
129.49999999999989
 20
-22.769999999999939
 30
0.0
 11
129.49999999999989
 21
22.770000000019561
 31
0.0
  0
LINE
  5
43AF
  8
250
  6
CONTINUOUS
 10
129.87166666666661
 20
-22.76999999999995
 30
0.0
 11
129.49999999999989
 21
-24.99999999999995
 31
0.0
  0
LINE
  5
43B0
  8
250
  6
CONTINUOUS
 10
129.12833333333319
 20
-22.76999999999995
 30
0.0
 11
129.49999999999989
 21
-24.99999999999995
 31
0.0
  0
LINE
  5
43B1
  8
250
  6
CONTINUOUS
 10
129.49999999999989
 20
-24.99999999999995
 30
0.0
 11
129.49999999999989
 21
-22.76999999999995
 31
0.0
  0
LINE
  5
43B2
  8
250
  6
CONTINUOUS
 10
129.12833333333319
 20
22.770000000019561
 30
0.0
 11
129.49999999999989
 21
25.000000000019561
 31
0.0
  0
LINE
  5
43B3
  8
250
  6
CONTINUOUS
 10
129.87166666666661
 20
22.770000000019561
 30
0.0
 11
129.49999999999989
 21
25.000000000019561
 31
0.0
  0
LINE
  5
43B4
  8
250
  6
CONTINUOUS
 10
129.49999999999989
 20
25.000000000019561
 30
0.0
 11
129.49999999999989
 21
22.770000000019561
 31
0.0
  0
TEXT
  5
43B5
  8
250
  6
CONTINUOUS
 10
128.49999999999989
 20
-3.9333333333333171
 30
0.0
 40
2.7999999999999989
  1
\U+2205
 50
90.0
1001
ACAD
1000
MTEXTBEGIN
1070
    73
1070
     1
1070
    44
1040
1.0
1070
    74
1070
     0
1000
MTEXTEND
  0
TEXT
  5
43B6
  8
250
  6
CONTINUOUS
 10
128.49999999999989
 20
-1.3999999999999839
 30
0.0
 40
2.799999999999998
  1
50
 50
90.0
1001
ACAD
1000
MTEXTBEGIN
1070
    73
1070
     1
1070
    44
1040
1.0
1070
    74
1070
     0
1000
MTEXTEND
  0
TEXT
  5
43B7
  8
241
  6
CONTINUOUS
 10
-50.000000000000227
 20
77.000000000000014
 30
0.0
 40
5.0
  1
HSK-T100-BSL20-110
  7
YOKO
 11
-50.000000000000227
 21
77.000000000000014
 31
0.0
 73
     1
  0
LINE
  5
43B8
  8
243
  6
HIDDEN2
 10
49.99999999967855
 20
9.9999999999935891
 30
0.0
 11
109.9999999999998
 21
10.000000000000719
 31
0.0
  0
LINE
  5
43B9
  8
240
  6
CONTINUOUS
 10
109.9999999999998
 20
11.99999999999986
 30
0.0
 11
106.5166604983901
 21
25.000000000019519
 31
0.0
  0
LINE
  5
43BB
  8
240
  6
CONTINUOUS
 10
106.51666049839631
 20
-24.999999999996231
 30
0.0
 11
49.999999999906308
 21
-25.000000000057572
 31
0.0
  0
LINE
  5
43BC
  8
240
  6
CONTINUOUS
 10
109.9999999999998
 20
-11.99999999999987
 30
0.0
 11
109.9999999999998
 21
12.000000000000011
 31
0.0
  0
LINE
  5
43BD
  8
240
  6
CONTINUOUS
 10
109.9999999999998
 20
-11.99999999999987
 30
0.0
 11
106.51666049839631
 21
-24.999999999996231
 31
0.0
  0
LINE
  5
43C9
  8
240
  6
CONTINUOUS
 10
49.999999999982933
 20
25.000000000021501
 30
0.0
 11
106.5166604983901
 21
25.000000000019519
 31
0.0
  0
LINE
  5
43CB
  8
240
  6
CONTINUOUS
 10
49.999999999906308
 20
-25.000000000057572
 30
0.0
 11
30.054763476519309
 21
-34.300616534625981
 31
0.0
  0
LINE
  5
43CC
  8
240
  6
CONTINUOUS
 10
49.999999999982933
 20
25.000000000021501
 30
0.0
 11
30.054763476518769
 21
34.300616534624979
 31
0.0
  0
ARC
  5
43CD
  8
240
  6
CONTINUOUS
 10
30.900000000000048
 20
-36.113232108699322
 30
0.0
 40
2.0
 50
114.9999999999996
 51
161.8051276611869
  0
ARC
  5
43CE
  8
240
  6
CONTINUOUS
 10
30.899999999999999
 20
36.113232108699343
 30
0.0
 40
2.0
 50
198.1948723388129
 51
245.00000000000031
  0
LINE
  5
43CF
  8
241
  6
CONTINUOUS
 10
49.999999999999439
 20
-25.000000000020769
 30
0.0
 11
49.999999999999361
 21
25.000000000020819
 31
0.0
  0
LINE
  5
43D0
  8
241
  6
CONTINUOUS
 10
71.366025403832182
 20
-25.000000000012481
 30
0.0
 11
71.366025403832381
 21
25.00000000001258
 31
0.0
  0
LINE
  5
43D1
  8
241
  6
CONTINUOUS
 10
69.633974596261496
 20
-25.000000000020911
 30
0.0
 11
69.633974596261027
 21
25.000000000020989
 31
0.0
  0
LINE
  5
43D2
  8
241
  6
CONTINUOUS
 10
66.366025403783127
 20
-25.000000000012491
 30
0.0
 11
66.366025403783354
 21
25.00000000001258
 31
0.0
  0
LINE
  5
43D3
  8
241
  6
CONTINUOUS
 10
64.633974596212724
 20
-25.000000000020911
 30
0.0
 11
64.633974596212013
 21
25.000000000020989
 31
0.0
  0
LINE
  5
43D4
  8
241
  6
CONTINUOUS
 10
86.366025403737495
 20
-25.000000000012349
 30
0.0
 11
86.366025403736941
 21
25.00000000001247
 31
0.0
  0
LINE
  5
43D5
  8
241
  6
CONTINUOUS
 10
84.633974596166823
 20
-25.000000000020769
 30
0.0
 11
84.633974596165856
 21
25.000000000020879
 31
0.0
  0
LINE
  5
43D6
  8
241
  6
CONTINUOUS
 10
89.633974596215822
 20
-25.000000000020769
 30
0.0
 11
89.633974596215509
 21
25.000000000020879
 31
0.0
  0
LINE
  5
43D7
  8
241
  6
CONTINUOUS
 10
91.366025403786438
 20
-25.000000000012349
 30
0.0
 11
91.366025403785756
 21
25.00000000001247
 31
0.0
  0
LINE
  5
43D8
  8
245
  6
CENTER2
 10
97.999999999999176
 20
6.0000000000000826
 30
0.0
 11
97.999999999999176
 21
-5.9999999999999121
 31
0.0
  0
CIRCLE
  5
43D9
  8
242
  6
CONTINUOUS
 10
97.999999999999176
 20
0.0000000000000853
 30
0.0
 40
4.375
  0
CIRCLE
  5
43DA
  8
241
  6
CONTINUOUS
 10
97.999999999999176
 20
0.0000000000000853
 30
0.0
 40
5.0
  0
LINE
  5
43DB
  8
241
  6
CONTINUOUS
 10
95.499999999999176
 20
-1.443375669999909
 30
0.0
 11
97.999999999999176
 21
-2.886751349999912
 31
0.0
  0
LINE
  5
43DC
  8
241
  6
CONTINUOUS
 10
97.999999999999176
 20
-2.886751349999912
 30
0.0
 11
100.4999999999991
 21
-1.443375669999909
 31
0.0
  0
LINE
  5
43DD
  8
241
  6
CONTINUOUS
 10
100.4999999999991
 20
-1.443375669999909
 30
0.0
 11
100.4999999999991
 21
1.443375670000079
 31
0.0
  0
LINE
  5
43DE
  8
241
  6
CONTINUOUS
 10
100.4999999999991
 20
1.443375670000079
 30
0.0
 11
97.999999999999176
 21
2.8867513500000821
 31
0.0
  0
LINE
  5
43DF
  8
241
  6
CONTINUOUS
 10
97.999999999999176
 20
2.8867513500000821
 30
0.0
 11
95.499999999999176
 21
1.443375670000079
 31
0.0
  0
LINE
  5
43E0
  8
241
  6
CONTINUOUS
 10
95.499999999999176
 20
1.443375670000079
 30
0.0
 11
95.499999999999176
 21
-1.443375669999909
 31
0.0
  0
LINE
  5
43E2
  8
241
  6
CONTINUOUS
 10
106.5166604983901
 20
-24.99999999999622
 30
0.0
 11
106.51666049838759
 21
25.000000000019519
 31
0.0
  0
LINE
  5
43E4
  8
245
  6
CENTER2
 10
78.000000000033722
 20
5.9999999999999574
 30
0.0
 11
78.000000000033722
 21
-6.0000000000000417
 31
0.0
  0
CIRCLE
  5
43E5
  8
242
  6
CONTINUOUS
 10
78.000000000033722
 20
-0.0000000000000426
 30
0.0
 40
4.375
  0
CIRCLE
  5
43E6
  8
241
  6
CONTINUOUS
 10
78.000000000033722
 20
-0.0000000000000426
 30
0.0
 40
5.0
  0
LINE
  5
43E7
  8
241
  6
CONTINUOUS
 10
75.500000000033722
 20
-1.4433756700000351
 30
0.0
 11
78.000000000033722
 21
-2.8867513500000381
 31
0.0
  0
LINE
  5
43E8
  8
241
  6
CONTINUOUS
 10
78.000000000033722
 20
-2.8867513500000381
 30
0.0
 11
80.500000000033722
 21
-1.4433756700000351
 31
0.0
  0
LINE
  5
43E9
  8
241
  6
CONTINUOUS
 10
80.500000000033722
 20
-1.4433756700000351
 30
0.0
 11
80.500000000033722
 21
1.443375669999952
 31
0.0
  0
LINE
  5
43EA
  8
241
  6
CONTINUOUS
 10
80.500000000033722
 20
1.443375669999952
 30
0.0
 11
78.000000000033722
 21
2.886751349999952
 31
0.0
  0
LINE
  5
43EB
  8
241
  6
CONTINUOUS
 10
78.000000000033722
 20
2.886751349999952
 30
0.0
 11
75.500000000033722
 21
1.443375669999952
 31
0.0
  0
LINE
  5
43EC
  8
241
  6
CONTINUOUS
 10
75.500000000033722
 20
1.443375669999952
 30
0.0
 11
75.500000000033722
 21
-1.4433756700000351
 31
0.0
  0
LINE
  5
43EE
  8
245
  6
CENTER2
 10
58.000000000032522
 20
5.9999999999999707
 30
0.0
 11
58.000000000032522
 21
-6.0000000000000266
 31
0.0
  0
CIRCLE
  5
43EF
  8
242
  6
CONTINUOUS
 10
58.000000000032522
 20
-0.0000000000000284
 30
0.0
 40
4.375
  0
CIRCLE
  5
43F0
  8
241
  6
CONTINUOUS
 10
58.000000000032522
 20
-0.0000000000000284
 30
0.0
 40
5.0
  0
LINE
  5
43F1
  8
241
  6
CONTINUOUS
 10
55.500000000032522
 20
-1.4433756700000231
 30
0.0
 11
58.000000000032522
 21
-2.8867513500000248
 31
0.0
  0
LINE
  5
43F2
  8
241
  6
CONTINUOUS
 10
58.000000000032522
 20
-2.8867513500000248
 30
0.0
 11
60.500000000032522
 21
-1.4433756700000231
 31
0.0
  0
LINE
  5
43F3
  8
241
  6
CONTINUOUS
 10
60.500000000032522
 20
-1.4433756700000231
 30
0.0
 11
60.500000000032522
 21
1.4433756699999649
 31
0.0
  0
LINE
  5
43F4
  8
241
  6
CONTINUOUS
 10
60.500000000032522
 20
1.4433756699999649
 30
0.0
 11
58.000000000032522
 21
2.886751349999968
 31
0.0
  0
LINE
  5
43F5
  8
241
  6
CONTINUOUS
 10
58.000000000032522
 20
2.886751349999968
 30
0.0
 11
55.500000000032522
 21
1.4433756699999649
 31
0.0
  0
LINE
  5
43F6
  8
241
  6
CONTINUOUS
 10
55.500000000032522
 20
1.4433756699999649
 30
0.0
 11
55.500000000032522
 21
-1.4433756700000231
 31
0.0
  0
LINE
  5
43FE
  8
250
  6
CONTINUOUS
 10
110.4999999999991
 20
-10.000000000000609
 30
0.0
 11
123.4999999999992
 21
-10.000000000001521
 31
0.0
  0
LINE
  5
43FF
  8
250
  6
CONTINUOUS
 10
122.12833333333271
 20
-7.7700000000014322
 30
0.0
 11
122.4999999999992
 21
-10.00000000000145
 31
0.0
  0
LINE
  5
4400
  8
250
  6
CONTINUOUS
 10
122.871666666666
 20
-7.7700000000014837
 30
0.0
 11
122.4999999999992
 21
-10.00000000000145
 31
0.0
  0
LINE
  5
4401
  8
250
  6
CONTINUOUS
 10
122.4999999999992
 20
-10.00000000000145
 30
0.0
 11
122.4999999999993
 21
-7.7700000000014571
 31
0.0
  0
LINE
  5
4402
  8
243
  6
HIDDEN2
 10
49.999999999677833
 20
-9.9999999999891802
 30
0.0
 11
109.9999999999991
 21
-10.000000000000581
 31
0.0
  0
VIEWPORT
  5
22
 67
     1
  8
0
 10
261.51769911504419
 20
148.5
 30
0.0
 40
523.0353982300885
 41
297.0
 68
     1
 69
     1
1001
ACAD
1000
MVIEW
1002
{
1070
    16
1010
0.0
1020
0.0
1030
0.0
1010
0.0
1020
0.0
1030
1.0
1040
0.0
1040
297.0
1040
261.51769911504419
1040
148.5
1040
50.0
1040
0.0
1040
0.0
1070
     0
1070
   100
1070
     1
1070
     1
1070
     0
1070
     0
1070
     0
1070
     0
1040
0.0
1040
0.0
1040
0.0
1040
1.0
1040
1.0
1040
10.0
1040
10.0
1070
     0
1002
{
1002
}
1002
}
1001
GENIUS_GENODEF_13
1002
{
1000
HIER
1070
     0
1002
}
1002
{
1000
MANEDIT
1070
     0
1002
}
1002
{
1000
NOSEL
1070
     0
1002
}
1002
{
1000
BEHIND
1070
     0
1002
}
1002
{
1000
OTHER
1070
     0
1002
}
1002
{
1000
REACTOR
1002
}
1001
GENIUS_GENOBJ-N-SDF_13
1002
{
1000
OWNER
1000
GEN
1002
}
1001
GENIUS_GENSCREG_15
1000
PF
1040
1.0
1000
DF
1040
1.0
1000
MIN
1011
0.0
1021
0.0
1031
0.0
1021
0.0
1031
0.0
1000
MAX
1011
523.0353982300885
1021
0.0
1031
0.0
1021
297.0
1031
0.0
1000
FLAGS
1070
     4
  0
ENDSEC
  0
EOF
