  0
SECTION
  2
HEADER
  9
$ACADVER
  1
AC1009
  9
$INSBASE
 10
0.0
 20
0.0
 30
0.0
  9
$EXTMIN
 10
-43.1624770098506829
 20
-31.5
 30
0.0
  9
$EXTMAX
 10
111.2444805238854997
 20
61.0000000000000071
 30
0.0
  9
$LIMMIN
 10
0.0
 20
0.0
  9
$LIMMAX
 10
297.0
 20
210.0
  9
$ORTHOMODE
 70
     1
  9
$REGENMODE
 70
     1
  9
$FILLMODE
 70
     1
  9
$QTEXTMODE
 70
     0
  9
$MIRRTEXT
 70
     1
  9
$DRAGMODE
 70
     2
  9
$LTSCALE
 40
10.0
  9
$OSMODE
 70
   807
  9
$ATTMODE
 70
     1
  9
$TEXTSIZE
 40
3.0
  9
$TRACEWID
 40
1.0
  9
$TEXTSTYLE
  7
YOKO
  9
$CLAYER
  8
240
  9
$CELTYPE
  6
BYLAYER
  9
$CECOLOR
 62
   256
  9
$DIMSCALE
 40
1.0
  9
$DIMASZ
 40
2.2299999999999991
  9
$DIMEXO
 40
0.5
  9
$DIMDLI
 40
7.0
  9
$DIMRND
 40
0.0
  9
$DIMDLE
 40
0.0
  9
$DIMEXE
 40
1.0
  9
$DIMTP
 40
0.0
  9
$DIMTM
 40
0.01
  9
$DIMTXT
 40
2.799999999999998
  9
$DIMCEN
 40
0.0
  9
$DIMTSZ
 40
0.0
  9
$DIMTOL
 70
     0
  9
$DIMLIM
 70
     0
  9
$DIMTIH
 70
     0
  9
$DIMTOH
 70
     0
  9
$DIMSE1
 70
     0
  9
$DIMSE2
 70
     0
  9
$DIMTAD
 70
     3
  9
$DIMZIN
 70
     9
  9
$DIMBLK
  1
OPEN
  9
$DIMASO
 70
     1
  9
$DIMSHO
 70
     1
  9
$DIMPOST
  1

  9
$DIMAPOST
  1

  9
$DIMALT
 70
     0
  9
$DIMALTD
 70
     2
  9
$DIMALTF
 40
25.3999999999999986
  9
$DIMLFAC
 40
1.0
  9
$DIMTOFL
 70
     1
  9
$DIMTVP
 40
0.0
  9
$DIMTIX
 70
     1
  9
$DIMSOXD
 70
     0
  9
$DIMSAH
 70
     0
  9
$DIMBLK1
  1

  9
$DIMBLK2
  1

  9
$DIMSTYLE
  2
BIGT
  9
$DIMCLRD
 70
   256
  9
$DIMCLRE
 70
   256
  9
$DIMCLRT
 70
    40
  9
$DIMTFAC
 40
1.0
  9
$DIMGAP
 40
1.0
  9
$LUNITS
 70
     2
  9
$LUPREC
 70
     6
  9
$SKETCHINC
 40
1.0
  9
$FILLETRAD
 40
5.0
  9
$AUNITS
 70
     0
  9
$AUPREC
 70
     6
  9
$MENU
  1
.
  9
$ELEVATION
 40
0.0
  9
$PELEVATION
 40
0.0
  9
$THICKNESS
 40
0.0
  9
$LIMCHECK
 70
     0
  9
$BLIPMODE
 70
     0
  9
$CHAMFERA
 40
0.2
  9
$CHAMFERB
 40
0.2
  9
$SKPOLY
 70
     0
  9
$TDCREATE
 40
2457736.6071643522009254
  9
$TDUPDATE
 40
2458292.6027083331719041
  9
$TDINDWG
 40
0.0269251042
  9
$TDUSRTIMER
 40
0.0269250694
  9
$USRTIMER
 70
     1
  9
$ANGBASE
 50
0.0
  9
$ANGDIR
 70
     0
  9
$PDMODE
 70
     1
  9
$PDSIZE
 40
0.0
  9
$PLINEWID
 40
0.0
  9
$COORDS
 70
     1
  9
$SPLFRAME
 70
     0
  9
$SPLINETYPE
 70
     6
  9
$SPLINESEGS
 70
     4
  9
$ATTDIA
 70
     1
  9
$ATTREQ
 70
     1
  9
$HANDLING
 70
     1
  9
$HANDSEED
  5
4811
  9
$SURFTAB1
 70
     6
  9
$SURFTAB2
 70
     6
  9
$SURFTYPE
 70
     6
  9
$SURFU
 70
     6
  9
$SURFV
 70
     6
  9
$UCSNAME
  2

  9
$UCSORG
 10
0.0
 20
0.0
 30
0.0
  9
$UCSXDIR
 10
1.0
 20
0.0
 30
0.0
  9
$UCSYDIR
 10
0.0
 20
1.0
 30
0.0
  9
$PUCSNAME
  2

  9
$PUCSORG
 10
0.0
 20
0.0
 30
0.0
  9
$PUCSXDIR
 10
1.0
 20
0.0
 30
0.0
  9
$PUCSYDIR
 10
0.0
 20
1.0
 30
0.0
  9
$USERI1
 70
     1
  9
$USERI2
 70
     0
  9
$USERI3
 70
     0
  9
$USERI4
 70
     0
  9
$USERI5
 70
     0
  9
$USERR1
 40
0.0
  9
$USERR2
 40
0.0
  9
$USERR3
 40
0.0
  9
$USERR4
 40
0.0
  9
$USERR5
 40
0.0
  9
$WORLDVIEW
 70
     1
  9
$SHADEDGE
 70
     3
  9
$SHADEDIF
 70
    70
  9
$TILEMODE
 70
     1
  9
$MAXACTVP
 70
    16
  9
$PLIMCHECK
 70
     0
  9
$PEXTMIN
 10
1.0000000000000000E+20
 20
1.0000000000000000E+20
 30
1.0000000000000000E+20
  9
$PEXTMAX
 10
-1.0000000000000000E+20
 20
-1.0000000000000000E+20
 30
-1.0000000000000000E+20
  9
$PLIMMIN
 10
0.0
 20
0.0
  9
$PLIMMAX
 10
420.0
 20
297.0
  9
$UNITMODE
 70
     0
  9
$VISRETAIN
 70
     1
  9
$PLINEGEN
 70
     0
  9
$PSLTSCALE
 70
     1
  0
ENDSEC
  0
SECTION
  2
TABLES
  0
TABLE
  2
VPORT
 70
     1
  0
VPORT
  2
*ACTIVE
 70
     0
 10
0.0
 20
0.0
 11
1.0
 21
1.0
 12
69.2497602863556381
 22
13.9366064887492005
 13
0.0
 23
0.0
 14
7.0
 24
7.0
 15
7.0
 25
7.0
 16
0.0
 26
0.0
 36
1.0
 17
0.0
 27
0.0
 37
0.0
 40
145.1451407225673051
 41
1.887387387387387
 42
50.0
 43
0.0
 44
0.0
 50
0.0
 51
0.0
 71
     0
 72
  2000
 73
     1
 74
     0
 75
     0
 76
     1
 77
     0
 78
     0
  0
ENDTAB
  0
TABLE
  2
LTYPE
 70
    22
  0
LTYPE
  2
CONTINUOUS
 70
     0
  3
Solid line
 72
    65
 73
     0
 40
0.0
  0
LTYPE
  2
CENTER2
 70
     0
  3
___ _ ___ _ ___ _ ___ _ ___ _ ___ _ ___ _ ___ _
 72
    65
 73
     4
 40
1.125
 49
0.75
 49
-0.125
 49
0.125
 49
-0.125
  0
LTYPE
  2
HIDDEN2
 70
     0
  3
_ _ _ _ _ _ _ _ _ _ _ _ _ _ _ _ _ _ _ _ _ _ _ _
 72
    65
 73
     2
 40
0.1875
 49
0.125
 49
-0.0625
  0
LTYPE
  2
PHANTOM2
 70
     0
  3
___ _ _ ___ _ _ ___ _ _ ___ _ _ ___ _ _ ___ _ _
 72
    65
 73
     6
 40
1.25
 49
0.625
 49
-0.125
 49
0.125
 49
-0.125
 49
0.125
 49
-0.125
  0
LTYPE
  2
AMCONSTR
 70
     0
  3
_______________________
 72
    65
 73
     2
 40
9999.0
 49
9999.0
 49
0.0
  0
LTYPE
  2
HIDDEN
 70
     0
  3
Hidden __ __ __ __ __ __ __ __ __ __ __ __ __ _
 72
    65
 73
     2
 40
0.375
 49
0.25
 49
-0.125
  0
LTYPE
  2
CENTER
 70
     0
  3
Center ____ _ ____ _ ____ _ ____ _ ____ _ ____
 72
    65
 73
     4
 40
2.0
 49
1.25
 49
-0.25
 49
0.25
 49
-0.25
  0
LTYPE
  2
AMZIGZAG2
 70
     0
  3
/\/-/\/-/\/-/\/-/\/-/\/
 72
    65
 73
     2
 40
0.4401
 49
0.0001
 49
-0.4400000000000001
  0
LTYPE
  2
ACANSTGB
 70
     0
  3
__ . . __ . .
 72
    65
 73
     6
 40
0.35433070866
 49
0.15748031496
 49
-0.03937007874
 49
0.03937007874
 49
-0.03937007874
 49
0.03937007874
 49
-0.03937007874
  0
LTYPE
  2
ACANSTGL
 70
     0
  3
_ _ _ _ _
 72
    65
 73
     2
 40
0.11811023622
 49
0.07874015748
 49
-0.03937007874
  0
ENDTAB
  0
TABLE
  2
LAYER
 70
     9
  0
LAYER
  2
0
 70
     0
 62
     7
  6
CONTINUOUS
  0
LAYER
  2
240
 70
     0
 62
     4
  6
CONTINUOUS
  0
LAYER
  2
DEFPOINTS
 70
     0
 62
     7
  6
CONTINUOUS
  0
LAYER
  2
245
 70
     0
 62
     2
  6
CENTER2
  0
LAYER
  2
241
 70
     0
 62
   211
  6
CONTINUOUS
  0
LAYER
  2
242
 70
     0
 62
     3
  6
CONTINUOUS
  0
LAYER
  2
243
 70
     0
 62
   211
  6
HIDDEN2
  0
LAYER
  2
247
 70
     0
 62
    60
  6
CONTINUOUS
  0
LAYER
  2
250
 70
     0
 62
     3
  6
CONTINUOUS
  0
ENDTAB
  0
TABLE
  2
STYLE
 70
    10
  0
STYLE
  2
STANDARD
 70
     0
 40
0.0
 41
1.0
 50
0.0
 71
     0
 42
3.0
  3
romans.shx
  4
extfont.shx
  0
STYLE
  2
YOKO
 70
     0
 40
0.0
 41
1.0
 50
0.0
 71
     0
 42
3.0
  3
romans.shx
  4
extfont.shx
  0
STYLE
  2

 70
     1
 40
0.0
 41
1.0
 50
0.0
 71
     0
 42
3.0
  3
genltshp.shx
  4

  0
STYLE
  2
ACANSGDT
 70
     0
 40
0.0
 41
1.0
 50
0.0
 71
     0
 42
3.0
  3
amgdt.shx
  4

  0
ENDTAB
  0
TABLE
  2
VIEW
 70
     0
  0
ENDTAB
  0
TABLE
  2
UCS
 70
     0
  0
ENDTAB
  0
TABLE
  2
APPID
 70
    39
  0
APPID
  2
ACAD
 70
     0
  0
APPID
  2
ACADANNOTATIVE
 70
     0
  0
APPID
  2
GLOBAL
 70
     0
  0
APPID
  2
DETAIL
 70
     0
  0
APPID
  2
GRPNAME
 70
     0
  0
APPID
  2
GPARA
 70
     0
  0
APPID
  2
MCAD_NO_VIS
 70
     0
  0
APPID
  2
ACAD_TEMP_GRAPHIC
 70
     0
  0
APPID
  2
ACATTRIBSERVICES
 70
     0
  0
APPID
  2
GENIUS_GENSCREG_15
 70
     0
  0
APPID
  2
GENIUS_GENODEF_13
 70
     0
  0
APPID
  2
GENIUS_GENOBJ-N-SDF_13
 70
     0
  0
APPID
  2
GENIUS_GENREC_14
 70
     0
  0
APPID
  2
GENIUS_GENOBJ-N-REC_13
 70
     0
  0
APPID
  2
GENIUS_GENDIMSH_14
 70
     0
  0
APPID
  2
GENIUS_GENOBJ-N-DIM_13
 70
     0
  0
APPID
  2
GENIUS_GENDIM_13
 70
     0
  0
APPID
  2
GENIUS_GENDTOL_13
 70
     0
  0
APPID
  2
GENIUS_GENOLIS_13
 70
     0
  0
APPID
  2
GENIUS_GENOENT_13
 70
     0
  0
APPID
  2
GENIUS_GENOBJ-F-FEM_13
 70
     0
  0
APPID
  2
GENIUS_GENOREF_13
 70
     0
  0
APPID
  2
GENIUS_GEFFEM_13
 70
     0
  0
APPID
  2
GENIUS_GEFFEMP_13
 70
     0
  0
APPID
  2
AD_DRAW
 70
     0
  0
APPID
  2
DESIGNERASSEMBLIES
 70
     0
  0
APPID
  2
ACADM_DIM_EDIT
 70
     0
  0
APPID
  2
AMDT_DM_ADJ
 70
     0
  0
APPID
  2
ITEMNAME
 70
     0
  0
APPID
  2
GENIUS_GENOBJ-N-FIL_13
 70
     0
  0
APPID
  2
GENIUS_GENFIL_13
 70
     0
  0
APPID
  2
GENIUS_GENOBJ-N-CHA_13
 70
     0
  0
APPID
  2
ACAD_NAV_VCDISPLAY
 70
     0
  0
APPID
  2
ACAD_PSEXT
 70
     0
  0
APPID
  2
ACAD_EXEMPT_FROM_CAD_STANDARDS
 70
     0
  0
APPID
  2
ACAECLAYERSTANDARD
 70
     0
  0
APPID
  2
ACAD_MLEADERVER
 70
     0
  0
APPID
  2
ACAD_DSTYLE_DIMJAG
 70
     0
  0
APPID
  2
ACAD_DSTYLE_DIMBREAK
 70
     0
  0
ENDTAB
  0
TABLE
  2
DIMSTYLE
 70
    31
  0
DIMSTYLE
  2
STANDARD
 70
     0
  3

  4

  5

  6

  7

 40
1.0
 41
0.18
 42
0.0625
 43
0.38
 44
0.18
 45
0.0
 46
0.0
 47
0.0
 48
0.0
140
0.18
141
0.09
142
0.0
143
25.3999999999999986
144
1.0
145
0.0
146
1.0
147
0.09
 71
     0
 72
     0
 73
     1
 74
     1
 75
     0
 76
     0
 77
     0
 78
     0
170
     0
171
     2
172
     0
173
     0
174
     0
175
     0
176
     0
177
     0
178
     0
  0
DIMSTYLE
  2
BIGT
 70
     0
  3

  4

  5

  6

  7

 40
1.0
 41
2.2299999999999991
 42
0.5
 43
7.0
 44
1.0
 45
0.0
 46
0.0
 47
0.0
 48
0.01
140
2.799999999999998
141
0.0
142
0.0
143
25.3999999999999986
144
1.0
145
0.0
146
1.0
147
1.0
 71
     0
 72
     0
 73
     0
 74
     0
 75
     0
 76
     0
 77
     3
 78
     9
170
     0
171
     2
172
     1
173
     0
174
     1
175
     0
176
   256
177
   256
178
    40
  0
DIMSTYLE
  2
AM_ANSI
 70
     0
  3

  4
mm
  5

  6

  7

 40
1.0
 41
0.12
 42
0.05
 43
0.5
 44
0.1
 45
0.0
 46
0.0
 47
0.1
 48
0.1
140
0.12
141
0.0
142
0.0
143
25.3999999999999986
144
1.0
145
0.0
146
0.71
147
0.06
 71
     0
 72
     0
 73
     1
 74
     1
 75
     0
 76
     0
 77
     0
 78
     7
170
     0
171
     2
172
     0
173
     0
174
     0
175
     0
176
   256
177
   256
178
     2
  0
DIMSTYLE
  2
AM_ANSI$3
 70
     0
  3

  4
mm
  5

  6

  7

 40
1.0
 41
0.12
 42
0.05
 43
0.5
 44
0.1
 45
0.0
 46
0.0
 47
0.1
 48
0.1
140
0.12
141
0.0
142
0.0
143
25.3999999999999986
144
1.0
145
0.0
146
0.71
147
0.06
 71
     0
 72
     0
 73
     1
 74
     1
 75
     0
 76
     0
 77
     0
 78
     7
170
     0
171
     2
172
     0
173
     0
174
     0
175
     0
176
   256
177
   256
178
     2
  0
DIMSTYLE
  2
AM_ANSI$4
 70
     0
  3

  4
mm
  5

  6

  7

 40
1.0
 41
0.12
 42
0.05
 43
0.5
 44
0.1
 45
0.0
 46
0.0
 47
0.1
 48
0.1
140
0.12
141
0.0
142
0.0
143
25.3999999999999986
144
1.0
145
0.0
146
0.71
147
0.06
 71
     0
 72
     0
 73
     1
 74
     1
 75
     0
 76
     0
 77
     0
 78
     7
170
     0
171
     2
172
     0
173
     0
174
     0
175
     0
176
   256
177
   256
178
     2
  0
DIMSTYLE
  2
AM_ANSI$7
 70
     0
  3

  4
mm
  5

  6

  7

 40
1.0
 41
0.12
 42
0.05
 43
0.5
 44
0.1
 45
0.0
 46
0.0
 47
0.1
 48
0.1
140
0.12
141
0.0
142
0.0
143
25.3999999999999986
144
1.0
145
0.0
146
0.71
147
0.06
 71
     0
 72
     0
 73
     1
 74
     1
 75
     0
 76
     0
 77
     0
 78
     7
170
     0
171
     2
172
     0
173
     0
174
     0
175
     0
176
   256
177
   256
178
     2
  0
DIMSTYLE
  2
AM_ANSI$SF
 70
     0
  3

  4
mm
  5

  6

  7

 40
1.0
 41
0.12
 42
0.05
 43
0.5
 44
0.1
 45
0.0
 46
0.0
 47
0.1
 48
0.1
140
0.12
141
0.0
142
0.0
143
25.3999999999999986
144
1.0
145
0.0
146
0.71
147
0.06
 71
     0
 72
     0
 73
     1
 74
     1
 75
     1
 76
     1
 77
     0
 78
     7
170
     0
171
     2
172
     0
173
     0
174
     0
175
     0
176
   256
177
   256
178
     2
  0
DIMSTYLE
  2
AM_ANSI$SH
 70
     0
  3

  4
mm
  5

  6
GENAXEH
  7

 40
1.0
 41
0.12
 42
0.05
 43
0.5
 44
0.1
 45
0.0
 46
0.0
 47
0.1
 48
0.1
140
0.12
141
0.0
142
0.0
143
25.3999999999999986
144
1.0
145
0.0
146
0.71
147
0.06
 71
     0
 72
     0
 73
     1
 74
     1
 75
     1
 76
     1
 77
     0
 78
     7
170
     0
171
     2
172
     0
173
     1
174
     0
175
     0
176
   256
177
   256
178
     2
  0
ENDTAB
  0
ENDSEC
  0
SECTION
  2
BLOCKS
  0
BLOCK
  8
0
  2
$MODEL_SPACE
 70
     0
 10
0.0
 20
0.0
 30
0.0
  3
$MODEL_SPACE
  1

  0
ENDBLK
  5
46D0
  8
0
  0
BLOCK
 67
     1
  8
0
  2
$PAPER_SPACE
 70
     0
 10
0.0
 20
0.0
 30
0.0
  3
$PAPER_SPACE
  1

  0
ENDBLK
  5
46CC
 67
     1
  8
0
  0
BLOCK
  8
0
  2
_OPEN
 70
     0
 10
0.0
 20
0.0
 30
0.0
  3
_OPEN
  1

  0
LINE
  5
4564
  8
0
  6
BYBLOCK
 62
     0
 10
-1.0
 20
0.1666666666666666
 30
0.0
 11
0.0
 21
0.0
 31
0.0
  0
LINE
  5
4565
  8
0
  6
BYBLOCK
 62
     0
 10
-1.0
 20
-0.1666666666666666
 30
0.0
 11
0.0
 21
0.0
 31
0.0
  0
LINE
  5
4566
  8
0
  6
BYBLOCK
 62
     0
 10
0.0
 20
0.0
 30
0.0
 11
-1.0
 21
0.0
 31
0.0
  0
ENDBLK
  5
4567
  8
0
  0
BLOCK
  8
0
  2
GENAXEH
 70
     0
 10
0.0
 20
0.0
 30
0.0
  3
GENAXEH
  1

  0
LINE
  5
459F
  8
0
 10
-1.0
 20
0.0
 30
0.0
 11
1.0
 21
0.0
 31
0.0
  0
ENDBLK
  5
45A0
  8
0
  0
BLOCK
  8
0
  2
_ACMFILLEDHALF
 70
     0
 10
0.0
 20
0.0
 30
0.0
  3
_ACMFILLEDHALF
  1

  0
TRACE
  5
4792
  8
240
 62
     0
 10
-0.8
 20
0.0
 30
0.0
 11
-1.0
 21
0.166666666
 31
0.0
 12
0.0
 22
0.0
 32
0.0
 13
0.0
 23
0.0
 33
0.0
  0
LINE
  5
4793
  8
240
 62
     0
 10
-1.0
 20
0.0
 30
0.0
 11
-0.8
 21
0.0
 31
0.0
  0
ENDBLK
  5
4791
  8
0
  0
ENDSEC
  0
SECTION
  2
ENTITIES
  0
LINE
  5
4229
  8
250
  6
CONTINUOUS
 10
-14.7886751340252705
 20
-20.1403841413711007
 30
0.0
 11
-13.4999999998506794
 21
-18.5750000001229409
 31
0.0
  0
TEXT
  5
422A
  8
250
  6
CONTINUOUS
 10
-40.8958103431840101
 20
-26.9208176801229797
 30
0.0
 40
2.799999999999998
  1
HSK-F63
  7
YOKO
1001
ITEMNAME
1000
LNSP3
  0
LINE
  5
422B
  8
245
  6
CENTER2
 10
-26.0
 20
0.0
 30
0.0
 11
94.1629439745021273
 21
-0.0000000000000057
 31
0.0
  0
LINE
  5
422C
  8
241
  6
CONTINUOUS
 10
0.0
 20
-19.2499999999092815
 30
0.0
 11
0.0
 21
19.2499999999092815
 31
0.0
  0
LINE
  5
422D
  8
241
  6
CONTINUOUS
 10
14.6225009300000099
 20
-31.5
 30
0.0
 11
14.6225009300000206
 21
31.5
 31
0.0
  0
LINE
  5
422E
  8
241
  6
CONTINUOUS
 10
21.3774990700000096
 20
-31.5
 30
0.0
 11
21.3774990699999883
 21
31.5
 31
0.0
  0
LINE
  5
422F
  8
241
  6
CONTINUOUS
 10
19.875
 20
-27.5
 30
0.0
 11
19.875
 21
27.5
 31
0.0
  0
LINE
  5
4230
  8
247
  6
CONTINUOUS
 10
4.423076923160016
 20
-15.4849838183358202
 30
0.0
 11
4.423076923160016
 21
-16.7926761259758415
 31
0.0
  0
LINE
  5
4231
  8
247
  6
CONTINUOUS
 10
6.0000000000200151
 20
-14.2833130805420296
 30
0.0
 11
3.000000000140012
 21
-13.4230769233000107
 31
0.0
  0
LINE
  5
4232
  8
240
  6
CONTINUOUS
 10
19.875
 20
-28.8975952599999992
 30
0.0
 11
19.875
 21
-27.5
 31
0.0
  0
LINE
  5
4233
  8
240
  6
CONTINUOUS
 10
19.875
 20
-27.5
 30
0.0
 11
16.125
 21
-27.5
 31
0.0
  0
LINE
  5
4234
  8
241
  6
CONTINUOUS
 10
16.125
 20
-27.5
 30
0.0
 11
16.125
 21
27.5
 31
0.0
  0
LINE
  5
4235
  8
240
  6
CONTINUOUS
 10
16.125
 20
27.5
 30
0.0
 11
19.875
 21
27.5
 31
0.0
  0
LINE
  5
4236
  8
240
  6
CONTINUOUS
 10
19.875
 20
27.5
 30
0.0
 11
19.875
 21
28.8975952599999992
 31
0.0
  0
LINE
  5
4237
  8
240
  6
CONTINUOUS
 10
19.875
 20
28.8975952599999992
 30
0.0
 11
21.3774990700000096
 21
31.5
 31
0.0
  0
LINE
  5
4238
  8
240
  6
CONTINUOUS
 10
21.3774990700000096
 20
31.5
 30
0.0
 11
26.0000000000000107
 21
31.5
 31
0.0
  0
LINE
  5
4239
  8
240
  6
CONTINUOUS
 10
26.0000000000000107
 20
31.5
 30
0.0
 11
26.0000000000000107
 21
24.5
 31
0.0
  0
LINE
  5
423A
  8
240
  6
CONTINUOUS
 10
26.0000000000000107
 20
-31.5
 30
0.0
 11
21.3774990700000096
 21
-31.5
 31
0.0
  0
LINE
  5
423B
  8
240
  6
CONTINUOUS
 10
21.3774990700000096
 20
-31.5
 30
0.0
 11
19.875
 21
-28.8975952599999992
 31
0.0
  0
LINE
  5
423C
  8
250
  6
CONTINUOUS
 10
-14.2113248647461603
 20
-20.4737174745494599
 30
0.0
 11
-13.4999999998506794
 21
-18.5750000001229409
 31
0.0
1001
ITEMNAME
1000
LNSP2
  0
LINE
  5
423D
  8
250
  6
CONTINUOUS
 10
-13.4999999998506794
 20
-18.5750000001229409
 30
0.0
 11
-14.4999999993857092
 21
-20.3070508079603087
 31
0.0
1001
ITEMNAME
1000
LNSP2
  0
LINE
  5
423E
  8
250
  6
CONTINUOUS
 10
-14.4999999993857092
 20
-20.3070508079603087
 30
0.0
 11
-18.8958103498506809
 21
-27.9208176801229797
 31
0.0
1001
ITEMNAME
1000
LNSP2
  0
LINE
  5
423F
  8
250
  6
CONTINUOUS
 10
-18.8958103498506809
 20
-27.9208176801229797
 30
0.0
 11
-43.1624770098506829
 21
-27.9208176801229797
 31
0.0
1001
ITEMNAME
1000
LNSP2
  0
LINE
  5
4240
  8
240
  6
CONTINUOUS
 10
-25.0
 20
-18.0000000010430803
 30
0.0
 11
0.0000000000000071
 21
-19.2499999999092815
 31
0.0
  0
LINE
  5
4241
  8
240
  6
CONTINUOUS
 10
0.0000000000000071
 20
-19.2499999999092815
 30
0.0
 11
0.0000000000000071
 21
-31.5
 31
0.0
  0
LINE
  5
4242
  8
240
  6
CONTINUOUS
 10
0.0000000000000071
 20
-31.5
 30
0.0
 11
14.6225009300000099
 21
-31.5
 31
0.0
  0
LINE
  5
4243
  8
240
  6
CONTINUOUS
 10
14.6225009300000099
 20
-31.5
 30
0.0
 11
16.125
 21
-28.8975952599999992
 31
0.0
  0
LINE
  5
4244
  8
240
  6
CONTINUOUS
 10
16.125
 20
-28.8975952599999992
 30
0.0
 11
16.125
 21
-27.5
 31
0.0
  0
LINE
  5
4245
  8
240
  6
CONTINUOUS
 10
-25.0
 20
-18.0000000010430803
 30
0.0
 11
-25.0
 21
18.0000000010430803
 31
0.0
  0
LINE
  5
4246
  8
240
  6
CONTINUOUS
 10
-25.0
 20
18.0000000010430803
 30
0.0
 11
0.0000000000000071
 21
19.2499999999092815
 31
0.0
  0
LINE
  5
4247
  8
240
  6
CONTINUOUS
 10
0.0000000000000071
 20
19.2499999999092815
 30
0.0
 11
0.0000000000000071
 21
31.5
 31
0.0
  0
LINE
  5
4248
  8
240
  6
CONTINUOUS
 10
0.0000000000000071
 20
31.5
 30
0.0
 11
14.6225009300000099
 21
31.5
 31
0.0
  0
LINE
  5
4249
  8
240
  6
CONTINUOUS
 10
14.6225009300000099
 20
31.5
 30
0.0
 11
16.125
 21
28.8975952599999992
 31
0.0
  0
LINE
  5
424A
  8
240
  6
CONTINUOUS
 10
16.125
 20
28.8975952599999992
 30
0.0
 11
16.125
 21
27.5
 31
0.0
  0
LINE
  5
424B
  8
247
  6
CONTINUOUS
 10
3.000000000140012
 20
-15.0769230770799805
 30
0.0
 11
3.000000000140012
 21
-16.38461538472
 31
0.0
1001
GENIUS_GENOBJ-N-FIL_13
1002
{
1000
OWNER
1000
GEN
1002
}
1001
GENIUS_GENODEF_13
1002
{
1000
HIER
1070
     0
1002
}
1002
{
1000
MANEDIT
1070
     0
1002
}
1002
{
1000
NOSEL
1070
     0
1002
}
1002
{
1000
BEHIND
1070
     0
1002
}
1002
{
1000
OTHER
1070
     0
1002
}
1002
{
1000
REACTOR
1002
}
  0
LINE
  5
424C
  8
247
  6
CONTINUOUS
 10
3.000000000140012
 20
-16.38461538472
 30
0.0
 11
6.0000000000200151
 21
-17.2448515419620207
 31
0.0
1001
GENIUS_GENOBJ-N-FIL_13
1002
{
1000
OWNER
1000
GEN
1002
}
1001
GENIUS_GENODEF_13
1002
{
1000
HIER
1070
     0
1002
}
1002
{
1000
MANEDIT
1070
     0
1002
}
1002
{
1000
NOSEL
1070
     0
1002
}
1002
{
1000
BEHIND
1070
     0
1002
}
1002
{
1000
OTHER
1070
     0
1002
}
1002
{
1000
REACTOR
1002
}
  0
LINE
  5
424D
  8
247
  6
CONTINUOUS
 10
6.0000000000200151
 20
-17.2448515419620207
 30
0.0
 11
6.0000000000199787
 21
-15.9371592343219906
 31
0.0
1001
GENIUS_GENOBJ-N-FIL_13
1002
{
1000
OWNER
1000
GEN
1002
}
1001
GENIUS_GENODEF_13
1002
{
1000
HIER
1070
     0
1002
}
1002
{
1000
MANEDIT
1070
     0
1002
}
1002
{
1000
NOSEL
1070
     0
1002
}
1002
{
1000
BEHIND
1070
     0
1002
}
1002
{
1000
OTHER
1070
     0
1002
}
1002
{
1000
REACTOR
1002
}
  0
ARC
  5
424E
  8
247
  6
CONTINUOUS
 10
4.9874290391865692
 20
-16.0382626853470285
 30
0.0
 40
1.0176059446230961
 50
5.7019851642564783
 51
77.277338436821907
1001
GENIUS_GENOBJ-N-FIL_13
1002
{
1000
OWNER
1000
GEN
1002
}
1001
GENIUS_GENODEF_13
1002
{
1000
HIER
1070
     0
1002
}
1002
{
1000
MANEDIT
1070
     0
1002
}
1002
{
1000
NOSEL
1070
     0
1002
}
1002
{
1000
BEHIND
1070
     0
1002
}
1002
{
1000
OTHER
1070
     0
1002
}
1002
{
1000
REACTOR
1002
}
  0
ARC
  5
424F
  8
247
  6
CONTINUOUS
 10
4.9820242326655269
 20
-15.5609196365469096
 30
0.0
 40
0.5640818586791065
 50
65.9909416525313901
 51
172.2634434590713965
1001
GENIUS_GENOBJ-N-FIL_13
1002
{
1000
OWNER
1000
GEN
1002
}
1001
GENIUS_GENODEF_13
1002
{
1000
HIER
1070
     0
1002
}
1002
{
1000
MANEDIT
1070
     0
1002
}
1002
{
1000
NOSEL
1070
     0
1002
}
1002
{
1000
BEHIND
1070
     0
1002
}
1002
{
1000
OTHER
1070
     0
1002
}
1002
{
1000
REACTOR
1002
}
  0
ARC
  5
4250
  8
247
  6
CONTINUOUS
 10
3.4360330444657881
 20
-15.5668783230287708
 30
0.0
 40
0.99043542362266
 50
4.7429368522024307
 51
73.849226273266936
1001
GENIUS_GENOBJ-N-FIL_13
1002
{
1000
OWNER
1000
GEN
1002
}
1001
GENIUS_GENODEF_13
1002
{
1000
HIER
1070
     0
1002
}
1002
{
1000
MANEDIT
1070
     0
1002
}
1002
{
1000
NOSEL
1070
     0
1002
}
1002
{
1000
BEHIND
1070
     0
1002
}
1002
{
1000
OTHER
1070
     0
1002
}
1002
{
1000
REACTOR
1002
}
  0
ARC
  5
4251
  8
247
  6
CONTINUOUS
 10
3.5495986677029721
 20
-15.1451438160897798
 30
0.0
 40
0.5538165441895238
 50
72.9978896752893434
 51
172.9241662185110044
1001
GENIUS_GENOBJ-N-FIL_13
1002
{
1000
OWNER
1000
GEN
1002
}
1001
GENIUS_GENODEF_13
1002
{
1000
HIER
1070
     0
1002
}
1002
{
1000
MANEDIT
1070
     0
1002
}
1002
{
1000
NOSEL
1070
     0
1002
}
1002
{
1000
BEHIND
1070
     0
1002
}
1002
{
1000
OTHER
1070
     0
1002
}
1002
{
1000
REACTOR
1002
}
  0
ARC
  5
4252
  8
247
  6
CONTINUOUS
 10
3.808312655194535
 20
-11.3740694792132295
 30
0.0
 40
0.8906723995727773
 50
94.9945893190753736
 51
155.166328957304188
1001
GENIUS_GENOBJ-N-FIL_13
1002
{
1000
OWNER
1000
GEN
1002
}
1001
GENIUS_GENODEF_13
1002
{
1000
HIER
1070
     0
1002
}
1002
{
1000
MANEDIT
1070
     0
1002
}
1002
{
1000
NOSEL
1070
     0
1002
}
1002
{
1000
BEHIND
1070
     0
1002
}
1002
{
1000
OTHER
1070
     0
1002
}
1002
{
1000
REACTOR
1002
}
  0
LINE
  5
4253
  8
247
  6
CONTINUOUS
 10
3.0000000001400151
 20
-11.0000000003200107
 30
0.0
 11
3.000000000140012
 21
-11.5657366194566293
 31
0.0
1001
GENIUS_GENOBJ-N-FIL_13
1002
{
1000
OWNER
1000
GEN
1002
}
1001
GENIUS_GENODEF_13
1002
{
1000
HIER
1070
     0
1002
}
1002
{
1000
MANEDIT
1070
     0
1002
}
1002
{
1000
NOSEL
1070
     0
1002
}
1002
{
1000
BEHIND
1070
     0
1002
}
1002
{
1000
OTHER
1070
     0
1002
}
1002
{
1000
REACTOR
1002
}
  0
LINE
  5
4254
  8
247
  6
CONTINUOUS
 10
4.8461538462199831
 20
-11.5384615387599698
 30
0.0
 11
4.8461538462199831
 21
-10.8461538464799805
 31
0.0
  0
ARC
  5
4255
  8
247
  6
CONTINUOUS
 10
4.660145888667734
 20
-12.2264588862126296
 30
0.0
 40
1.392781735586778
 50
15.8460965557822107
 51
82.3251370041705854
  0
LINE
  5
4256
  8
247
  6
CONTINUOUS
 10
6.0000000000200231
 20
-11.8461538464399592
 30
0.0
 11
6.0000000000200151
 21
-12.4615384617999894
 31
0.0
  0
ARC
  5
4257
  8
247
  6
CONTINUOUS
 10
4.9592434315272991
 20
-11.6422127258403307
 30
0.0
 40
1.324563662670299
 50
249.7136016704965868
 51
321.7887456564071158
  0
ARC
  5
4258
  8
247
  6
CONTINUOUS
 10
5.0832851359733349
 20
-10.7087912091228503
 30
0.0
 40
2.2526500823421789
 50
202.3594881415262989
 51
254.9932485428469988
  0
ARC
  5
4259
  8
247
  6
CONTINUOUS
 10
4.750000000069992
 20
-10.5576923080300293
 30
0.0
 40
1.7499999999300131
 50
0.0
 51
180.0
  0
LINE
  5
425A
  8
247
  6
CONTINUOUS
 10
6.5000000000000071
 20
-10.5576923080300293
 30
0.0
 11
6.499999999999976
 21
-17.2500000000700311
 31
0.0
  0
ARC
  5
425B
  8
247
  6
CONTINUOUS
 10
4.7500000000699787
 20
-17.2500000000700311
 30
0.0
 40
1.7499999999299971
 50
180.0
 51
0.0
  0
LINE
  5
425C
  8
247
  6
CONTINUOUS
 10
3.000000000139984
 20
-17.2500000000700311
 30
0.0
 11
3.000000000139984
 21
-16.5769230770200089
 31
0.0
  0
LINE
  5
426D
  8
240
  6
CONTINUOUS
 10
93.0
 20
-19.5000000000000107
 30
0.0
 11
31.0000000000000107
 21
-19.5
 31
0.0
1001
GRPNAME
1000
PASTMD0W
  0
LINE
  5
426E
  8
240
  6
CONTINUOUS
 10
93.0
 20
19.4999999999999893
 30
0.0
 11
31.0000000000000107
 21
19.5
 31
0.0
1001
GRPNAME
1000
PASTMD0W
  0
LINE
  5
4270
  8
240
  6
CONTINUOUS
 10
93.0
 20
-19.5000000000000107
 30
0.0
 11
93.0
 21
19.4999999999999893
 31
0.0
1001
GRPNAME
1000
PASTMD0W
  0
LINE
  5
4271
  8
243
  6
HIDDEN2
 10
66.9499999999999886
 20
10.9999999999999805
 30
0.0
 11
93.0
 21
10.9999999999999805
 31
0.0
1001
GRPNAME
1000
PASTMD0W
  0
ARC
  5
4272
  8
240
  6
CONTINUOUS
 10
31.0000000000000107
 20
24.5
 30
0.0
 40
5.0
 50
180.0
 51
270.0
1001
GENIUS_GENOBJ-N-FIL_13
1002
{
1000
OWNER
1000
GEN
1002
}
1001
GENIUS_GENODEF_13
1002
{
1000
HIER
1070
     0
1002
}
1002
{
1000
MANEDIT
1070
     0
1002
}
1002
{
1000
NOSEL
1070
     0
1002
}
1002
{
1000
BEHIND
1070
     0
1002
}
1002
{
1000
OTHER
1070
     0
1002
}
1002
{
1000
REACTOR
1002
}
  0
ARC
  5
4274
  8
240
  6
CONTINUOUS
 10
31.0000000000000107
 20
-24.5
 30
0.0
 40
5.0
 50
90.0
 51
180.0
1001
GENIUS_GENODEF_13
1002
{
1000
HIER
1070
     0
1002
}
1002
{
1000
MANEDIT
1070
     0
1002
}
1002
{
1000
NOSEL
1070
     0
1002
}
1002
{
1000
BEHIND
1070
     0
1002
}
1002
{
1000
OTHER
1070
     0
1002
}
1002
{
1000
REACTOR
1002
}
1001
GENIUS_GENOBJ-N-FIL_13
1002
{
1000
OWNER
1000
GEN
1002
}
  0
LINE
  5
427C
  8
243
  6
HIDDEN2
 10
66.9499999999999886
 20
-11.0
 30
0.0
 11
93.0
 21
-11.0
 31
0.0
1001
GRPNAME
1000
PASTMD0W
  0
LINE
  5
429C
  8
240
  6
CONTINUOUS
 10
26.0000000000000107
 20
-24.5
 30
0.0
 11
26.0000000000000107
 21
-31.5
 31
0.0
  0
LINE
  5
429D
  8
241
  6
CONTINUOUS
 10
26.0000000000000107
 20
-24.5
 30
0.0
 11
26.0000000000000107
 21
24.5
 31
0.0
  0
LINE
  5
42CB
  8
250
  6
CONTINUOUS
 10
0.0
 20
32.0
 30
0.0
 11
0.0
 21
43.0
 31
0.0
  0
LINE
  5
42CC
  8
250
  6
CONTINUOUS
 10
92.9948575638854749
 20
19.9999999999999893
 30
0.0
 11
92.9948575638854749
 21
42.9999999999999929
 31
0.0
  0
LINE
  5
42CD
  8
250
  6
CONTINUOUS
 10
2.2299999999999991
 20
42.0
 30
0.0
 11
90.7648575638854851
 21
41.9999999999999929
 31
0.0
  0
LINE
  5
42CE
  8
250
  6
CONTINUOUS
 10
2.2299999999999991
 20
41.6283333333333303
 30
0.0
 11
0.0
 21
42.0
 31
0.0
  0
LINE
  5
42CF
  8
250
  6
CONTINUOUS
 10
2.2299999999999991
 20
42.3716666666666626
 30
0.0
 11
0.0
 21
42.0
 31
0.0
  0
LINE
  5
42D0
  8
250
  6
CONTINUOUS
 10
0.0
 20
42.0
 30
0.0
 11
2.2299999999999991
 21
42.0
 31
0.0
  0
LINE
  5
42D1
  8
250
  6
CONTINUOUS
 10
90.7648575638854851
 20
42.3716666666666626
 30
0.0
 11
92.9948575638854749
 21
41.9999999999999929
 31
0.0
  0
LINE
  5
42D2
  8
250
  6
CONTINUOUS
 10
90.7648575638854851
 20
41.6283333333333232
 30
0.0
 11
92.9948575638854749
 21
41.9999999999999929
 31
0.0
  0
LINE
  5
42D3
  8
250
  6
CONTINUOUS
 10
92.9948575638854749
 20
41.9999999999999929
 30
0.0
 11
90.7648575638854851
 21
41.9999999999999929
 31
0.0
  0
TEXT
  5
42D4
  8
250
  6
CONTINUOUS
 10
46.8004356033333266
 20
43.0
 30
0.0
 40
2.799999999999998
  1
93
1001
ACAD
1000
MTEXTBEGIN
1070
    73
1070
     1
1070
    44
1040
1.0
1070
    74
1070
     0
1000
MTEXTEND
  0
TEXT
  5
42D5
  8
241
  6
CONTINUOUS
 10
-25.0
 20
56.0
 30
0.0
 40
5.0
  1
HSK-F63-CKB4-93
  7
YOKO
 11
-25.0
 21
56.0
 31
0.0
 73
     1
  0
LINE
  5
42D6
  8
250
  6
CONTINUOUS
 10
89.7358549884212664
 20
21.2454033175484014
 30
0.0
 11
88.2989822138854805
 21
19.4999999999999893
 31
0.0
  0
LINE
  5
42D7
  8
250
  6
CONTINUOUS
 10
89.0921094381604064
 20
21.617069984016851
 30
0.0
 11
88.2989822138854805
 21
19.4999999999999893
 31
0.0
  0
LINE
  5
42D8
  8
250
  6
CONTINUOUS
 10
88.2989822138854805
 20
19.4999999999999893
 30
0.0
 11
89.4139822132907938
 21
21.4312366507826084
 31
0.0
  0
POLYLINE
  5
42D9
  8
250
  6
CONTINUOUS
 66
     1
 10
0.0
 20
0.0
 30
0.0
1001
ACAD
1000
DSTYLE
1002
{
1070
     6
1000
OPEN
1002
}
  0
VERTEX
  5
465D
  8
250
  6
CONTINUOUS
 10
89.4139822132907938
 20
21.4312366507826084
 30
0.0
  0
VERTEX
  5
465E
  8
250
  6
CONTINUOUS
 10
98.0444805238854968
 20
36.3796982300000096
 30
0.0
  0
SEQEND
  5
465F
  8
250
  6
CONTINUOUS
  0
LINE
  5
42DA
  8
250
  6
CONTINUOUS
 10
93.4948575638854749
 20
-19.5000000000000107
 30
0.0
 11
104.1377870738855052
 21
-19.5000000000000107
 31
0.0
  0
LINE
  5
42DB
  8
250
  6
CONTINUOUS
 10
93.4948575638854749
 20
19.4999999999999893
 30
0.0
 11
104.1377870738855052
 21
19.4999999999999893
 31
0.0
  0
LINE
  5
42DC
  8
250
  6
CONTINUOUS
 10
103.1377870738855052
 20
-17.2700000000000102
 30
0.0
 11
103.1377870738855052
 21
17.2699999999999889
 31
0.0
  0
LINE
  5
42DD
  8
250
  6
CONTINUOUS
 10
103.5094537405521038
 20
-17.2700000000000102
 30
0.0
 11
103.1377870738855052
 21
-19.5000000000000107
 31
0.0
  0
LINE
  5
42DE
  8
250
  6
CONTINUOUS
 10
102.766120407218807
 20
-17.2700000000000102
 30
0.0
 11
103.1377870738855052
 21
-19.5000000000000107
 31
0.0
  0
LINE
  5
42DF
  8
250
  6
CONTINUOUS
 10
103.1377870738855052
 20
-19.5000000000000107
 30
0.0
 11
103.1377870738855052
 21
-17.2700000000000102
 31
0.0
  0
LINE
  5
42E0
  8
250
  6
CONTINUOUS
 10
102.766120407218807
 20
17.2699999999999889
 30
0.0
 11
103.1377870738855052
 21
19.4999999999999893
 31
0.0
  0
LINE
  5
42E1
  8
250
  6
CONTINUOUS
 10
103.5094537405521038
 20
17.2699999999999889
 30
0.0
 11
103.1377870738855052
 21
19.4999999999999893
 31
0.0
  0
LINE
  5
42E2
  8
250
  6
CONTINUOUS
 10
103.1377870738855052
 20
19.4999999999999893
 30
0.0
 11
103.1377870738855052
 21
17.2699999999999889
 31
0.0
  0
TEXT
  5
42E3
  8
250
  6
CONTINUOUS
 10
102.1377870738854057
 20
-3.8666666666666711
 30
0.0
 40
2.799999999999998
  1
\U+220539
 50
90.0
1001
ACAD
1000
MTEXTBEGIN
1070
    73
1070
     1
1070
    44
1040
1.0
1070
    74
1070
     0
1000
MTEXTEND
  0
LINE
  5
42E4
  8
250
  6
CONTINUOUS
 10
98.0444805238854968
 20
36.3796982300000096
 30
0.0
 11
111.2444805238854997
 21
36.3796982300000096
 31
0.0
1001
ITEMNAME
1000
LNSP2
  0
TEXT
  5
42E5
  8
250
  6
CONTINUOUS
 10
100.4444805238855025
 20
37.3796982300000025
 30
0.0
 40
2.799999999999998
  1
CK4
  7
YOKO
1001
ITEMNAME
1000
LNSP3
1001
ACAD
1000
MTEXTBEGIN
1070
    73
1070
     1
1070
    44
1040
1.0
1070
    74
1070
     0
1000
MTEXTEND
  0
CIRCLE
  5
42E6
  8
241
  6
CONTINUOUS
 10
83.0
 20
-0.0000000000000071
 30
0.0
 40
4.0
  0
CIRCLE
  5
42E7
  8
242
  6
CONTINUOUS
 10
83.0
 20
-0.0000000000000071
 30
0.0
 40
3.5
  0
POLYLINE
  5
42E8
  8
241
  6
CONTINUOUS
 66
     1
 10
0.0
 20
0.0
 30
0.0
 70
     1
  0
VERTEX
  5
42E9
  8
241
  6
CONTINUOUS
 10
81.0
 20
-1.154700540000007
 30
0.0
  0
VERTEX
  5
42EA
  8
241
  6
CONTINUOUS
 10
83.0
 20
-2.309401080000006
 30
0.0
  0
VERTEX
  5
42EB
  8
241
  6
CONTINUOUS
 10
85.0
 20
-1.154700540000007
 30
0.0
  0
VERTEX
  5
42EC
  8
241
  6
CONTINUOUS
 10
85.0
 20
1.1547005399999919
 30
0.0
  0
VERTEX
  5
42ED
  8
241
  6
CONTINUOUS
 10
83.0
 20
2.3094010799999918
 30
0.0
  0
VERTEX
  5
42EE
  8
241
  6
CONTINUOUS
 10
81.0
 20
1.1547005399999919
 30
0.0
  0
SEQEND
  5
42EF
  8
241
  6
CONTINUOUS
  0
LINE
  5
42F0
  8
245
  6
CENTER2
 10
83.0
 20
4.999999999999992
 30
0.0
 11
83.0
 21
-5.0000000000000071
 31
0.0
  0
VIEWPORT
  5
22
 67
     1
  8
0
 10
261.517699115044195
 20
148.5
 30
0.0
 40
523.0353982300885036
 41
297.0
 68
     1
 69
     1
1001
ACAD
1000
MVIEW
1002
{
1070
    16
1010
0.0
1020
0.0
1030
0.0
1010
0.0
1020
0.0
1030
1.0
1040
0.0
1040
297.0
1040
261.517699115044195
1040
148.5
1040
50.0
1040
0.0
1040
0.0
1070
     0
1070
   100
1070
     1
1070
     1
1070
     0
1070
     0
1070
     0
1070
     0
1040
0.0
1040
0.0
1040
0.0
1040
1.0
1040
1.0
1040
10.0
1040
10.0
1070
     0
1002
{
1002
}
1002
}
1001
GENIUS_GENODEF_13
1002
{
1000
HIER
1070
     0
1002
}
1002
{
1000
MANEDIT
1070
     0
1002
}
1002
{
1000
NOSEL
1070
     0
1002
}
1002
{
1000
BEHIND
1070
     0
1002
}
1002
{
1000
OTHER
1070
     0
1002
}
1002
{
1000
REACTOR
1002
}
1001
GENIUS_GENOBJ-N-SDF_13
1002
{
1000
OWNER
1000
GEN
1002
}
1001
GENIUS_GENSCREG_15
1000
PF
1040
1.0
1000
DF
1040
1.0
1000
MIN
1011
0.0
1021
0.0
1031
0.0
1021
0.0
1031
0.0
1000
MAX
1011
523.0353982300885036
1021
0.0
1031
0.0
1021
297.0
1031
0.0
1000
FLAGS
1070
     4
  0
ENDSEC
  0
EOF
