  0
SECTION
  2
HEADER
  9
$ACADVER
  1
AC1009
  9
$INSBASE
 10
0.0
 20
0.0
 30
0.0
  9
$EXTMIN
 10
-47.303715400000002
 20
-36.0
 30
0.0
  9
$EXTMAX
 10
127.0
 20
68.000000000000014
 30
0.0
  9
$LIMMIN
 10
0.0
 20
0.0
  9
$LIMMAX
 10
297.0
 20
210.0
  9
$ORTHOMODE
 70
     0
  9
$REGENMODE
 70
     1
  9
$FILLMODE
 70
     1
  9
$QTEXTMODE
 70
     0
  9
$MIRRTEXT
 70
     1
  9
$DRAGMODE
 70
     2
  9
$LTSCALE
 40
10.0
  9
$OSMODE
 70
    63
  9
$ATTMODE
 70
     1
  9
$TEXTSIZE
 40
3.0
  9
$TRACEWID
 40
1.0
  9
$TEXTSTYLE
  7
YOKO
  9
$CLAYER
  8
240
  9
$CELTYPE
  6
BYLAYER
  9
$CECOLOR
 62
   256
  9
$DIMSCALE
 40
1.0
  9
$DIMASZ
 40
2.2299999999999991
  9
$DIMEXO
 40
0.5
  9
$DIMDLI
 40
7.0
  9
$DIMRND
 40
0.0
  9
$DIMDLE
 40
0.0
  9
$DIMEXE
 40
1.0
  9
$DIMTP
 40
0.0
  9
$DIMTM
 40
0.01
  9
$DIMTXT
 40
2.7999999999999989
  9
$DIMCEN
 40
0.0
  9
$DIMTSZ
 40
0.0
  9
$DIMTOL
 70
     0
  9
$DIMLIM
 70
     0
  9
$DIMTIH
 70
     0
  9
$DIMTOH
 70
     0
  9
$DIMSE1
 70
     0
  9
$DIMSE2
 70
     0
  9
$DIMTAD
 70
     3
  9
$DIMZIN
 70
     9
  9
$DIMBLK
  1
OPEN
  9
$DIMASO
 70
     1
  9
$DIMSHO
 70
     1
  9
$DIMPOST
  1

  9
$DIMAPOST
  1

  9
$DIMALT
 70
     0
  9
$DIMALTD
 70
     2
  9
$DIMALTF
 40
25.399999999999999
  9
$DIMLFAC
 40
1.0
  9
$DIMTOFL
 70
     1
  9
$DIMTVP
 40
0.0
  9
$DIMTIX
 70
     1
  9
$DIMSOXD
 70
     0
  9
$DIMSAH
 70
     0
  9
$DIMBLK1
  1

  9
$DIMBLK2
  1

  9
$DIMSTYLE
  2
BIGT
  9
$DIMCLRD
 70
   256
  9
$DIMCLRE
 70
   256
  9
$DIMCLRT
 70
    40
  9
$DIMTFAC
 40
1.0
  9
$DIMGAP
 40
1.0
  9
$LUNITS
 70
     2
  9
$LUPREC
 70
     6
  9
$SKETCHINC
 40
1.0
  9
$FILLETRAD
 40
0.0
  9
$AUNITS
 70
     0
  9
$AUPREC
 70
     6
  9
$MENU
  1
.
  9
$ELEVATION
 40
0.0
  9
$PELEVATION
 40
0.0
  9
$THICKNESS
 40
0.0
  9
$LIMCHECK
 70
     0
  9
$BLIPMODE
 70
     0
  9
$CHAMFERA
 40
0.2
  9
$CHAMFERB
 40
0.2
  9
$SKPOLY
 70
     0
  9
$TDCREATE
 40
2457242.3454690971
  9
$TDUPDATE
 40
2457242.3843393172
  9
$TDINDWG
 40
0.0142367361
  9
$TDUSRTIMER
 40
0.0142366782
  9
$USRTIMER
 70
     1
  9
$ANGBASE
 50
0.0
  9
$ANGDIR
 70
     0
  9
$PDMODE
 70
     1
  9
$PDSIZE
 40
0.0
  9
$PLINEWID
 40
0.0
  9
$COORDS
 70
     1
  9
$SPLFRAME
 70
     0
  9
$SPLINETYPE
 70
     6
  9
$SPLINESEGS
 70
     4
  9
$ATTDIA
 70
     1
  9
$ATTREQ
 70
     1
  9
$HANDLING
 70
     1
  9
$HANDSEED
  5
4C08
  9
$SURFTAB1
 70
     6
  9
$SURFTAB2
 70
     6
  9
$SURFTYPE
 70
     6
  9
$SURFU
 70
     6
  9
$SURFV
 70
     6
  9
$UCSNAME
  2

  9
$UCSORG
 10
0.0
 20
0.0
 30
0.0
  9
$UCSXDIR
 10
1.0
 20
0.0
 30
0.0
  9
$UCSYDIR
 10
0.0
 20
1.0
 30
0.0
  9
$PUCSNAME
  2

  9
$PUCSORG
 10
0.0
 20
0.0
 30
0.0
  9
$PUCSXDIR
 10
1.0
 20
0.0
 30
0.0
  9
$PUCSYDIR
 10
0.0
 20
1.0
 30
0.0
  9
$USERI1
 70
     1
  9
$USERI2
 70
     0
  9
$USERI3
 70
     0
  9
$USERI4
 70
     0
  9
$USERI5
 70
     0
  9
$USERR1
 40
0.0
  9
$USERR2
 40
0.0
  9
$USERR3
 40
0.0
  9
$USERR4
 40
0.0
  9
$USERR5
 40
0.0
  9
$WORLDVIEW
 70
     1
  9
$SHADEDGE
 70
     3
  9
$SHADEDIF
 70
    70
  9
$TILEMODE
 70
     1
  9
$MAXACTVP
 70
    16
  9
$PLIMCHECK
 70
     0
  9
$PEXTMIN
 10
1.0000000000000000E+020
 20
1.0000000000000000E+020
 30
1.0000000000000000E+020
  9
$PEXTMAX
 10
-1.0000000000000000E+020
 20
-1.0000000000000000E+020
 30
-1.0000000000000000E+020
  9
$PLIMMIN
 10
0.0
 20
0.0
  9
$PLIMMAX
 10
420.0
 20
297.0
  9
$UNITMODE
 70
     0
  9
$VISRETAIN
 70
     1
  9
$PLINEGEN
 70
     0
  9
$PSLTSCALE
 70
     1
  0
ENDSEC
  0
SECTION
  2
TABLES
  0
TABLE
  2
VPORT
 70
     1
  0
VPORT
  2
*ACTIVE
 70
     0
 10
0.0
 20
0.0
 11
1.0
 21
1.0
 12
39.848648636309228
 22
15.999298481037041
 13
0.0
 23
0.0
 14
7.0
 24
7.0
 15
7.0
 25
7.0
 16
0.0
 26
0.0
 36
1.0
 17
0.0
 27
0.0
 37
0.0
 40
122.0206627424929
 41
1.4355016538037479
 42
50.0
 43
0.0
 44
0.0
 50
0.0
 51
0.0
 71
     0
 72
  2000
 73
     1
 74
     0
 75
     1
 76
     1
 77
     0
 78
     0
  0
ENDTAB
  0
TABLE
  2
LTYPE
 70
    13
  0
LTYPE
  2
CONTINUOUS
 70
     0
  3
Solid line
 72
    65
 73
     0
 40
0.0
  0
LTYPE
  2
CENTER2
 70
     0
  3
___ _ ___ _ ___ _ ___ _ ___ _ ___ _ ___ _ ___ _
 72
    65
 73
     4
 40
1.125
 49
0.75
 49
-0.125
 49
0.125
 49
-0.125
  0
LTYPE
  2
HIDDEN2
 70
     0
  3
_ _ _ _ _ _ _ _ _ _ _ _ _ _ _ _ _ _ _ _ _ _ _ _
 72
    65
 73
     2
 40
0.1875
 49
0.125
 49
-0.0625
  0
LTYPE
  2
PHANTOM2
 70
     0
  3
___ _ _ ___ _ _ ___ _ _ ___ _ _ ___ _ _ ___ _ _
 72
    65
 73
     6
 40
1.25
 49
0.625
 49
-0.125
 49
0.125
 49
-0.125
 49
0.125
 49
-0.125
  0
LTYPE
  2
AM_ISO02W050
 70
     0
  3
__ __ __ __ __ __ __ __ __ __ __ __ __ __ __
 72
    65
 73
     2
 40
7.5
 49
6.0
 49
-1.5
  0
LTYPE
  2
AMCONSTR
 70
     0
  3
_______________________
 72
    65
 73
     2
 40
9999.0
 49
9999.0
 49
0.0
  0
LTYPE
  2
ACISOWELD
 70
     0
  3
_ _ _ _ _
 72
    65
 73
     2
 40
2.0
 49
2.0
 49
-1.0
  0
LTYPE
  2
ACISOTGB
 70
     0
  3
__ . . __ . .
 72
    65
 73
     6
 40
9.0
 49
4.0
 49
-1.0
 49
1.0
 49
-1.0
 49
1.0
 49
-1.0
  0
LTYPE
  2
ACISOTGL
 70
     0
  3
_ _ _ _ _
 72
    65
 73
     2
 40
3.0
 49
2.0
 49
-1.0
  0
LTYPE
  2
ACJISTGB
 70
     0
  3
__ . . __ . .
 72
    65
 73
     6
 40
9.0
 49
4.0
 49
-1.0
 49
1.0
 49
-1.0
 49
1.0
 49
-1.0
  0
LTYPE
  2
ACJISTGL
 70
     0
  3
_ _ _ _ _
 72
    65
 73
     2
 40
3.0
 49
2.0
 49
-1.0
  0
ENDTAB
  0
TABLE
  2
LAYER
 70
    10
  0
LAYER
  2
0
 70
     0
 62
     7
  6
CONTINUOUS
  0
LAYER
  2
DEFPOINTS
 70
     0
 62
     7
  6
CONTINUOUS
  0
LAYER
  2
245
 70
     0
 62
     2
  6
CENTER2
  0
LAYER
  2
240
 70
     0
 62
     4
  6
CONTINUOUS
  0
LAYER
  2
241
 70
     0
 62
   211
  6
CONTINUOUS
  0
LAYER
  2
242
 70
     0
 62
     3
  6
CONTINUOUS
  0
LAYER
  2
243
 70
     0
 62
   211
  6
HIDDEN2
  0
LAYER
  2
244
 70
     0
 62
     3
  6
HIDDEN2
  0
LAYER
  2
246
 70
     0
 62
     3
  6
PHANTOM2
  0
LAYER
  2
250
 70
     0
 62
     3
  6
CONTINUOUS
  0
ENDTAB
  0
TABLE
  2
STYLE
 70
     6
  0
STYLE
  2
STANDARD
 70
     0
 40
0.0
 41
1.0
 50
0.0
 71
     0
 42
3.0
  3
romans.shx
  4
extfont.shx
  0
STYLE
  2
ACISOTS
 70
     0
 40
1.0
 41
1.0
 50
0.0
 71
     0
 42
3.0
  3
amgdt.shx
  4
extfont.shx
  0
STYLE
  2
ACISOGDT
 70
     0
 40
0.0
 41
1.0
 50
0.0
 71
     0
 42
3.0
  3
amgdt.shx
  4
extfont.shx
  0
STYLE
  2
ACJISTS
 70
     0
 40
1.0
 41
1.0
 50
0.0
 71
     0
 42
3.0
  3
amgdt.shx
  4
extfont.shx
  0
STYLE
  2
ACJISGDT
 70
     0
 40
0.0
 41
1.0
 50
0.0
 71
     0
 42
3.0
  3
amgdt.shx
  4
extfont.shx
  0
STYLE
  2
YOKO
 70
     0
 40
0.0
 41
1.0
 50
0.0
 71
     0
 42
3.0
  3
romans.shx
  4
extfont.shx
  0
ENDTAB
  0
TABLE
  2
VIEW
 70
     0
  0
ENDTAB
  0
TABLE
  2
UCS
 70
     0
  0
ENDTAB
  0
TABLE
  2
APPID
 70
    35
  0
APPID
  2
ACAD
 70
     0
  0
APPID
  2
GLOBAL
 70
     0
  0
APPID
  2
DETAIL
 70
     0
  0
APPID
  2
GRPNAME
 70
     0
  0
APPID
  2
GPARA
 70
     0
  0
APPID
  2
MCAD_NO_VIS
 70
     0
  0
APPID
  2
ACAD_TEMP_GRAPHIC
 70
     0
  0
APPID
  2
ACATTRIBSERVICES
 70
     0
  0
APPID
  2
GENIUS_GENSCREG_15
 70
     0
  0
APPID
  2
GENIUS_GENODEF_13
 70
     0
  0
APPID
  2
GENIUS_GENOBJ-N-SDF_13
 70
     0
  0
APPID
  2
GENIUS_GENREC_14
 70
     0
  0
APPID
  2
GENIUS_GENOBJ-N-REC_13
 70
     0
  0
APPID
  2
GENIUS_GENDIMSH_14
 70
     0
  0
APPID
  2
GENIUS_GENOBJ-N-DIM_13
 70
     0
  0
APPID
  2
GENIUS_GENDIM_13
 70
     0
  0
APPID
  2
GENIUS_GENDTOL_13
 70
     0
  0
APPID
  2
GENIUS_GENOLIS_13
 70
     0
  0
APPID
  2
GENIUS_GENOENT_13
 70
     0
  0
APPID
  2
GENIUS_GENOBJ-F-FEM_13
 70
     0
  0
APPID
  2
GENIUS_GENOREF_13
 70
     0
  0
APPID
  2
GENIUS_GEFFEM_13
 70
     0
  0
APPID
  2
GENIUS_GEFFEMP_13
 70
     0
  0
APPID
  2
AD_DRAW
 70
     0
  0
APPID
  2
DESIGNERASSEMBLIES
 70
     0
  0
APPID
  2
ACADM_DIM_EDIT
 70
     0
  0
APPID
  2
AMDT_DM_ADJ
 70
     0
  0
APPID
  2
ITEMNAME
 70
     0
  0
APPID
  2
GENIUS_GENOBJ-N-FIL_13
 70
     0
  0
APPID
  2
GENIUS_GENFIL_13
 70
     0
  0
APPID
  2
GENIUS_GENOBJ-N-CHA_13
 70
     0
  0
APPID
  2
ACAD_NAV_VCDISPLAY
 70
     0
  0
APPID
  2
ACAD_EXEMPT_FROM_CAD_STANDARDS
 70
     0
  0
APPID
  2
ACAD_DSTYLE_DIMINSPECT
 70
     0
  0
APPID
  2
ACAD_MLEADERVER
 70
     0
  0
ENDTAB
  0
TABLE
  2
DIMSTYLE
 70
    23
  0
DIMSTYLE
  2
BIGT
 70
     0
  3

  4

  5
OPEN
  6

  7

 40
1.0
 41
2.2299999999999991
 42
0.5
 43
7.0
 44
1.0
 45
0.0
 46
0.0
 47
0.0
 48
0.01
140
2.7999999999999989
141
0.0
142
0.0
143
25.399999999999999
144
1.0
145
0.0
146
1.0
147
1.0
 71
     0
 72
     0
 73
     0
 74
     0
 75
     0
 76
     0
 77
     3
 78
     9
170
     0
171
     2
172
     1
173
     0
174
     1
175
     0
176
   256
177
   256
178
    40
  0
DIMSTYLE
  2
AM_ISO
 70
     0
  3

  4
"
  5

  6

  7

 40
1.0
 41
2.5
 42
1.0
 43
10.0
 44
1.0
 45
0.0
 46
0.0
 47
0.1
 48
0.1
140
3.5
141
0.0
142
0.0
143
0.0393701
144
1.0
145
0.0
146
0.71
147
1.5
 71
     0
 72
     0
 73
     0
 74
     0
 75
     0
 76
     0
 77
     1
 78
     8
170
     0
171
     2
172
     1
173
     0
174
     0
175
     0
176
   256
177
   256
178
     2
  0
DIMSTYLE
  2
AM_ISO$3
 70
     0
  3

  4
"
  5

  6

  7

 40
1.0
 41
2.5
 42
1.0
 43
10.0
 44
1.0
 45
0.0
 46
0.0
 47
0.1
 48
0.1
140
3.5
141
0.0
142
0.0
143
0.0393701
144
1.0
145
0.0
146
0.71
147
1.5
 71
     0
 72
     0
 73
     0
 74
     1
 75
     0
 76
     0
 77
     1
 78
     8
170
     0
171
     2
172
     0
173
     0
174
     0
175
     0
176
   256
177
   256
178
     2
  0
DIMSTYLE
  2
AM_ISO$4
 70
     0
  3

  4
"
  5

  6

  7

 40
1.0
 41
2.5
 42
1.0
 43
10.0
 44
1.0
 45
0.0
 46
0.0
 47
0.1
 48
0.1
140
3.5
141
0.0
142
0.0
143
0.0393701
144
1.0
145
0.0
146
0.71
147
1.5
 71
     0
 72
     0
 73
     0
 74
     1
 75
     0
 76
     0
 77
     1
 78
     8
170
     0
171
     2
172
     0
173
     0
174
     0
175
     0
176
   256
177
   256
178
     2
  0
DIMSTYLE
  2
AM_ISO$6
 70
     0
  3

  4
"
  5

  6

  7

 40
1.0
 41
2.5
 42
1.0
 43
10.0
 44
1.0
 45
0.0
 46
0.0
 47
0.1
 48
0.1
140
3.5
141
0.0
142
0.0
143
0.0393701
144
1.0
145
0.0
146
0.71
147
1.5
 71
     0
 72
     0
 73
     0
 74
     0
 75
     0
 76
     0
 77
     0
 78
     8
170
     0
171
     2
172
     1
173
     0
174
     0
175
     0
176
   256
177
   256
178
     2
  0
DIMSTYLE
  2
AM_ISO$7
 70
     0
  3

  4
"
  5

  6

  7

 40
1.0
 41
2.5
 42
1.0
 43
10.0
 44
1.0
 45
0.0
 46
0.0
 47
0.1
 48
0.1
140
5.0
141
0.0
142
0.0
143
0.0393701
144
1.0
145
0.0
146
0.71
147
1.5
 71
     0
 72
     0
 73
     0
 74
     0
 75
     0
 76
     0
 77
     1
 78
     8
170
     0
171
     2
172
     1
173
     0
174
     0
175
     0
176
   256
177
   256
178
     2
  0
DIMSTYLE
  2
AM_ISO$SF
 70
     0
  3

  4
"
  5

  6

  7

 40
1.0
 41
2.5
 42
1.0
 43
10.0
 44
1.0
 45
0.0
 46
0.0
 47
0.1
 48
0.1
140
3.5
141
0.0
142
0.0
143
0.0393701
144
1.0
145
0.0
146
0.71
147
1.5
 71
     0
 72
     0
 73
     0
 74
     0
 75
     1
 76
     1
 77
     1
 78
     8
170
     0
171
     2
172
     1
173
     0
174
     0
175
     0
176
   256
177
   256
178
     2
  0
DIMSTYLE
  2
AM_ISO$SH
 70
     0
  3

  4
"
  5

  6
GENAXEH
  7

 40
1.0
 41
2.5
 42
1.0
 43
10.0
 44
1.0
 45
0.0
 46
0.0
 47
0.1
 48
0.1
140
3.5
141
0.0
142
0.0
143
0.0393701
144
2.0
145
0.0
146
0.71
147
1.5
 71
     0
 72
     0
 73
     0
 74
     0
 75
     1
 76
     1
 77
     1
 78
     8
170
     0
171
     2
172
     1
173
     1
174
     0
175
     0
176
   256
177
   256
178
     2
  0
DIMSTYLE
  2
BIGT$2
 70
     0
  3

  4

  5
OPEN
  6

  7

 40
1.0
 41
2.2299999999999991
 42
0.5
 43
7.0
 44
1.0
 45
0.0
 46
0.0
 47
0.0
 48
0.01
140
2.7999999999999989
141
0.0
142
0.0
143
25.399999999999999
144
1.0
145
0.0
146
1.0
147
1.0
 71
     0
 72
     0
 73
     0
 74
     0
 75
     0
 76
     0
 77
     3
 78
     9
170
     0
171
     2
172
     1
173
     0
174
     0
175
     0
176
   256
177
   256
178
    40
  0
DIMSTYLE
  2
BIGT$3
 70
     0
  3

  4

  5
OPEN
  6

  7

 40
1.0
 41
2.2299999999999991
 42
0.5
 43
2.5
 44
1.0
 45
0.0
 46
0.0
 47
0.0
 48
0.01
140
2.7999999999999989
141
0.0
142
0.0
143
25.399999999999999
144
1.0
145
0.0
146
1.0
147
1.0
 71
     0
 72
     0
 73
     0
 74
     0
 75
     0
 76
     0
 77
     3
 78
     9
170
     0
171
     2
172
     1
173
     0
174
     0
175
     0
176
   256
177
   256
178
    40
  0
DIMSTYLE
  2
BIGT$7
 70
     0
  3

  4

  5
OPEN
  6

  7

 40
0.0
 41
2.2299999999999991
 42
0.5
 43
7.0
 44
1.0
 45
0.0
 46
0.0
 47
0.0
 48
0.01
140
2.7999999999999989
141
0.0
142
0.0
143
25.399999999999999
144
1.0
145
0.0
146
1.0
147
1.0
 71
     0
 72
     0
 73
     0
 74
     0
 75
     0
 76
     0
 77
     3
 78
     9
170
     0
171
     2
172
     0
173
     0
174
     0
175
     0
176
   256
177
   256
178
    40
  0
DIMSTYLE
  2
BIGT$6
 70
     0
  3

  4

  5
OPEN
  6

  7

 40
1.0
 41
2.2299999999999991
 42
0.5
 43
2.5
 44
1.0
 45
0.0
 46
0.0
 47
0.0
 48
0.01
140
2.7999999999999989
141
0.0
142
0.0
143
25.399999999999999
144
1.0
145
0.0
146
1.0
147
1.0
 71
     0
 72
     0
 73
     0
 74
     0
 75
     0
 76
     0
 77
     3
 78
     9
170
     0
171
     2
172
     1
173
     0
174
     0
175
     0
176
   256
177
   256
178
    40
  0
DIMSTYLE
  2
BIGT$0
 70
     0
  3

  4

  5
OPEN
  6

  7

 40
1.0
 41
2.2299999999999991
 42
0.5
 43
7.0
 44
1.0
 45
0.0
 46
0.0
 47
0.0
 48
0.01
140
2.7999999999999989
141
0.0
142
0.0
143
25.399999999999999
144
1.0
145
0.0
146
1.0
147
1.0
 71
     0
 72
     0
 73
     0
 74
     0
 75
     0
 76
     0
 77
     3
 78
     9
170
     0
171
     2
172
     1
173
     0
174
     1
175
     0
176
   256
177
   256
178
    40
  0
DIMSTYLE
  2
BIGT$4
 70
     0
  3

  4

  5
OPEN
  6

  7

 40
1.0
 41
2.2299999999999991
 42
0.5
 43
2.5
 44
1.0
 45
0.0
 46
0.0
 47
0.0
 48
0.01
140
2.7999999999999989
141
0.0
142
0.0
143
25.399999999999999
144
1.0
145
0.0
146
1.0
147
1.0
 71
     0
 72
     0
 73
     0
 74
     0
 75
     0
 76
     0
 77
     3
 78
     9
170
     0
171
     2
172
     1
173
     0
174
     0
175
     0
176
   256
177
   256
178
    40
  0
DIMSTYLE
  2
BIGT$SH
 70
     0
  3

  4

  5
OPEN
  6

  7

 40
1.0
 41
2.2299999999999991
 42
0.5
 43
7.0
 44
1.0
 45
0.0
 46
0.0
 47
0.0
 48
0.0
140
2.7999999999999989
141
0.0
142
0.0
143
25.399999999999999
144
1.0
145
0.0
146
1.0
147
1.0
 71
     0
 72
     0
 73
     0
 74
     0
 75
     0
 76
     0
 77
     3
 78
     9
170
     0
171
     2
172
     1
173
     0
174
     0
175
     0
176
   256
177
   256
178
    40
  0
DIMSTYLE
  2
BIGT$SF
 70
     0
  3

  4

  5
OPEN
  6

  7

 40
1.0
 41
2.2299999999999991
 42
0.5
 43
7.0
 44
1.0
 45
0.0
 46
0.0
 47
0.0
 48
0.0
140
2.7999999999999989
141
0.0
142
0.0
143
25.399999999999999
144
1.0
145
0.0
146
1.0
147
1.0
 71
     0
 72
     0
 73
     0
 74
     0
 75
     0
 76
     0
 77
     3
 78
     9
170
     0
171
     2
172
     1
173
     0
174
     0
175
     0
176
   256
177
   256
178
    40
  0
DIMSTYLE
  2
TECHNICAL_OSAKA
 70
     0
  3

  4
"
  5
OPEN30
  6

  7

 40
1.0
 41
2.5
 42
1.0
 43
10.0
 44
1.0
 45
0.0
 46
0.0
 47
0.1
 48
0.1
140
2.7999999999999989
141
0.0
142
0.0
143
0.0393701
144
1.0
145
0.0
146
0.71
147
1.5
 71
     0
 72
     0
 73
     0
 74
     0
 75
     0
 76
     0
 77
     3
 78
     8
170
     0
171
     2
172
     1
173
     0
174
     0
175
     0
176
   256
177
   256
178
    40
  0
DIMSTYLE
  2
TECHNICAL_OSAKA$3
 70
     0
  3

  4
"
  5
OPEN30
  6

  7

 40
1.0
 41
2.5
 42
1.0
 43
10.0
 44
1.0
 45
0.0
 46
0.0
 47
0.1
 48
0.1
140
2.7999999999999989
141
0.0
142
0.0
143
0.0393701
144
1.0
145
0.0
146
0.71
147
1.5
 71
     0
 72
     0
 73
     0
 74
     1
 75
     0
 76
     0
 77
     3
 78
     8
170
     0
171
     2
172
     0
173
     0
174
     0
175
     0
176
   256
177
   256
178
    40
  0
DIMSTYLE
  2
TECHNICAL_OSAKA$4
 70
     0
  3

  4
"
  5
OPEN30
  6

  7

 40
1.0
 41
2.5
 42
1.0
 43
10.0
 44
1.0
 45
0.0
 46
0.0
 47
0.1
 48
0.1
140
2.7999999999999989
141
0.0
142
0.0
143
0.0393701
144
1.0
145
0.0
146
0.71
147
1.5
 71
     0
 72
     0
 73
     0
 74
     1
 75
     0
 76
     0
 77
     3
 78
     8
170
     0
171
     2
172
     0
173
     0
174
     0
175
     0
176
   256
177
   256
178
    40
  0
DIMSTYLE
  2
TECHNICAL_OSAKA$6
 70
     0
  3

  4
"
  5
OPEN30
  6

  7

 40
1.0
 41
2.5
 42
1.0
 43
10.0
 44
1.0
 45
0.0
 46
0.0
 47
0.1
 48
0.1
140
2.7999999999999989
141
0.0
142
0.0
143
0.0393701
144
1.0
145
0.0
146
0.71
147
1.5
 71
     0
 72
     0
 73
     0
 74
     0
 75
     0
 76
     0
 77
     0
 78
     8
170
     0
171
     2
172
     1
173
     0
174
     0
175
     0
176
   256
177
   256
178
    40
  0
DIMSTYLE
  2
TECHNICAL_OSAKA$7
 70
     0
  3

  4
"
  5
OPEN30
  6

  7

 40
1.0
 41
2.5
 42
1.0
 43
10.0
 44
1.0
 45
0.0
 46
0.0
 47
0.1
 48
0.1
140
2.7999999999999989
141
0.0
142
0.0
143
0.0393701
144
1.0
145
0.0
146
0.71
147
1.5
 71
     0
 72
     0
 73
     0
 74
     0
 75
     0
 76
     0
 77
     3
 78
     8
170
     0
171
     2
172
     1
173
     0
174
     0
175
     0
176
   256
177
   256
178
    40
  0
DIMSTYLE
  2
TECHNICAL_OSAKA$SF
 70
     0
  3

  4
"
  5
OPEN30
  6
OPEN30
  7
OPEN30
 40
1.0
 41
2.5
 42
1.0
 43
10.0
 44
1.0
 45
0.0
 46
0.0
 47
0.1
 48
0.1
140
3.5
141
0.0
142
0.0
143
0.0393701
144
1.0
145
0.0
146
0.71
147
1.5
 71
     0
 72
     0
 73
     0
 74
     0
 75
     1
 76
     1
 77
     3
 78
     8
170
     0
171
     2
172
     1
173
     0
174
     0
175
     0
176
   256
177
   256
178
    40
  0
DIMSTYLE
  2
TECHNICAL_OSAKA$SH
 70
     0
  3

  4
"
  5
OPEN30
  6
GENAXEH
  7
OPEN30
 40
1.0
 41
2.5
 42
1.0
 43
10.0
 44
1.0
 45
0.0
 46
0.0
 47
0.1
 48
0.1
140
3.5
141
0.0
142
0.0
143
0.0393701
144
2.0
145
0.0
146
0.71
147
1.5
 71
     0
 72
     0
 73
     0
 74
     0
 75
     1
 76
     1
 77
     3
 78
     8
170
     0
171
     2
172
     1
173
     1
174
     0
175
     0
176
   256
177
   256
178
    40
  0
ENDTAB
  0
ENDSEC
  0
SECTION
  2
BLOCKS
  0
BLOCK
  8
0
  2
$MODEL_SPACE
 70
     0
 10
0.0
 20
0.0
 30
0.0
  3
$MODEL_SPACE
  1

  0
ENDBLK
  5
1C
  8
0
  0
BLOCK
 67
     1
  8
0
  2
$PAPER_SPACE
 70
     0
 10
0.0
 20
0.0
 30
0.0
  3
$PAPER_SPACE
  1

  0
ENDBLK
  5
19
 67
     1
  8
0
  0
BLOCK
  8
0
  2
_OPEN
 70
     0
 10
0.0
 20
0.0
 30
0.0
  3
_OPEN
  1

  0
LINE
  5
4B14
  8
0
  6
BYBLOCK
 62
     0
 10
-1.0
 20
0.1666666666666666
 30
0.0
 11
0.0
 21
0.0
 31
0.0
  0
LINE
  5
4B15
  8
0
  6
BYBLOCK
 62
     0
 10
-1.0
 20
-0.1666666666666666
 30
0.0
 11
0.0
 21
0.0
 31
0.0
  0
LINE
  5
4B16
  8
0
  6
BYBLOCK
 62
     0
 10
0.0
 20
0.0
 30
0.0
 11
-1.0
 21
0.0
 31
0.0
  0
ENDBLK
  5
4B17
  8
0
  0
BLOCK
  8
0
  2
GENAXEH
 70
     0
 10
0.0
 20
0.0
 30
0.0
  3
GENAXEH
  1

  0
LINE
  5
4B4F
  8
0
 10
-1.0
 20
0.0
 30
0.0
 11
1.0
 21
0.0
 31
0.0
  0
ENDBLK
  5
4B50
  8
0
  0
BLOCK
  8
0
  2
_OPEN30
 70
     0
 10
0.0
 20
0.0
 30
0.0
  3
_OPEN30
  1

  0
LINE
  5
4B8B
  8
0
  6
BYBLOCK
 62
     0
 10
-1.0
 20
0.26794919
 30
0.0
 11
0.0
 21
0.0
 31
0.0
  0
LINE
  5
4B8C
  8
0
  6
BYBLOCK
 62
     0
 10
0.0
 20
0.0
 30
0.0
 11
-1.0
 21
-0.26794919
 31
0.0
  0
LINE
  5
4B8D
  8
0
  6
BYBLOCK
 62
     0
 10
0.0
 20
0.0
 30
0.0
 11
-1.0
 21
0.0
 31
0.0
  0
ENDBLK
  5
4B8E
  8
0
  0
ENDSEC
  0
SECTION
  2
ENTITIES
  0
LINE
  5
4482
  8
240
 10
36.75
 20
22.0
 30
0.0
 11
37.0
 21
21.75
 31
0.0
1001
GENIUS_GENFIL_13
1070
     0
1040
0.25
1040
0.25
1040
0.500000000000057
1040
44.999999999995929
1002
{
1002
}
1001
GRPNAME
1000
PASTMD03
1001
GENIUS_GENODEF_13
1002
{
1000
HIER
1070
     0
1002
}
1002
{
1000
MANEDIT
1070
     0
1002
}
1002
{
1000
NOSEL
1070
     0
1002
}
1002
{
1000
BEHIND
1070
     0
1002
}
1002
{
1000
OTHER
1070
     0
1002
}
1002
{
1000
REACTOR
1002
}
1001
GENIUS_GENOBJ-N-CHA_13
1002
{
1000
OWNER
1000
GEN
1002
}
  0
LINE
  5
4483
  8
240
 10
62.499999999994202
 20
10.250000000000229
 30
0.0
 11
88.499999999999986
 21
10.25000000000008
 31
0.0
  0
LINE
  5
4484
  8
240
 10
36.5
 20
21.996126549494079
 30
0.0
 11
36.5
 21
21.996126549494079
 31
0.0
  0
LINE
  5
4485
  8
241
 10
36.999999999999829
 20
0.0
 30
0.0
 11
36.999999999999943
 21
-21.75
 31
0.0
1001
GRPNAME
1000
PASTMD03
  0
LINE
  5
4486
  8
240
 10
36.749999999999943
 20
-22.0
 30
0.0
 11
36.999999999999943
 21
-21.75
 31
0.0
1001
GENIUS_GENFIL_13
1070
     0
1040
0.25
1040
0.25
1040
0.500000000000057
1040
44.999999999995929
1002
{
1002
}
1001
GRPNAME
1000
PASTMD03
1001
GENIUS_GENOBJ-N-CHA_13
1002
{
1000
OWNER
1000
GEN
1002
}
1001
GENIUS_GENODEF_13
1002
{
1000
HIER
1070
     0
1002
}
1002
{
1000
MANEDIT
1070
     0
1002
}
1002
{
1000
NOSEL
1070
     0
1002
}
1002
{
1000
BEHIND
1070
     0
1002
}
1002
{
1000
OTHER
1070
     0
1002
}
1002
{
1000
REACTOR
1002
}
  0
LINE
  5
4487
  8
240
 10
36.5
 20
-22.00387345050575
 30
0.0
 11
36.5
 21
-22.00387345050575
 31
0.0
  0
LINE
  5
4488
  8
240
 10
62.499999999994309
 20
-10.25000000000005
 30
0.0
 11
88.499999999999986
 21
-10.25000000000005
 31
0.0
  0
LINE
  5
4489
  8
245
 10
-35.0
 20
0.0
 30
0.0
 11
112.0
 21
0.0
 31
0.0
  0
LINE
  5
448A
  8
250
 10
105.0
 20
-4.0
 30
0.0
 11
121.11669708454551
 21
-4.0
 31
0.0
  0
LINE
  5
448B
  8
250
 10
105.0
 20
4.0
 30
0.0
 11
121.11669708454551
 21
4.0
 31
0.0
  0
ARC
  5
448C
  8
240
 10
34.999999999999893
 20
-23.0
 30
0.0
 40
1.0
 50
90.0
 51
180.0
1001
GENIUS_GENODEF_13
1002
{
1000
HIER
1070
     0
1002
}
1002
{
1000
MANEDIT
1070
     0
1002
}
1002
{
1000
NOSEL
1070
     0
1002
}
1002
{
1000
BEHIND
1070
     0
1002
}
1002
{
1000
OTHER
1070
     0
1002
}
1002
{
1000
REACTOR
1002
}
1001
GENIUS_GENOBJ-N-FIL_13
1002
{
1000
OWNER
1000
GEN
1002
}
  0
LINE
  5
448D
  8
240
 10
36.75
 20
22.0
 30
0.0
 11
34.999999999999893
 21
22.0
 31
0.0
  0
LINE
  5
448E
  8
240
 10
36.749999999999943
 20
-22.0
 30
0.0
 11
34.999999999999893
 21
-22.0
 31
0.0
  0
LINE
  5
448F
  8
240
 10
33.999999999999893
 20
25.303873450506099
 30
0.0
 11
33.999999999999893
 21
23.0
 31
0.0
  0
ARC
  5
4490
  8
240
 10
34.999999999999893
 20
22.99999999999989
 30
0.0
 40
1.0
 50
179.99999999999349
 51
270.0000000000033
1001
GENIUS_GENOBJ-N-FIL_13
1002
{
1000
OWNER
1000
GEN
1002
}
1001
GENIUS_GENODEF_13
1002
{
1000
HIER
1070
     0
1002
}
1002
{
1000
MANEDIT
1070
     0
1002
}
1002
{
1000
NOSEL
1070
     0
1002
}
1002
{
1000
BEHIND
1070
     0
1002
}
1002
{
1000
OTHER
1070
     0
1002
}
1002
{
1000
REACTOR
1002
}
  0
LINE
  5
4491
  8
241
 10
33.999999999999893
 20
-23.0
 30
0.0
 11
33.999999999999893
 21
22.99999999999989
 31
0.0
  0
LINE
  5
4492
  8
246
 10
67.693375672974071
 20
0.7216878364870354
 30
0.0
 11
65.821367205045874
 21
0.7216878364870354
 31
0.0
  0
ARC
  5
449A
  8
240
 10
90.5
 20
9.0
 30
0.0
 40
1.0
 50
180.0
 51
270.0
  0
LINE
  5
449B
  8
240
 10
94.0
 20
8.0
 30
0.0
 11
90.5
 21
8.0
 31
0.0
  0
LINE
  5
449C
  8
240
 10
94.0
 20
-8.0
 30
0.0
 11
90.5
 21
-8.0
 31
0.0
  0
ARC
  5
449D
  8
240
 10
90.5
 20
-9.0
 30
0.0
 40
1.0
 50
90.0
 51
180.0
  0
LINE
  5
449E
  8
240
 10
94.0
 20
9.5
 30
0.0
 11
94.300000000000011
 21
9.8000000000000114
 31
0.0
  0
LINE
  5
449F
  8
240
 10
94.0
 20
-9.5
 30
0.0
 11
94.300000000000011
 21
-9.7999999999999812
 31
0.0
  0
LINE
  5
44A0
  8
240
 10
94.300000000000011
 20
9.8000000000000114
 30
0.0
 11
94.300000000000011
 21
11.900000000000031
 31
0.0
  0
ARC
  5
44A1
  8
240
 10
94.899999999999977
 20
11.900000000000031
 30
0.0
 40
0.5999999999999944
 50
90.0
 51
180.0
  0
LINE
  5
44A2
  8
240
 10
94.300000000000011
 20
-11.89999999999997
 30
0.0
 11
94.300000000000011
 21
-9.7999999999999812
 31
0.0
  0
ARC
  5
44A3
  8
240
 10
94.899999999999977
 20
-11.89999999999997
 30
0.0
 40
0.5999999999999944
 50
180.0
 51
270.0
  0
LINE
  5
44A4
  8
240
 10
94.899999999999977
 20
12.5
 30
0.0
 11
104.05147186257589
 21
12.500000000000229
 31
0.0
  0
ARC
  5
44A5
  8
240
 10
104.05147186257589
 20
11.900000000000199
 30
0.0
 40
0.5999999999999888
 50
45.0
 51
90.000000000001606
  0
LINE
  5
44A6
  8
240
 10
94.899999999999977
 20
-12.5
 30
0.0
 11
104.05147186257589
 21
-12.50000000000014
 31
0.0
  0
ARC
  5
44A7
  8
240
 10
104.05147186257599
 20
-11.90000000000015
 30
0.0
 40
0.5999999999999944
 50
269.99999999999682
 51
314.99999999999773
  0
LINE
  5
44A8
  8
240
 10
104.85355339059331
 20
11.946446609406729
 30
0.0
 11
104.4757359312879
 21
12.32426406871212
 31
0.0
  0
ARC
  5
44A9
  8
240
 10
104.5
 20
11.59289321881346
 30
0.0
 40
0.5
 50
0.0
 51
45.0
  0
LINE
  5
44AA
  8
240
 10
105.0
 20
11.59289321881346
 30
0.0
 11
105.0
 21
-11.59289321881346
 31
0.0
  0
LINE
  5
44AB
  8
240
 10
104.4757359312879
 20
-12.32426406871207
 30
0.0
 11
104.85355339059331
 21
-11.946446609406729
 31
0.0
  0
ARC
  5
44AC
  8
240
 10
104.5
 20
-11.59289321881346
 30
0.0
 40
0.500000000000004
 50
315.0
 51
0.0
  0
LINE
  5
44AD
  8
240
 10
94.0
 20
9.5
 30
0.0
 11
94.0
 21
8.0
 31
0.0
  0
LINE
  5
44AE
  8
240
 10
94.0
 20
-9.5
 30
0.0
 11
94.0
 21
-8.0
 31
0.0
  0
LINE
  5
44AF
  8
241
 10
91.5
 20
-7.5
 30
0.0
 11
91.5
 21
7.5
 31
0.0
  0
LINE
  5
44B0
  8
241
 10
94.300000000000011
 20
-9.7999999999999812
 30
0.0
 11
94.300000000000011
 21
9.8000000000000114
 31
0.0
  0
LINE
  5
44B1
  8
241
 10
104.05147186257589
 20
12.138126773888359
 30
0.0
 11
104.05147186257589
 21
-12.18543046357615
 31
0.0
  0
LINE
  5
44B2
  8
241
 10
94.899999999999977
 20
12.5
 30
0.0
 11
94.899999999999977
 21
11.497092630102371
 31
0.0
  0
LINE
  5
44B3
  8
241
 10
94.899999999999977
 20
9.9970926301023724
 30
0.0
 11
94.899999999999977
 21
1.500000000000028
 31
0.0
  0
LINE
  5
44B4
  8
241
 10
94.899999999999977
 20
-1.5
 30
0.0
 11
94.899999999999977
 21
-9.9970926301023724
 31
0.0
  0
LINE
  5
44B5
  8
241
 10
94.899999999999977
 20
-11.49709263010234
 30
0.0
 11
94.899999999999977
 21
-12.5
 31
0.0
  0
LINE
  5
44B6
  8
241
 10
89.500000000000014
 20
-9.0
 30
0.0
 11
89.500000000000014
 21
9.0
 31
0.0
  0
LINE
  5
44B7
  8
241
 10
94.0
 20
-8.0
 30
0.0
 11
94.0
 21
8.0
 31
0.0
  0
LINE
  5
44B8
  8
241
 10
101.0
 20
11.497092630102371
 30
0.0
 11
94.300000000000011
 21
11.497092630102371
 31
0.0
  0
LINE
  5
44B9
  8
241
 10
101.0
 20
9.9970926301023724
 30
0.0
 11
94.300000000000011
 21
9.9970926301023724
 31
0.0
  0
LINE
  5
44BA
  8
241
 10
101.0
 20
11.497092630102371
 30
0.0
 11
101.0
 21
9.9970926301023724
 31
0.0
  0
LINE
  5
44BB
  8
241
 10
101.0
 20
1.500000000000028
 30
0.0
 11
94.300000000000011
 21
1.500000000000028
 31
0.0
  0
LINE
  5
44BC
  8
241
 10
101.0
 20
-1.5
 30
0.0
 11
94.300000000000011
 21
-1.5
 31
0.0
  0
LINE
  5
44BD
  8
241
 10
101.0
 20
-1.5
 30
0.0
 11
101.0
 21
1.500000000000028
 31
0.0
  0
LINE
  5
44BE
  8
241
 10
101.0
 20
-9.9970926301023422
 30
0.0
 11
94.300000000000011
 21
-9.9970926301023724
 31
0.0
  0
LINE
  5
44BF
  8
241
 10
101.0
 20
-11.49709263010231
 30
0.0
 11
94.300000000000011
 21
-11.49709263010234
 31
0.0
  0
LINE
  5
44C0
  8
241
 10
101.0
 20
-11.49709263010231
 30
0.0
 11
101.0
 21
-9.9970926301023422
 31
0.0
  0
LINE
  5
44C1
  8
242
 10
91.5
 20
7.5
 30
0.0
 11
91.0
 21
8.0
 31
0.0
  0
LINE
  5
44C2
  8
242
 10
91.5
 20
-7.5
 30
0.0
 11
91.0
 21
-8.0
 31
0.0
  0
LINE
  5
44C3
  8
242
 10
94.0
 20
7.5
 30
0.0
 11
91.5
 21
7.5
 31
0.0
  0
LINE
  5
44C4
  8
242
 10
94.0
 20
-7.5
 30
0.0
 11
91.5
 21
-7.4999999999999707
 31
0.0
  0
LINE
  5
44C5
  8
243
 10
98.300000000000011
 20
-8.0
 30
0.0
 11
94.0
 21
-8.0
 31
0.0
  0
LINE
  5
44C6
  8
243
 10
99.0
 20
7.3000000000000114
 30
0.0
 11
98.300000000000011
 21
8.0
 31
0.0
  0
LINE
  5
44C7
  8
243
 10
98.300000000000011
 20
8.0
 30
0.0
 11
94.0
 21
8.0
 31
0.0
  0
LINE
  5
44C8
  8
243
 10
99.0
 20
-7.2999999999999821
 30
0.0
 11
98.300000000000011
 21
-8.0
 31
0.0
  0
LINE
  5
44C9
  8
246
 10
60.600000000000023
 20
4.5000000000000284
 30
0.0
 11
60.0
 21
3.9000000000000341
 31
0.0
  0
LINE
  5
44CA
  8
246
 10
58.0
 20
3.9000000000000341
 30
0.0
 11
60.0
 21
3.9000000000000341
 31
0.0
  0
ARC
  5
44CB
  8
246
 10
58.0
 20
2.9000000000000341
 30
0.0
 40
1.0
 50
90.0
 51
180.0
  0
LINE
  5
44CC
  8
246
 10
65.5
 20
2.0
 30
0.0
 11
65.5
 21
1.0299996948149319
 31
0.0
  0
LINE
  5
44CD
  8
246
 10
65.5
 20
2.0
 30
0.0
 11
65.821367205045874
 21
1.4433756729740701
 31
0.0
  0
LINE
  5
44CE
  8
246
 10
67.693375672974071
 20
1.4433756729740701
 30
0.0
 11
65.821367205045874
 21
1.4433756729740701
 31
0.0
  0
LINE
  5
44CF
  8
246
 10
67.693375672974071
 20
0.7216878364870354
 30
0.0
 11
65.821367205045874
 21
0.7216878364870354
 31
0.0
  0
LINE
  5
44D0
  8
246
 10
67.693375672974071
 20
1.4433756729740701
 30
0.0
 11
70.0
 21
3.75
 31
0.0
  0
LINE
  5
44D2
  8
246
 10
105.0
 20
4.0
 30
0.0
 11
87.0
 21
4.0
 31
0.0
  0
LINE
  5
44D3
  8
246
 10
101.40000000000001
 20
6.25
 30
0.0
 11
87.0
 21
4.7364990121742494
 31
0.0
  0
LINE
  5
44D4
  8
246
 10
101.40000000000001
 20
5.25
 30
0.0
 11
103.3
 21
5.25
 31
0.0
  0
LINE
  5
44D5
  8
246
 10
101.40000000000001
 20
5.25
 30
0.0
 11
101.40000000000001
 21
6.25
 31
0.0
  0
LINE
  5
44D6
  8
246
 10
103.3
 20
5.25
 30
0.0
 11
103.3
 21
6.25
 31
0.0
  0
LINE
  5
44D7
  8
246
 10
103.3
 20
6.25
 30
0.0
 11
103.40000000000001
 21
6.25
 31
0.0
  0
LINE
  5
44D8
  8
246
 10
105.0
 20
5.3262395692966029
 30
0.0
 11
103.40000000000001
 21
6.25
 31
0.0
  0
LINE
  5
44D9
  8
246
 10
60.600000000000023
 20
-4.5
 30
0.0
 11
60.0
 21
-3.8999999999999768
 31
0.0
  0
LINE
  5
44DA
  8
246
 10
58.0
 20
-3.8999999999999768
 30
0.0
 11
60.0
 21
-3.8999999999999768
 31
0.0
  0
LINE
  5
44DB
  8
246
 10
65.5
 20
-1.9999999999999429
 30
0.0
 11
65.5
 21
-1.0299996948148751
 31
0.0
  0
LINE
  5
44DC
  8
246
 10
65.5
 20
-1.9999999999999429
 30
0.0
 11
65.821367205045874
 21
-1.443375672974013
 31
0.0
  0
LINE
  5
44DD
  8
246
 10
67.693375672974071
 20
-1.443375672974013
 30
0.0
 11
65.821367205045874
 21
-1.443375672974013
 31
0.0
  0
LINE
  5
44DE
  8
246
 10
67.693375672974071
 20
-0.7216878364869787
 30
0.0
 11
65.821367205045874
 21
-0.7216878364869787
 31
0.0
  0
LINE
  5
44DF
  8
246
 10
67.693375672974071
 20
-1.443375672974013
 30
0.0
 11
70.0
 21
-3.7499999999999711
 31
0.0
  0
LINE
  5
44E1
  8
246
 10
105.0
 20
-4.0
 30
0.0
 11
87.0
 21
-4.0
 31
0.0
  0
LINE
  5
44E2
  8
246
 10
101.40000000000001
 20
-6.2499999999999432
 30
0.0
 11
87.0
 21
-4.7364990121742201
 31
0.0
  0
LINE
  5
44E3
  8
246
 10
101.40000000000001
 20
-5.25
 30
0.0
 11
103.3
 21
-5.25
 31
0.0
  0
LINE
  5
44E4
  8
246
 10
101.40000000000001
 20
-5.25
 30
0.0
 11
101.40000000000001
 21
-6.2499999999999432
 31
0.0
  0
LINE
  5
44E5
  8
246
 10
103.3
 20
-5.25
 30
0.0
 11
103.3
 21
-6.25
 31
0.0
  0
LINE
  5
44E6
  8
246
 10
103.3
 20
-6.25
 30
0.0
 11
103.40000000000001
 21
-6.25
 31
0.0
  0
LINE
  5
44E7
  8
246
 10
105.0
 20
-5.3262395692965754
 30
0.0
 11
103.40000000000001
 21
-6.25
 31
0.0
  0
LINE
  5
44E8
  8
246
 10
65.821367205045874
 20
1.4433756729740701
 30
0.0
 11
65.821367205045874
 21
-1.443375672974013
 31
0.0
  0
LINE
  5
44E9
  8
246
 10
67.693375672974071
 20
1.4433756729740701
 30
0.0
 11
67.693375672974071
 21
-1.443375672974013
 31
0.0
  0
LINE
  5
44EB
  8
246
 10
87.0
 20
4.7364990121742494
 30
0.0
 11
87.0
 21
-4.7364990121742201
 31
0.0
  0
LINE
  5
44EC
  8
246
 10
69.5
 20
-4.5
 30
0.0
 11
70.0
 21
-4.0
 31
0.0
  0
LINE
  5
44ED
  8
246
 10
70.0
 20
4.0
 30
0.0
 11
70.0
 21
-4.0
 31
0.0
  0
LINE
  5
44EE
  8
246
 10
70.0
 20
4.0
 30
0.0
 11
69.5
 21
4.5
 31
0.0
  0
LINE
  5
44EF
  8
246
 10
60.600000000000023
 20
-4.5
 30
0.0
 11
69.5
 21
-4.5
 31
0.0
  0
LINE
  5
44F0
  8
246
 10
57.0
 20
-2.8999999999999768
 30
0.0
 11
57.0
 21
2.9000000000000341
 31
0.0
  0
ARC
  5
44F1
  8
246
 10
58.0
 20
-2.8999999999999768
 30
0.0
 40
1.0
 50
180.0
 51
270.0
  0
LINE
  5
44F4
  8
246
 10
60.600000000000023
 20
4.5
 30
0.0
 11
69.5
 21
4.5
 31
0.0
  0
LINE
  5
44FD
  8
246
 10
57.0
 20
2.000000000000056
 30
0.0
 11
65.5
 21
2.0
 31
0.0
  0
LINE
  5
44FE
  8
246
 10
57.0
 20
-2.0
 30
0.0
 11
65.5
 21
-1.9999999999999429
 31
0.0
  0
LINE
  5
44FF
  8
243
 10
99.0
 20
7.3000000000000114
 30
0.0
 11
99.0
 21
5.9977498353623551
 31
0.0
  0
LINE
  5
4500
  8
243
 10
99.0
 20
-5.9977498353623551
 30
0.0
 11
99.0
 21
-7.2999999999999821
 31
0.0
  0
LINE
  5
4501
  8
244
 10
94.0
 20
7.5
 30
0.0
 11
98.800000000000026
 21
7.5
 31
0.0
  0
LINE
  5
4502
  8
244
 10
94.0
 20
-7.5
 30
0.0
 11
98.800000000000026
 21
-7.5
 31
0.0
  0
LINE
  5
4509
  8
246
 10
60.300000000000011
 20
-4.1999999999999877
 30
0.0
 11
69.799999999999955
 21
-4.1999999999999877
 31
0.0
  0
LINE
  5
450A
  8
246
 10
60.299999999999947
 20
4.2000000000000446
 30
0.0
 11
69.799999999999955
 21
4.2000000000000446
 31
0.0
  0
ARC
  5
450B
  8
240
 10
88.499999999999986
 20
-9.2500000000001137
 30
0.0
 40
1.0
 50
270.0
 51
0.0
  0
ARC
  5
450C
  8
240
 10
88.499999999999986
 20
9.2500000000001705
 30
0.0
 40
1.0
 50
0.0
 51
90.0
1001
GENIUS_GENODEF_13
1002
{
1000
HIER
1070
     0
1002
}
1002
{
1000
MANEDIT
1070
     0
1002
}
1002
{
1000
NOSEL
1070
     0
1002
}
1002
{
1000
BEHIND
1070
     0
1002
}
1002
{
1000
OTHER
1070
     0
1002
}
1002
{
1000
REACTOR
1002
}
1001
GENIUS_GENOBJ-N-FIL_13
1002
{
1000
OWNER
1000
GEN
1002
}
  0
LINE
  5
450D
  8
241
 10
88.499999999999986
 20
10.25000000000005
 30
0.0
 11
88.499999999999943
 21
7.309111528851985
 31
0.0
  0
LINE
  5
450E
  8
241
 10
88.499999999999943
 20
-7.1636681860907174
 30
0.0
 11
88.499999999999986
 21
-10.25000000000011
 31
0.0
  0
LINE
  5
450F
  8
240
 10
89.500000000000014
 20
9.2500000000001705
 30
0.0
 11
89.500000000000014
 21
8.9999999999998863
 31
0.0
  0
LINE
  5
4510
  8
240
 10
89.500000000000014
 20
-9.0
 30
0.0
 11
89.500000000000014
 21
-9.2500000000001137
 31
0.0
  0
LINE
  5
4538
  8
240
 10
26.0
 20
-26.29999999999999
 30
0.0
 11
33.000000000000028
 21
-26.299999999999951
 31
0.0
1001
GRPNAME
1000
PASTMD06
  0
LINE
  5
4539
  8
240
 10
34.000000000000028
 20
-23.0
 30
0.0
 11
34.000000000000028
 21
-25.299999999999962
 31
0.0
1001
GRPNAME
1000
PASTMD06
  0
ARC
  5
453A
  8
240
 10
33.000000000000028
 20
-25.299999999999962
 30
0.0
 40
1.0
 50
270.0
 51
0.0
1001
GRPNAME
1000
PASTMD06
1001
GENIUS_GENODEF_13
1002
{
1000
HIER
1070
     0
1002
}
1002
{
1000
MANEDIT
1070
     0
1002
}
1002
{
1000
NOSEL
1070
     0
1002
}
1002
{
1000
BEHIND
1070
     0
1002
}
1002
{
1000
OTHER
1070
     0
1002
}
1002
{
1000
REACTOR
1002
}
1001
GENIUS_GENOBJ-N-FIL_13
1002
{
1000
OWNER
1000
GEN
1002
}
  0
ARC
  5
453B
  8
240
 10
33.0
 20
25.299999999999962
 30
0.0
 40
1.0
 50
0.0
 51
90.0
1001
GRPNAME
1000
PASTMD06
1001
GENIUS_GENOBJ-N-FIL_13
1002
{
1000
OWNER
1000
GEN
1002
}
1001
GENIUS_GENODEF_13
1002
{
1000
HIER
1070
     0
1002
}
1002
{
1000
MANEDIT
1070
     0
1002
}
1002
{
1000
NOSEL
1070
     0
1002
}
1002
{
1000
BEHIND
1070
     0
1002
}
1002
{
1000
OTHER
1070
     0
1002
}
1002
{
1000
REACTOR
1002
}
  0
LINE
  5
453C
  8
240
 10
25.999999999999989
 20
26.299999999999951
 30
0.0
 11
33.0
 21
26.299999999999951
 31
0.0
1001
GRPNAME
1000
PASTMD06
  0
LINE
  5
454C
  8
241
 10
26.5
 20
7.5179999999999998
 30
0.0
 11
34.0
 21
7.5179999999999998
 31
0.0
1001
GRPNAME
1000
PASTMD06
  0
LINE
  5
454D
  8
241
 10
26.5
 20
25.704999999999991
 30
0.0
 11
26.5
 21
7.5179999999999998
 31
0.0
1001
GRPNAME
1000
PASTMD06
  0
LINE
  5
454E
  8
241
 10
26.5
 20
25.704999999999991
 30
0.0
 11
33.914316684743291
 21
25.704999999999991
 31
0.0
1001
GRPNAME
1000
PASTMD06
  0
LINE
  5
454F
  8
241
 10
26.0
 20
26.299999999999951
 30
0.0
 11
25.999999999999769
 21
-26.5
 31
0.0
1001
GRPNAME
1000
PASTMD06
  0
LINE
  5
4550
  8
242
 10
26.5
 20
25.704999999999991
 30
0.0
 11
34.0
 21
7.5179999999999998
 31
0.0
1001
GRPNAME
1000
PASTMD06
  0
LINE
  5
4551
  8
242
 10
26.5
 20
7.5179999999999998
 30
0.0
 11
33.962137927331703
 21
25.572563036360119
 31
0.0
1001
GRPNAME
1000
PASTMD06
  0
LINE
  5
4756
  8
241
 10
36.999999999999893
 20
-0.0000000000009095
 30
0.0
 11
36.999999999999893
 21
21.99999999999946
 31
0.0
1001
GRPNAME
1000
PASTMD03
  0
LINE
  5
4757
  8
240
 10
62.499999999994138
 20
10.249999999999289
 30
0.0
 11
62.249999999994152
 21
10.499999999999289
 31
0.0
  0
LINE
  5
4758
  8
240
 10
62.499999999994138
 20
10.249999999999289
 30
0.0
 11
82.999999999999943
 21
10.24999999999917
 31
0.0
  0
LINE
  5
4759
  8
240
 10
61.9999999999959
 20
-10.50000000000113
 30
0.0
 11
62.249999999994152
 21
-10.50000000000113
 31
0.0
  0
LINE
  5
475A
  8
240
 10
62.499999999994138
 20
-10.25000000000114
 30
0.0
 11
62.249999999994152
 21
-10.50000000000113
 31
0.0
  0
LINE
  5
475B
  8
240
 10
62.499999999994259
 20
-10.250000000000989
 30
0.0
 11
82.999999999999943
 21
-10.250000000000989
 31
0.0
  0
LINE
  5
475C
  8
241
 10
36.999999999999829
 20
-22.000000000001219
 30
0.0
 11
36.999999999999829
 21
-0.0000000000009379
 31
0.0
  0
LINE
  5
475D
  8
241
 10
62.499999999994259
 20
-10.25000000000102
 30
0.0
 11
62.499999999994259
 21
10.249999999999231
 31
0.0
  0
LINE
  5
475E
  8
240
 10
61.9999999999959
 20
10.499999999999289
 30
0.0
 11
62.249999999994152
 21
10.499999999999289
 31
0.0
  0
LINE
  5
475F
  8
241
 10
46.999999999999709
 20
-21.750000000000849
 30
0.0
 11
46.999999999999709
 21
-0.0000000000009379
 31
0.0
1001
GRPNAME
1000
PASTMD03
  0
LINE
  5
4760
  8
241
 10
46.999999999999709
 20
13.99999999999898
 30
0.0
 11
46.999999999999709
 21
21.74999999999898
 31
0.0
1001
GRPNAME
1000
PASTMD03
  0
LINE
  5
4761
  8
240
 10
47.249999999999723
 20
21.99999999999898
 30
0.0
 11
46.999999999999709
 21
21.74999999999898
 31
0.0
1001
GENIUS_GENFIL_13
1070
     0
1040
0.25
1040
0.25
1040
0.2500000000000284
1040
45.00000000000162
1002
{
1002
}
1001
GENIUS_GENODEF_13
1002
{
1000
HIER
1070
     0
1002
}
1002
{
1000
MANEDIT
1070
     0
1002
}
1002
{
1000
NOSEL
1070
     0
1002
}
1002
{
1000
BEHIND
1070
     0
1002
}
1002
{
1000
OTHER
1070
     0
1002
}
1002
{
1000
REACTOR
1002
}
1001
GENIUS_GENOBJ-N-CHA_13
1002
{
1000
OWNER
1000
GEN
1002
}
  0
LINE
  5
4762
  8
240
 10
47.249999999999723
 20
21.99999999999898
 30
0.0
 11
54.171572875249637
 21
21.999999999999091
 31
0.0
  0
LINE
  5
4763
  8
240
 10
61.999999999995957
 20
14.171572875252879
 30
0.0
 11
61.9999999999959
 21
10.499999999999289
 31
0.0
  0
LINE
  5
4764
  8
240
 10
61.9999999999959
 20
-10.50000000000113
 30
0.0
 11
61.999999999995957
 21
-14.171572875254689
 31
0.0
  0
LINE
  5
4765
  8
240
 10
47.249999999999822
 20
-22.000000000000909
 30
0.0
 11
46.999999999999829
 21
-21.750000000000909
 31
0.0
1001
GENIUS_GENFIL_13
1070
     0
1040
0.25
1040
0.25
1040
0.2500000000000284
1040
45.00000000000162
1002
{
1002
}
1001
GENIUS_GENODEF_13
1002
{
1000
HIER
1070
     0
1002
}
1002
{
1000
MANEDIT
1070
     0
1002
}
1002
{
1000
NOSEL
1070
     0
1002
}
1002
{
1000
BEHIND
1070
     0
1002
}
1002
{
1000
OTHER
1070
     0
1002
}
1002
{
1000
REACTOR
1002
}
1001
GENIUS_GENOBJ-N-CHA_13
1002
{
1000
OWNER
1000
GEN
1002
}
  0
LINE
  5
4766
  8
240
 10
55.585786437622737
 20
21.414213562372201
 30
0.0
 11
61.414213562369071
 21
15.58578643762598
 31
0.0
  0
ARC
  5
4767
  8
240
 10
54.171572875249751
 20
19.999999999999091
 30
0.0
 40
2.0
 50
45.000000000000057
 51
90.0
1001
GENIUS_GENODEF_13
1002
{
1000
HIER
1070
     0
1002
}
1002
{
1000
MANEDIT
1070
     0
1002
}
1002
{
1000
NOSEL
1070
     0
1002
}
1002
{
1000
BEHIND
1070
     0
1002
}
1002
{
1000
OTHER
1070
     0
1002
}
1002
{
1000
REACTOR
1002
}
1001
GENIUS_GENOBJ-N-FIL_13
1002
{
1000
OWNER
1000
GEN
1002
}
  0
ARC
  5
4768
  8
240
 10
59.999999999996078
 20
14.171572875252879
 30
0.0
 40
2.0
 50
359.99999999999352
 51
45.000000000000057
1001
GENIUS_GENODEF_13
1002
{
1000
HIER
1070
     0
1002
}
1002
{
1000
MANEDIT
1070
     0
1002
}
1002
{
1000
NOSEL
1070
     0
1002
}
1002
{
1000
BEHIND
1070
     0
1002
}
1002
{
1000
OTHER
1070
     0
1002
}
1002
{
1000
REACTOR
1002
}
1001
GENIUS_GENOBJ-N-FIL_13
1002
{
1000
OWNER
1000
GEN
1002
}
  0
LINE
  5
4769
  8
240
 10
47.249999999999943
 20
-22.000000000000799
 30
0.0
 11
54.171572875249858
 21
-22.000000000000909
 31
0.0
  0
LINE
  5
476A
  8
240
 10
55.585786437622971
 20
-21.41421356237402
 30
0.0
 11
61.414213562369177
 21
-15.585786437627799
 31
0.0
  0
ARC
  5
476B
  8
240
 10
54.171572875249858
 20
-20.000000000000909
 30
0.0
 40
2.0
 50
269.99999999999682
 51
314.99999999999989
1001
GENIUS_GENODEF_13
1002
{
1000
HIER
1070
     0
1002
}
1002
{
1000
MANEDIT
1070
     0
1002
}
1002
{
1000
NOSEL
1070
     0
1002
}
1002
{
1000
BEHIND
1070
     0
1002
}
1002
{
1000
OTHER
1070
     0
1002
}
1002
{
1000
REACTOR
1002
}
1001
GENIUS_GENOBJ-N-FIL_13
1002
{
1000
OWNER
1000
GEN
1002
}
  0
ARC
  5
476C
  8
240
 10
59.999999999996191
 20
-14.171572875254689
 30
0.0
 40
2.0
 50
314.99999999999989
 51
0.0
1001
GENIUS_GENODEF_13
1002
{
1000
HIER
1070
     0
1002
}
1002
{
1000
MANEDIT
1070
     0
1002
}
1002
{
1000
NOSEL
1070
     0
1002
}
1002
{
1000
BEHIND
1070
     0
1002
}
1002
{
1000
OTHER
1070
     0
1002
}
1002
{
1000
REACTOR
1002
}
1001
GENIUS_GENOBJ-N-FIL_13
1002
{
1000
OWNER
1000
GEN
1002
}
  0
LINE
  5
476D
  8
241
 10
54.999999999996078
 20
-21.82035944224981
 30
0.0
 11
54.999999999996078
 21
21.820359442247931
 31
0.0
  0
LINE
  5
476E
  8
241
 10
47.499999999999709
 20
-0.0000000000012506
 30
0.0
 11
50.499999999999723
 21
-0.0000000000012506
 31
0.0
  0
LINE
  5
476F
  8
241
 10
49.499999999999709
 20
-1.917426340449736
 30
0.0
 11
47.499999999999709
 21
-1.917426340449736
 31
0.0
  0
LINE
  5
4770
  8
241
 10
47.499999999999709
 20
-3.805722666353204
 30
0.0
 11
50.499999999999723
 21
-3.805722666353204
 31
0.0
  0
LINE
  5
4771
  8
241
 10
47.499999999999709
 20
-5.6940189922567859
 30
0.0
 11
49.499999999999709
 21
-5.6940189922567859
 31
0.0
  0
LINE
  5
4772
  8
241
 10
47.499999999999709
 20
-7.4958103752767613
 30
0.0
 11
50.499999999999723
 21
-7.4958103752767471
 31
0.0
  0
LINE
  5
4773
  8
241
 10
47.499999999999709
 20
-9.2976017582967359
 30
0.0
 11
49.499999999999709
 21
-9.2976017582967359
 31
0.0
  0
LINE
  5
4774
  8
241
 10
47.499999999999602
 20
-11.000000000001391
 30
0.0
 11
50.499999999999602
 21
-11.00000000000138
 31
0.0
  0
LINE
  5
4775
  8
241
 10
47.499999999999602
 20
-12.61868159972439
 30
0.0
 11
49.499999999999602
 21
-12.61868159972439
 31
0.0
  0
LINE
  5
4776
  8
241
 10
47.499999999999602
 20
-14.05650560968936
 30
0.0
 11
50.499999999999602
 21
-14.056505609689349
 31
0.0
  0
LINE
  5
4777
  8
241
 10
47.499999999999602
 20
-15.490147540139761
 30
0.0
 11
49.499999999999602
 21
-15.490147540139761
 31
0.0
  0
LINE
  5
4778
  8
241
 10
47.499999999999602
 20
-16.85297774861894
 30
0.0
 11
50.499999999999602
 21
-16.852977748618919
 31
0.0
  0
LINE
  5
4779
  8
241
 10
47.499999999999488
 20
-17.952768315939039
 30
0.0
 11
49.499999999999488
 21
-17.952768315939039
 31
0.0
  0
LINE
  5
477A
  8
241
 10
47.499999999999488
 20
-18.907833293107188
 30
0.0
 11
50.499999999999488
 21
-18.907833293107171
 31
0.0
  0
LINE
  5
477B
  8
241
 10
47.499999999999488
 20
-19.938771314807781
 30
0.0
 11
49.499999999999488
 21
-19.938771314807781
 31
0.0
  0
LINE
  5
477C
  8
241
 10
47.499999999999488
 20
-20.59456974658443
 30
0.0
 11
50.499999999999488
 21
-20.594569746584408
 31
0.0
  0
LINE
  5
477D
  8
241
 10
47.499999999999488
 20
-21.250368178361018
 30
0.0
 11
49.499999999999488
 21
-21.250368178361018
 31
0.0
  0
LINE
  5
477E
  8
241
 10
46.999999999999709
 20
-22.000000000000579
 30
0.0
 11
46.999999999999709
 21
-0.0000000000009379
 31
0.0
1001
GRPNAME
1000
PASTMD03
  0
LINE
  5
477F
  8
241
 10
46.999999999999709
 20
-0.0000000000009663
 30
0.0
 11
46.999999999999709
 21
21.999999999999261
 31
0.0
1001
GRPNAME
1000
PASTMD03
  0
ARC
  5
4780
  8
240
 10
46.499999999999709
 20
21.999999999999261
 30
0.0
 40
0.5
 50
0.0
 51
90.0
1001
GRPNAME
1000
PASTMD03
1001
GENIUS_GENOBJ-N-FIL_13
1002
{
1000
OWNER
1000
GEN
1002
}
1001
GENIUS_GENODEF_13
1002
{
1000
HIER
1070
     0
1002
}
1002
{
1000
MANEDIT
1070
     0
1002
}
1002
{
1000
NOSEL
1070
     0
1002
}
1002
{
1000
BEHIND
1070
     0
1002
}
1002
{
1000
OTHER
1070
     0
1002
}
1002
{
1000
REACTOR
1002
}
  0
ARC
  5
4781
  8
240
 10
46.499999999999709
 20
-22.000000000000579
 30
0.0
 40
0.5
 50
270.0
 51
0.0
1001
GRPNAME
1000
PASTMD03
1001
GENIUS_GENOBJ-N-FIL_13
1002
{
1000
OWNER
1000
GEN
1002
}
1001
GENIUS_GENODEF_13
1002
{
1000
HIER
1070
     0
1002
}
1002
{
1000
MANEDIT
1070
     0
1002
}
1002
{
1000
NOSEL
1070
     0
1002
}
1002
{
1000
BEHIND
1070
     0
1002
}
1002
{
1000
OTHER
1070
     0
1002
}
1002
{
1000
REACTOR
1002
}
  0
LINE
  5
4782
  8
240
 10
37.499999999999829
 20
-22.5000000000006
 30
0.0
 11
36.999999999999829
 21
-22.0000000000006
 31
0.0
1001
GENIUS_GENFIL_13
1070
     0
1040
0.4999999999999432
1040
0.4999999999998864
1040
0.4999999999999432
1040
44.999999999993477
1002
{
1002
}
1001
GRPNAME
1000
PASTMD03
1001
GENIUS_GENOREF_13
1005
0
  0
LINE
  5
4783
  8
240
 10
37.499999999999723
 20
22.49999999999935
 30
0.0
 11
46.499999999999709
 21
22.499999999999261
 31
0.0
  0
LINE
  5
4784
  8
240
 10
36.999999999999723
 20
21.99999999999935
 30
0.0
 11
37.499999999999723
 21
22.49999999999935
 31
0.0
1001
GENIUS_GENFIL_13
1070
     0
1040
0.5
1040
0.5
1040
0.2500000000000284
1040
45.00000000000162
1002
{
1002
}
1001
GENIUS_GENOBJ-N-CHA_13
1002
{
1000
OWNER
1000
GEN
1002
}
1001
GENIUS_GENODEF_13
1002
{
1000
HIER
1070
     0
1002
}
1002
{
1000
MANEDIT
1070
     0
1002
}
1002
{
1000
NOSEL
1070
     0
1002
}
1002
{
1000
BEHIND
1070
     0
1002
}
1002
{
1000
OTHER
1070
     0
1002
}
1002
{
1000
REACTOR
1002
}
  0
LINE
  5
4785
  8
240
 10
37.499999999999829
 20
-22.5000000000006
 30
0.0
 11
46.499999999999709
 21
-22.500000000000579
 31
0.0
  0
LINE
  5
4786
  8
241
 10
36.999999999999829
 20
-22.0000000000006
 30
0.0
 11
36.999999999999829
 21
-0.0000000000009379
 31
0.0
  0
LINE
  5
4787
  8
241
 10
36.999999999999829
 20
17.499999999999289
 30
0.0
 11
36.999999999999829
 21
21.9999999999994
 31
0.0
  0
LINE
  5
4788
  8
241
 10
46.999999999999709
 20
-3.0467541394109778
 30
0.0
 11
36.999999999999829
 21
-3.0467541394109778
 31
0.0
  0
LINE
  5
4789
  8
241
 10
46.999999999999709
 20
-8.5078150951339069
 30
0.0
 11
36.999999999999829
 21
-8.5078150951339069
 31
0.0
  0
LINE
  5
478A
  8
241
 10
46.999999999999709
 20
-13.784948062763499
 30
0.0
 11
36.999999999999829
 21
-13.784948062763499
 31
0.0
  0
LINE
  5
478B
  8
241
 10
46.999999999999709
 20
-17.782722145582561
 30
0.0
 11
36.999999999999829
 21
-17.782722145582561
 31
0.0
  0
LINE
  5
478C
  8
241
 10
46.999999999999709
 20
-20.82947628499252
 30
0.0
 11
36.999999999999829
 21
-20.82947628499252
 31
0.0
  0
POLYLINE
  5
478D
  8
241
 66
     1
 10
0.0
 20
0.0
 30
0.0
 70
     1
  0
VERTEX
  5
4C01
  8
241
 10
40.499999999999709
 20
18.221687836486321
 30
0.0
  0
VERTEX
  5
4C02
  8
241
 10
40.499999999999709
 20
16.778312163512279
 30
0.0
  0
VERTEX
  5
4C03
  8
241
 10
41.749999999999709
 20
16.056624327025251
 30
0.0
  0
VERTEX
  5
4C04
  8
241
 10
42.999999999999709
 20
16.778312163512279
 30
0.0
  0
VERTEX
  5
4C05
  8
241
 10
42.999999999999709
 20
18.22168783648635
 30
0.0
  0
VERTEX
  5
4C06
  8
241
 10
41.749999999999709
 20
18.94337567297336
 30
0.0
  0
SEQEND
  5
4C07
  8
241
  0
CIRCLE
  5
478E
  8
241
 10
41.749999999999709
 20
17.499999999999289
 30
0.0
 40
2.5
  0
ARC
  5
4790
  8
241
 10
41.749999999999709
 20
17.499999999999289
 30
0.0
 40
2.75
 50
180.0
 51
0.0
  0
LINE
  5
4791
  8
241
 10
38.999999999999723
 20
20.249999999999289
 30
0.0
 11
44.499999999999709
 21
20.249999999999289
 31
0.0
  0
LINE
  5
4792
  8
241
 10
38.999999999999723
 20
20.249999999999289
 30
0.0
 11
38.999999999999723
 21
17.499999999999289
 31
0.0
  0
LINE
  5
4793
  8
241
 10
44.499999999999709
 20
20.249999999999289
 30
0.0
 11
44.499999999999709
 21
17.499999999999289
 31
0.0
  0
LINE
  5
4794
  8
241
 10
61.999999999995957
 20
-10.50000000000113
 30
0.0
 11
61.999999999995957
 21
10.499999999999289
 31
0.0
  0
LINE
  5
4795
  8
241
 10
49.499999999999659
 20
1.9174263404478891
 30
0.0
 11
47.499999999999659
 21
1.9174263404478891
 31
0.0
  0
LINE
  5
4796
  8
241
 10
47.499999999999659
 20
3.805722666351357
 30
0.0
 11
50.499999999999659
 21
3.805722666351357
 31
0.0
  0
LINE
  5
4797
  8
241
 10
47.499999999999659
 20
5.6940189922549393
 30
0.0
 11
49.499999999999659
 21
5.6940189922549393
 31
0.0
  0
LINE
  5
4798
  8
241
 10
47.499999999999659
 20
7.495810375274913
 30
0.0
 11
50.499999999999659
 21
7.4958103752748988
 31
0.0
  0
LINE
  5
4799
  8
241
 10
47.499999999999659
 20
9.2976017582948884
 30
0.0
 11
49.499999999999659
 21
9.2976017582948884
 31
0.0
  0
LINE
  5
479A
  8
241
 10
47.499999999999538
 20
10.99999999999954
 30
0.0
 11
50.499999999999538
 21
10.99999999999951
 31
0.0
  0
LINE
  5
479B
  8
241
 10
47.499999999999538
 20
12.618681599722549
 30
0.0
 11
49.499999999999538
 21
12.618681599722549
 31
0.0
  0
LINE
  5
479C
  8
241
 10
47.499999999999538
 20
14.05650560968752
 30
0.0
 11
50.499999999999538
 21
14.056505609687489
 31
0.0
  0
LINE
  5
479D
  8
241
 10
47.499999999999538
 20
15.49014754013791
 30
0.0
 11
49.499999999999538
 21
15.49014754013791
 31
0.0
  0
LINE
  5
479E
  8
241
 10
47.499999999999538
 20
16.852977748617089
 30
0.0
 11
50.499999999999538
 21
16.852977748617061
 31
0.0
  0
LINE
  5
479F
  8
241
 10
47.499999999999488
 20
17.952768315937188
 30
0.0
 11
49.499999999999488
 21
17.952768315937188
 31
0.0
  0
LINE
  5
47A0
  8
241
 10
47.499999999999488
 20
18.907833293105341
 30
0.0
 11
50.499999999999488
 21
18.907833293105309
 31
0.0
  0
LINE
  5
47A1
  8
241
 10
47.499999999999488
 20
19.93877131480593
 30
0.0
 11
49.499999999999488
 21
19.93877131480593
 31
0.0
  0
LINE
  5
47A2
  8
241
 10
47.499999999999488
 20
20.594569746582579
 30
0.0
 11
50.499999999999488
 21
20.59456974658255
 31
0.0
  0
LINE
  5
47A3
  8
241
 10
47.499999999999488
 20
21.250368178359171
 30
0.0
 11
49.499999999999488
 21
21.250368178359171
 31
0.0
  0
LINE
  5
47A4
  8
241
 10
46.999999999999773
 20
3.0467541394090172
 30
0.0
 11
36.999999999999829
 21
3.0467541394090878
 31
0.0
  0
TEXT
  5
47F7
  8
241
 10
-32.0
 20
63.0
 30
0.0
 40
5.0
  1
HSK-A63-NBS8-105NRA
  7
YOKO
 11
-32.0
 21
63.0
 31
0.0
 73
     1
1001
GRPNAME
1000
PASTMD0I
  0
LINE
  5
47FA
  8
250
 10
-23.037048729999999
 20
-31.833453089999999
 30
0.0
 11
-47.303715400000002
 21
-31.833453089999999
 31
0.0
1001
ITEMNAME
1000
LNSP2
  0
LINE
  5
47FB
  8
240
 10
0.0
 20
-24.215
 30
0.0
 11
0.0
 21
-31.5
 31
0.0
1001
GRPNAME
1000
PASTMD0X
  0
LINE
  5
47FC
  8
241
 10
21.377499069999999
 20
-31.5
 30
0.0
 11
21.377499069999999
 21
0.0
 31
0.0
1001
GRPNAME
1000
PASTMD0X
  0
LINE
  5
47FD
  8
241
 10
14.622500929999999
 20
-31.5
 30
0.0
 11
14.622500929999999
 21
0.0
 31
0.0
1001
GRPNAME
1000
PASTMD0X
  0
LINE
  5
47FE
  8
241
 10
16.125
 20
-27.5
 30
0.0
 11
16.125
 21
0.0
 31
0.0
1001
GRPNAME
1000
PASTMD0X
  0
LINE
  5
47FF
  8
241
 10
19.875
 20
-27.5
 30
0.0
 11
19.875
 21
0.0
 31
0.0
1001
GRPNAME
1000
PASTMD0X
  0
LINE
  5
4800
  8
241
 10
26.0
 20
-25.000000000000021
 30
0.0
 11
26.0
 21
0.0
 31
0.0
1001
GRPNAME
1000
PASTMD0X
  0
LINE
  5
4801
  8
245
  6
CENTER2
 10
18.0
 20
-31.5
 30
0.0
 11
18.0
 21
31.5
 31
0.0
  0
LINE
  5
4802
  8
240
 10
14.622500929999999
 20
-31.5
 30
0.0
 11
0.0
 21
-31.5
 31
0.0
1001
GRPNAME
1000
PASTMD0X
  0
LINE
  5
4803
  8
243
 10
26.0
 20
-26.5
 30
0.0
 11
5.0
 21
-26.5
 31
0.0
1001
GRPNAME
1000
PASTMD0X
  0
LINE
  5
4804
  8
243
 10
5.0
 20
-31.5
 30
0.0
 11
5.0
 21
-26.5
 31
0.0
1001
GRPNAME
1000
PASTMD0X
  0
LINE
  5
4805
  8
240
 10
19.875
 20
-28.897595259999999
 30
0.0
 11
21.377499069999999
 21
-31.5
 31
0.0
1001
GRPNAME
1000
PASTMD0X
  0
LINE
  5
4806
  8
240
 10
16.125
 20
-28.897595259999999
 30
0.0
 11
14.622500929999999
 21
-31.5
 31
0.0
1001
GRPNAME
1000
PASTMD0X
  0
LINE
  5
4807
  8
240
 10
19.875
 20
-27.5
 30
0.0
 11
16.125
 21
-27.5
 31
0.0
1001
GRPNAME
1000
PASTMD0X
  0
LINE
  5
4808
  8
240
 10
16.125
 20
-27.5
 30
0.0
 11
16.125
 21
-28.897595259999999
 31
0.0
1001
GRPNAME
1000
PASTMD0X
  0
LINE
  5
4809
  8
240
 10
19.875
 20
-27.5
 30
0.0
 11
19.875
 21
-28.897595259999999
 31
0.0
1001
GRPNAME
1000
PASTMD0X
  0
LINE
  5
480A
  8
240
 10
26.0
 20
-31.5
 30
0.0
 11
26.0
 21
-26.29999999999999
 31
0.0
1001
GRPNAME
1000
PASTMD0X
  0
LINE
  5
480B
  8
240
 10
26.0
 20
-31.5
 30
0.0
 11
21.377499069999999
 21
-31.5
 31
0.0
1001
GRPNAME
1000
PASTMD0X
  0
LINE
  5
480C
  8
240
 10
14.622500929999999
 20
31.5
 30
0.0
 11
0.0
 21
31.5
 31
0.0
1001
GRPNAME
1000
PASTMD0X
  0
LINE
  5
480D
  8
243
 10
26.0
 20
26.5
 30
0.0
 11
5.0
 21
26.5
 31
0.0
1001
GRPNAME
1000
PASTMD0X
  0
LINE
  5
480E
  8
241
 10
16.125
 20
20.0
 30
0.0
 11
5.0
 21
20.0
 31
0.0
1001
GRPNAME
1000
PASTMD0X
  0
ARC
  5
480F
  8
241
 10
12.1117139
 20
16.336187049999999
 30
0.0
 40
8.0
 50
89.999999990000006
 51
152.74338068
1001
GRPNAME
1000
PASTMD0X
  0
LINE
  5
4810
  8
241
 10
0.0
 20
24.215
 30
0.0
 11
0.0
 21
0.0
 31
0.0
1001
GRPNAME
1000
PASTMD0X
  0
LINE
  5
4811
  8
241
 10
-2.0
 20
24.215
 30
0.0
 11
-2.0
 21
0.0
 31
0.0
1001
GRPNAME
1000
PASTMD0X
  0
LINE
  5
4812
  8
240
 10
-32.0
 20
21.573500939999999
 30
0.0
 11
-32.0
 21
0.0
 31
0.0
1001
GRPNAME
1000
PASTMD0X
  0
LINE
  5
4813
  8
240
 10
-2.0
 20
-24.215
 30
0.0
 11
-30.859925140000001
 21
-22.772003739999999
 31
0.0
1001
GRPNAME
1000
PASTMD0X
  0
LINE
  5
4814
  8
240
 10
-32.0
 20
-21.573500939999999
 30
0.0
 11
-32.0
 21
0.0
 31
0.0
1001
GRPNAME
1000
PASTMD0X
  0
ARC
  5
4815
  8
240
 10
-30.800000000000001
 20
-21.573500939999999
 30
0.0
 40
1.200000000000041
 50
180.00000007999989
 51
267.13759485000003
1001
GRPNAME
1000
PASTMD0X
  0
LINE
  5
4816
  8
241
 10
-2.0
 20
-24.215
 30
0.0
 11
-2.0
 21
0.0
 31
0.0
1001
GRPNAME
1000
PASTMD0X
  0
LINE
  5
4817
  8
241
 10
0.0
 20
-24.215
 30
0.0
 11
0.0
 21
0.0
 31
0.0
1001
GRPNAME
1000
PASTMD0X
  0
LINE
  5
4818
  8
240
 10
-2.0
 20
-24.215
 30
0.0
 11
0.0
 21
-24.215
 31
0.0
  0
LINE
  5
4819
  8
243
 10
-6.2449979999999998
 20
20.0
 30
0.0
 11
-16.917564429999999
 21
20.0
 31
0.0
1001
GRPNAME
1000
PASTMD0X
  0
LINE
  5
481A
  8
240
 10
-2.0
 20
24.215
 30
0.0
 11
-30.859925140000001
 21
22.772003739999999
 31
0.0
1001
GRPNAME
1000
PASTMD0X
  0
LINE
  5
481B
  8
243
 10
-26.0
 20
23.015000000000001
 30
0.0
 11
-26.0
 21
17.0
 31
0.0
1001
GRPNAME
1000
PASTMD0X
  0
ARC
  5
481C
  8
240
 10
-30.800000000000001
 20
21.573500939999999
 30
0.0
 40
1.1999999999999891
 50
92.862405229999979
 51
180.0
1001
GRPNAME
1000
PASTMD0X
  0
LINE
  5
481D
  8
243
 10
-18.996025400000001
 20
17.0
 30
0.0
 11
-32.0
 21
17.0
 31
0.0
1001
GRPNAME
1000
PASTMD0X
  0
LINE
  5
481E
  8
243
 10
-18.996025400000001
 20
17.0
 30
0.0
 11
-17.43717968
 21
19.699999999999999
 31
0.0
1001
GRPNAME
1000
PASTMD0X
  0
ARC
  5
481F
  8
243
 10
-16.917564429999999
 20
19.399999999999999
 30
0.0
 40
0.6000000000003638
 50
89.999999990000006
 51
149.99999998999999
1001
GRPNAME
1000
PASTMD0X
  0
LINE
  5
4820
  8
243
 10
-5.25
 20
24.052499999999998
 30
0.0
 11
-5.25
 21
20.0
 31
0.0
1001
GRPNAME
1000
PASTMD1W
  0
LINE
  5
4821
  8
243
 10
-12.75
 20
23.677499999999998
 30
0.0
 11
-12.75
 21
20.0
 31
0.0
1001
GRPNAME
1000
PASTMD1W
  0
ARC
  5
4822
  8
243
 10
-6.2449979999999998
 20
12.0
 30
0.0
 40
7.9999999999997771
 50
38.682187259999999
 51
89.999999810000006
1001
GRPNAME
1000
PASTMD0X
  0
LINE
  5
4823
  8
243
 10
5.0
 20
31.5
 30
0.0
 11
5.0
 21
26.5
 31
0.0
1001
GRPNAME
1000
PASTMD0X
  0
LINE
  5
4824
  8
240
 10
0.0
 20
31.5
 30
0.0
 11
0.0
 21
24.215
 31
0.0
1001
GRPNAME
1000
PASTMD0X
  0
LINE
  5
4825
  8
240
 10
-2.0
 20
24.215
 30
0.0
 11
0.0
 21
24.215
 31
0.0
  0
LINE
  5
4826
  8
241
 10
21.377499069999999
 20
20.0
 30
0.0
 11
21.377499069999999
 21
0.0
 31
0.0
1001
GRPNAME
1000
PASTMD0X
  0
LINE
  5
4827
  8
241
 10
14.622500929999999
 20
20.0
 30
0.0
 11
14.622500929999999
 21
0.0
 31
0.0
1001
GRPNAME
1000
PASTMD0X
  0
LINE
  5
4828
  8
241
 10
16.125
 20
27.5
 30
0.0
 11
16.125
 21
0.0
 31
0.0
1001
GRPNAME
1000
PASTMD0X
  0
LINE
  5
4829
  8
241
 10
19.875
 20
27.5
 30
0.0
 11
19.875
 21
0.0
 31
0.0
1001
GRPNAME
1000
PASTMD0X
  0
LINE
  5
482A
  8
241
 10
26.000000000000011
 20
24.72380165251359
 30
0.0
 11
26.0
 21
0.0
 31
0.0
1001
GRPNAME
1000
PASTMD0X
  0
LINE
  5
482B
  8
241
 10
21.377499069999999
 20
24.336187049999999
 30
0.0
 11
19.875
 21
20.858355929999998
 31
0.0
1001
GRPNAME
1000
PASTMD0X
  0
LINE
  5
482C
  8
241
 10
14.622500929999999
 20
24.336187049999999
 30
0.0
 11
16.125
 21
20.858355929999998
 31
0.0
1001
GRPNAME
1000
PASTMD0X
  0
LINE
  5
482D
  8
241
 10
26.0
 20
20.0
 30
0.0
 11
19.875
 21
20.0
 31
0.0
1001
GRPNAME
1000
PASTMD0X
  0
LINE
  5
482E
  8
240
 10
19.875
 20
28.897595259999999
 30
0.0
 11
21.377499069999999
 21
31.5
 31
0.0
1001
GRPNAME
1000
PASTMD0X
  0
LINE
  5
482F
  8
240
 10
16.125
 20
28.897595259999999
 30
0.0
 11
14.622500929999999
 21
31.5
 31
0.0
1001
GRPNAME
1000
PASTMD0X
  0
LINE
  5
4830
  8
241
 10
14.622500929999999
 20
31.5
 30
0.0
 11
14.622500929999999
 21
24.336187049999999
 31
0.0
1001
GRPNAME
1000
PASTMD0X
  0
LINE
  5
4831
  8
241
 10
14.622500929999999
 20
24.336187049999999
 30
0.0
 11
12.1117139
 21
24.336187049999999
 31
0.0
1001
GRPNAME
1000
PASTMD0X
  0
LINE
  5
4832
  8
240
 10
19.875
 20
27.5
 30
0.0
 11
16.125
 21
27.5
 31
0.0
1001
GRPNAME
1000
PASTMD0X
  0
LINE
  5
4833
  8
240
 10
16.125
 20
27.5
 30
0.0
 11
16.125
 21
28.897595259999999
 31
0.0
1001
GRPNAME
1000
PASTMD0X
  0
LINE
  5
4834
  8
240
 10
19.875
 20
27.5
 30
0.0
 11
19.875
 21
28.897595259999999
 31
0.0
1001
GRPNAME
1000
PASTMD0X
  0
ARC
  5
4835
  8
240
 10
25.5
 20
31.0
 30
0.0
 40
0.5
 50
0.0
 51
90.0
1001
GRPNAME
1000
PASTMD0X
  0
LINE
  5
4836
  8
241
 10
21.377499069999999
 20
31.5
 30
0.0
 11
21.377499069999999
 21
24.336187049999999
 31
0.0
1001
GRPNAME
1000
PASTMD0X
  0
LINE
  5
4837
  8
240
 10
26.0
 20
31.0
 30
0.0
 11
25.999999999999989
 21
26.299999999999951
 31
0.0
1001
GRPNAME
1000
PASTMD0X
  0
LINE
  5
4838
  8
241
 10
26.0
 20
24.336187049999999
 30
0.0
 11
21.377499069999999
 21
24.336187049999999
 31
0.0
1001
GRPNAME
1000
PASTMD0X
  0
LINE
  5
4839
  8
240
 10
25.5
 20
31.5
 30
0.0
 11
21.377499069999999
 21
31.5
 31
0.0
1001
GRPNAME
1000
PASTMD0X
  0
LINE
  5
48A7
  8
250
 10
-0.0000000000002273
 20
32.0
 30
0.0
 11
-0.0000000000002267
 21
43.0
 31
0.0
  0
LINE
  5
48A8
  8
250
 10
61.999999999995957
 20
14.671572875254659
 30
0.0
 11
61.999999999995957
 21
43.0
 31
0.0
  0
LINE
  5
48A9
  8
250
 10
2.2299999999997731
 20
42.0
 30
0.0
 11
59.769999999995967
 21
42.0
 31
0.0
  0
LINE
  5
48AD
  8
250
 10
61.999999999995957
 20
14.671572875254659
 30
0.0
 11
61.999999999995957
 21
43.0
 31
0.0
  0
LINE
  5
48AE
  8
250
 10
105.0
 20
12.09289321881346
 30
0.0
 11
105.0
 21
43.0
 31
0.0
  0
LINE
  5
48AF
  8
250
 10
64.229999999995954
 20
42.0
 30
0.0
 11
102.77
 21
42.0
 31
0.0
  0
LINE
  5
48B3
  8
250
 10
-0.0000000000002273
 20
31.49999999993279
 30
0.0
 11
-0.0000000000002262
 21
50.0
 31
0.0
  0
LINE
  5
48B4
  8
250
 10
105.0
 20
12.09289321881346
 30
0.0
 11
105.0
 21
50.0
 31
0.0
  0
LINE
  5
48B5
  8
250
 10
2.2299999999997731
 20
49.0
 30
0.0
 11
102.77
 21
49.0
 31
0.0
  0
LINE
  5
48B9
  8
250
 10
119.0
 20
-1.770000000000004
 30
0.0
 11
119.0
 21
1.7699999999999949
 31
0.0
  0
LINE
  5
48BA
  8
250
 10
119.0
 20
3.9999999999999951
 30
0.0
 11
119.0
 21
29.301941985239939
 31
0.0
  0
LINE
  5
48BE
  8
250
 10
104.55147186257599
 20
-12.50000000000011
 30
0.0
 11
127.0
 21
-12.500000000000121
 31
0.0
  0
LINE
  5
48BF
  8
250
 10
104.55147186257589
 20
12.500000000000229
 30
0.0
 11
127.0
 21
12.50000000000022
 31
0.0
  0
LINE
  5
48C0
  8
250
 10
126.0
 20
-10.27000000000012
 30
0.0
 11
126.0
 21
10.27000000000022
 31
0.0
  0
LINE
  5
48C4
  8
250
 10
70.0
 20
-4.25
 30
0.0
 11
70.0
 21
-36.0
 31
0.0
  0
LINE
  5
48C5
  8
250
 10
105.0
 20
-12.09289321881346
 30
0.0
 11
105.0
 21
-36.0
 31
0.0
  0
LINE
  5
48C6
  8
250
 10
72.230000000000004
 20
-35.0
 30
0.0
 11
102.77
 21
-35.0
 31
0.0
  0
TEXT
  5
48CA
  8
250
 10
-45.037048733333322
 20
-30.833453089999999
 30
0.0
 40
2.799999999999998
  1
HSK-A63
  7
YOKO
1001
ITEMNAME
1000
LNSP3
  0
TEXT
  5
48CD
  8
250
 10
28.266666666664531
 20
43.0
 30
0.0
 40
2.7999999999999989
  1
62
  0
LINE
  5
48CE
  8
250
 10
59.769999999995967
 20
42.371666666666663
 30
0.0
 11
61.999999999995957
 21
42.0
 31
0.0
  0
LINE
  5
48CF
  8
250
 10
59.769999999995967
 20
41.62833333333333
 30
0.0
 11
61.999999999995957
 21
42.0
 31
0.0
  0
LINE
  5
48D0
  8
250
 10
61.999999999995957
 20
42.0
 30
0.0
 11
59.769999999995967
 21
42.0
 31
0.0
  0
LINE
  5
48D1
  8
250
 10
2.2299999999997731
 20
41.62833333333333
 30
0.0
 11
-0.0000000000002267
 21
42.0
 31
0.0
  0
LINE
  5
48D2
  8
250
 10
2.2299999999997731
 20
42.371666666666663
 30
0.0
 11
-0.0000000000002267
 21
42.0
 31
0.0
  0
LINE
  5
48D3
  8
250
 10
-0.0000000000002267
 20
42.0
 30
0.0
 11
2.2299999999997731
 21
42.0
 31
0.0
  0
TEXT
  5
48D4
  8
250
 10
80.833333333331311
 20
43.0
 30
0.0
 40
2.7999999999999989
  1
43
  0
LINE
  5
48D5
  8
250
 10
102.77
 20
42.371666666666663
 30
0.0
 11
105.0
 21
42.0
 31
0.0
  0
LINE
  5
48D6
  8
250
 10
102.77
 20
41.62833333333333
 30
0.0
 11
105.0
 21
42.0
 31
0.0
  0
LINE
  5
48D7
  8
250
 10
105.0
 20
42.0
 30
0.0
 11
102.77
 21
42.0
 31
0.0
  0
LINE
  5
48D8
  8
250
 10
64.229999999995954
 20
41.62833333333333
 30
0.0
 11
61.999999999995957
 21
42.0
 31
0.0
  0
LINE
  5
48D9
  8
250
 10
64.229999999995954
 20
42.371666666666663
 30
0.0
 11
61.999999999995957
 21
42.0
 31
0.0
  0
LINE
  5
48DA
  8
250
 10
61.999999999995957
 20
42.0
 30
0.0
 11
64.229999999995954
 21
42.0
 31
0.0
  0
TEXT
  5
48DB
  8
250
 10
48.299999999999891
 20
50.0
 30
0.0
 40
2.7999999999999989
  1
105
  0
LINE
  5
48DC
  8
250
 10
102.77
 20
49.37166666666667
 30
0.0
 11
105.0
 21
49.0
 31
0.0
  0
LINE
  5
48DD
  8
250
 10
102.77
 20
48.62833333333333
 30
0.0
 11
105.0
 21
49.0
 31
0.0
  0
LINE
  5
48DE
  8
250
 10
105.0
 20
49.0
 30
0.0
 11
102.77
 21
49.0
 31
0.0
  0
LINE
  5
48DF
  8
250
 10
2.2299999999997731
 20
48.62833333333333
 30
0.0
 11
-0.0000000000002263
 21
49.0
 31
0.0
  0
LINE
  5
48E0
  8
250
 10
2.2299999999997731
 20
49.37166666666667
 30
0.0
 11
-0.0000000000002263
 21
49.0
 31
0.0
  0
LINE
  5
48E1
  8
250
 10
-0.0000000000002263
 20
49.0
 30
0.0
 11
2.2299999999997731
 21
49.0
 31
0.0
  0
TEXT
  5
48E2
  8
250
 10
118.0
 20
12.873370556668529
 30
0.0
 40
3.0
  1
MAX.\U+22058
 50
90.0
  0
LINE
  5
48E3
  8
250
 10
118.6283333333333
 20
1.7699999999999949
 30
0.0
 11
119.0
 21
3.9999999999999951
 31
0.0
  0
LINE
  5
48E4
  8
250
 10
119.3716666666666
 20
1.7699999999999949
 30
0.0
 11
119.0
 21
3.9999999999999951
 31
0.0
  0
LINE
  5
48E5
  8
250
 10
119.0
 20
3.9999999999999951
 30
0.0
 11
119.0
 21
1.7699999999999949
 31
0.0
  0
LINE
  5
48E6
  8
250
 10
119.3716666666666
 20
-1.770000000000004
 30
0.0
 11
119.0
 21
-4.0000000000000044
 31
0.0
  0
LINE
  5
48E7
  8
250
 10
118.6283333333333
 20
-1.770000000000004
 30
0.0
 11
119.0
 21
-4.0000000000000044
 31
0.0
  0
LINE
  5
48E8
  8
250
 10
119.0
 20
-4.0000000000000044
 30
0.0
 11
119.0
 21
-1.770000000000004
 31
0.0
  0
TEXT
  5
48E9
  8
250
 10
125.0
 20
-4.2142857142856434
 30
0.0
 40
3.0
  1
\U+220525
 50
90.0
  0
LINE
  5
48EA
  8
250
 10
125.6283333333333
 20
10.27000000000022
 30
0.0
 11
126.0
 21
12.50000000000022
 31
0.0
  0
LINE
  5
48EB
  8
250
 10
126.3716666666667
 20
10.27000000000022
 30
0.0
 11
126.0
 21
12.50000000000022
 31
0.0
  0
LINE
  5
48EC
  8
250
 10
126.0
 20
12.50000000000022
 30
0.0
 11
126.0
 21
10.27000000000022
 31
0.0
  0
LINE
  5
48ED
  8
250
 10
126.3716666666667
 20
-10.27000000000012
 30
0.0
 11
126.0
 21
-12.500000000000121
 31
0.0
  0
LINE
  5
48EE
  8
250
 10
125.6283333333333
 20
-10.27000000000012
 30
0.0
 11
126.0
 21
-12.500000000000121
 31
0.0
  0
LINE
  5
48EF
  8
250
 10
126.0
 20
-12.500000000000121
 30
0.0
 11
126.0
 21
-10.27000000000012
 31
0.0
  0
TEXT
  5
48F0
  8
250
 10
79.98571428571428
 20
-34.0
 30
0.0
 40
3.0
  1
26ü`42
  0
LINE
  5
48F1
  8
250
 10
102.77
 20
-34.62833333333333
 30
0.0
 11
105.0
 21
-35.0
 31
0.0
  0
LINE
  5
48F2
  8
250
 10
102.77
 20
-35.37166666666667
 30
0.0
 11
105.0
 21
-35.0
 31
0.0
  0
LINE
  5
48F3
  8
250
 10
105.0
 20
-35.0
 30
0.0
 11
102.77
 21
-35.0
 31
0.0
  0
LINE
  5
48F4
  8
250
 10
72.230000000000004
 20
-35.37166666666667
 30
0.0
 11
70.0
 21
-35.0
 31
0.0
  0
LINE
  5
48F5
  8
250
 10
72.230000000000004
 20
-34.62833333333333
 30
0.0
 11
70.0
 21
-35.0
 31
0.0
  0
LINE
  5
48F6
  8
250
 10
70.0
 20
-35.0
 30
0.0
 11
72.230000000000004
 21
-35.0
 31
0.0
  0
LINE
  5
48F7
  8
250
 10
-19.286696129993778
 20
-25.337651840442891
 30
0.0
 11
-23.037048729999999
 21
-31.833453089999999
 31
0.0
1001
ACAD
1000
DSTYLE
1002
{
1070
     6
1000
OPEN
1070
   343
1005
594
1002
}
  0
LINE
  5
48F8
  8
250
 10
-19.608568905067589
 20
-25.15181850711059
 30
0.0
 11
-18.171696130000001
 21
-23.406415190000001
 31
0.0
  0
LINE
  5
48F9
  8
250
 10
-18.964823354919972
 20
-25.523485173775189
 30
0.0
 11
-18.171696130000001
 21
-23.406415190000001
 31
0.0
  0
LINE
  5
48FA
  8
250
 10
-18.171696130000001
 20
-23.406415190000001
 30
0.0
 11
-19.286696129993778
 21
-25.337651840442891
 31
0.0
  0
VIEWPORT
  5
22
 67
     1
  8
0
 10
261.51769911504419
 20
148.5
 30
0.0
 40
523.0353982300885
 41
297.0
 68
     1
 69
     1
1001
ACAD
1000
MVIEW
1002
{
1070
    16
1010
0.0
1020
0.0
1030
0.0
1010
0.0
1020
0.0
1030
1.0
1040
0.0
1040
297.0
1040
261.51769911504419
1040
148.5
1040
50.0
1040
0.0
1040
0.0
1070
     0
1070
   100
1070
     1
1070
     1
1070
     0
1070
     0
1070
     0
1070
     0
1040
0.0
1040
0.0
1040
0.0
1040
1.0
1040
1.0
1040
10.0
1040
10.0
1070
     0
1002
{
1002
}
1002
}
1001
GENIUS_GENODEF_13
1002
{
1000
HIER
1070
     0
1002
}
1002
{
1000
MANEDIT
1070
     0
1002
}
1002
{
1000
NOSEL
1070
     0
1002
}
1002
{
1000
BEHIND
1070
     0
1002
}
1002
{
1000
OTHER
1070
     0
1002
}
1002
{
1000
REACTOR
1002
}
1001
GENIUS_GENOBJ-N-SDF_13
1002
{
1000
OWNER
1000
GEN
1002
}
1001
GENIUS_GENSCREG_15
1000
PF
1040
1.0
1000
DF
1040
1.0
1000
MIN
1011
0.0
1021
0.0
1031
0.0
1021
0.0
1031
0.0
1000
MAX
1011
523.0353982300885
1021
0.0
1031
0.0
1021
297.0
1031
0.0
1000
FLAGS
1070
     4
  0
ENDSEC
  0
EOF
