  0
SECTION
  2
HEADER
  9
$ACADVER
  1
AC1009
  9
$INSBASE
 10
0.0
 20
0.0
 30
0.0
  9
$EXTMIN
 10
-47.303715400000002
 20
-49.999999999999943
 30
0.0
  9
$EXTMAX
 10
159.6329724424393
 20
82.000000000000014
 30
0.0
  9
$LIMMIN
 10
0.0
 20
0.0
  9
$LIMMAX
 10
297.0
 20
210.0
  9
$ORTHOMODE
 70
     0
  9
$REGENMODE
 70
     1
  9
$FILLMODE
 70
     1
  9
$QTEXTMODE
 70
     0
  9
$MIRRTEXT
 70
     1
  9
$DRAGMODE
 70
     2
  9
$LTSCALE
 40
10.0
  9
$OSMODE
 70
    63
  9
$ATTMODE
 70
     1
  9
$TEXTSIZE
 40
3.0
  9
$TRACEWID
 40
1.0
  9
$TEXTSTYLE
  7
YOKO
  9
$CLAYER
  8
240
  9
$CELTYPE
  6
BYLAYER
  9
$CECOLOR
 62
   256
  9
$DIMSCALE
 40
1.0
  9
$DIMASZ
 40
2.2299999999999991
  9
$DIMEXO
 40
0.5
  9
$DIMDLI
 40
7.0
  9
$DIMRND
 40
0.0
  9
$DIMDLE
 40
0.0
  9
$DIMEXE
 40
1.0
  9
$DIMTP
 40
0.0
  9
$DIMTM
 40
0.01
  9
$DIMTXT
 40
2.7999999999999989
  9
$DIMCEN
 40
0.0
  9
$DIMTSZ
 40
0.0
  9
$DIMTOL
 70
     0
  9
$DIMLIM
 70
     0
  9
$DIMTIH
 70
     0
  9
$DIMTOH
 70
     0
  9
$DIMSE1
 70
     0
  9
$DIMSE2
 70
     0
  9
$DIMTAD
 70
     3
  9
$DIMZIN
 70
     9
  9
$DIMBLK
  1
OPEN
  9
$DIMASO
 70
     1
  9
$DIMSHO
 70
     1
  9
$DIMPOST
  1

  9
$DIMAPOST
  1

  9
$DIMALT
 70
     0
  9
$DIMALTD
 70
     2
  9
$DIMALTF
 40
25.399999999999999
  9
$DIMLFAC
 40
1.0
  9
$DIMTOFL
 70
     1
  9
$DIMTVP
 40
0.0
  9
$DIMTIX
 70
     1
  9
$DIMSOXD
 70
     0
  9
$DIMSAH
 70
     0
  9
$DIMBLK1
  1

  9
$DIMBLK2
  1

  9
$DIMSTYLE
  2
BIGT
  9
$DIMCLRD
 70
   256
  9
$DIMCLRE
 70
   256
  9
$DIMCLRT
 70
    40
  9
$DIMTFAC
 40
1.0
  9
$DIMGAP
 40
1.0
  9
$LUNITS
 70
     2
  9
$LUPREC
 70
     6
  9
$SKETCHINC
 40
1.0
  9
$FILLETRAD
 40
0.0
  9
$AUNITS
 70
     0
  9
$AUPREC
 70
     6
  9
$MENU
  1
.
  9
$ELEVATION
 40
0.0
  9
$PELEVATION
 40
0.0
  9
$THICKNESS
 40
0.0
  9
$LIMCHECK
 70
     0
  9
$BLIPMODE
 70
     0
  9
$CHAMFERA
 40
0.2
  9
$CHAMFERB
 40
0.2
  9
$SKPOLY
 70
     0
  9
$TDCREATE
 40
2457241.8247723612
  9
$TDUPDATE
 40
2457242.385327755
  9
$TDINDWG
 40
0.0071010417
  9
$TDUSRTIMER
 40
0.0071010069
  9
$USRTIMER
 70
     1
  9
$ANGBASE
 50
0.0
  9
$ANGDIR
 70
     0
  9
$PDMODE
 70
     1
  9
$PDSIZE
 40
0.0
  9
$PLINEWID
 40
0.0
  9
$COORDS
 70
     1
  9
$SPLFRAME
 70
     0
  9
$SPLINETYPE
 70
     6
  9
$SPLINESEGS
 70
     4
  9
$ATTDIA
 70
     1
  9
$ATTREQ
 70
     1
  9
$HANDLING
 70
     1
  9
$HANDSEED
  5
4E56
  9
$SURFTAB1
 70
     6
  9
$SURFTAB2
 70
     6
  9
$SURFTYPE
 70
     6
  9
$SURFU
 70
     6
  9
$SURFV
 70
     6
  9
$UCSNAME
  2

  9
$UCSORG
 10
0.0
 20
0.0
 30
0.0
  9
$UCSXDIR
 10
1.0
 20
0.0
 30
0.0
  9
$UCSYDIR
 10
0.0
 20
1.0
 30
0.0
  9
$PUCSNAME
  2

  9
$PUCSORG
 10
0.0
 20
0.0
 30
0.0
  9
$PUCSXDIR
 10
1.0
 20
0.0
 30
0.0
  9
$PUCSYDIR
 10
0.0
 20
1.0
 30
0.0
  9
$USERI1
 70
     1
  9
$USERI2
 70
     0
  9
$USERI3
 70
     0
  9
$USERI4
 70
     0
  9
$USERI5
 70
     0
  9
$USERR1
 40
0.0
  9
$USERR2
 40
0.0
  9
$USERR3
 40
0.0
  9
$USERR4
 40
0.0
  9
$USERR5
 40
0.0
  9
$WORLDVIEW
 70
     1
  9
$SHADEDGE
 70
     3
  9
$SHADEDIF
 70
    70
  9
$TILEMODE
 70
     1
  9
$MAXACTVP
 70
    16
  9
$PLIMCHECK
 70
     0
  9
$PEXTMIN
 10
1.0000000000000000E+020
 20
1.0000000000000000E+020
 30
1.0000000000000000E+020
  9
$PEXTMAX
 10
-1.0000000000000000E+020
 20
-1.0000000000000000E+020
 30
-1.0000000000000000E+020
  9
$PLIMMIN
 10
0.0
 20
0.0
  9
$PLIMMAX
 10
420.0
 20
297.0
  9
$UNITMODE
 70
     0
  9
$VISRETAIN
 70
     1
  9
$PLINEGEN
 70
     0
  9
$PSLTSCALE
 70
     1
  0
ENDSEC
  0
SECTION
  2
TABLES
  0
TABLE
  2
VPORT
 70
     1
  0
VPORT
  2
*ACTIVE
 70
     0
 10
0.0
 20
0.0
 11
1.0
 21
1.0
 12
56.163345920927043
 22
15.999298481037041
 13
0.0
 23
0.0
 14
7.0
 24
7.0
 15
7.0
 25
7.0
 16
0.0
 26
0.0
 36
1.0
 17
0.0
 27
0.0
 37
0.0
 40
144.8650510748765
 41
1.4355016538037479
 42
50.0
 43
0.0
 44
0.0
 50
0.0
 51
0.0
 71
     0
 72
  2000
 73
     1
 74
     0
 75
     0
 76
     1
 77
     0
 78
     0
  0
ENDTAB
  0
TABLE
  2
LTYPE
 70
    13
  0
LTYPE
  2
CONTINUOUS
 70
     0
  3
Solid line
 72
    65
 73
     0
 40
0.0
  0
LTYPE
  2
CENTER2
 70
     0
  3
___ _ ___ _ ___ _ ___ _ ___ _ ___ _ ___ _ ___ _
 72
    65
 73
     4
 40
1.125
 49
0.75
 49
-0.125
 49
0.125
 49
-0.125
  0
LTYPE
  2
HIDDEN2
 70
     0
  3
_ _ _ _ _ _ _ _ _ _ _ _ _ _ _ _ _ _ _ _ _ _ _ _
 72
    65
 73
     2
 40
0.1875
 49
0.125
 49
-0.0625
  0
LTYPE
  2
PHANTOM2
 70
     0
  3
___ _ _ ___ _ _ ___ _ _ ___ _ _ ___ _ _ ___ _ _
 72
    65
 73
     6
 40
1.25
 49
0.625
 49
-0.125
 49
0.125
 49
-0.125
 49
0.125
 49
-0.125
  0
LTYPE
  2
AM_ISO02W050
 70
     0
  3
__ __ __ __ __ __ __ __ __ __ __ __ __ __ __
 72
    65
 73
     2
 40
7.5
 49
6.0
 49
-1.5
  0
LTYPE
  2
AMCONSTR
 70
     0
  3
_______________________
 72
    65
 73
     2
 40
9999.0
 49
9999.0
 49
0.0
  0
LTYPE
  2
ACISOWELD
 70
     0
  3
_ _ _ _ _
 72
    65
 73
     2
 40
2.0
 49
2.0
 49
-1.0
  0
LTYPE
  2
ACISOTGB
 70
     0
  3
__ . . __ . .
 72
    65
 73
     6
 40
9.0
 49
4.0
 49
-1.0
 49
1.0
 49
-1.0
 49
1.0
 49
-1.0
  0
LTYPE
  2
ACISOTGL
 70
     0
  3
_ _ _ _ _
 72
    65
 73
     2
 40
3.0
 49
2.0
 49
-1.0
  0
LTYPE
  2
ACJISTGB
 70
     0
  3
__ . . __ . .
 72
    65
 73
     6
 40
9.0
 49
4.0
 49
-1.0
 49
1.0
 49
-1.0
 49
1.0
 49
-1.0
  0
LTYPE
  2
ACJISTGL
 70
     0
  3
_ _ _ _ _
 72
    65
 73
     2
 40
3.0
 49
2.0
 49
-1.0
  0
ENDTAB
  0
TABLE
  2
LAYER
 70
    10
  0
LAYER
  2
0
 70
     0
 62
     7
  6
CONTINUOUS
  0
LAYER
  2
DEFPOINTS
 70
     0
 62
     7
  6
CONTINUOUS
  0
LAYER
  2
245
 70
     0
 62
     2
  6
CENTER2
  0
LAYER
  2
240
 70
     0
 62
     4
  6
CONTINUOUS
  0
LAYER
  2
241
 70
     0
 62
   211
  6
CONTINUOUS
  0
LAYER
  2
242
 70
     0
 62
     3
  6
CONTINUOUS
  0
LAYER
  2
243
 70
     0
 62
   211
  6
HIDDEN2
  0
LAYER
  2
244
 70
     0
 62
     3
  6
HIDDEN2
  0
LAYER
  2
246
 70
     0
 62
     3
  6
PHANTOM2
  0
LAYER
  2
250
 70
     0
 62
     3
  6
CONTINUOUS
  0
ENDTAB
  0
TABLE
  2
STYLE
 70
     6
  0
STYLE
  2
STANDARD
 70
     0
 40
0.0
 41
1.0
 50
0.0
 71
     0
 42
3.0
  3
romans.shx
  4
extfont.shx
  0
STYLE
  2
ACISOTS
 70
     0
 40
1.0
 41
1.0
 50
0.0
 71
     0
 42
3.0
  3
amgdt.shx
  4
extfont.shx
  0
STYLE
  2
ACISOGDT
 70
     0
 40
0.0
 41
1.0
 50
0.0
 71
     0
 42
3.0
  3
amgdt.shx
  4
extfont.shx
  0
STYLE
  2
ACJISTS
 70
     0
 40
1.0
 41
1.0
 50
0.0
 71
     0
 42
3.0
  3
amgdt.shx
  4
extfont.shx
  0
STYLE
  2
ACJISGDT
 70
     0
 40
0.0
 41
1.0
 50
0.0
 71
     0
 42
3.0
  3
amgdt.shx
  4
extfont.shx
  0
STYLE
  2
YOKO
 70
     0
 40
0.0
 41
1.0
 50
0.0
 71
     0
 42
3.0
  3
romans.shx
  4
extfont.shx
  0
ENDTAB
  0
TABLE
  2
VIEW
 70
     0
  0
ENDTAB
  0
TABLE
  2
UCS
 70
     0
  0
ENDTAB
  0
TABLE
  2
APPID
 70
    35
  0
APPID
  2
ACAD
 70
     0
  0
APPID
  2
GLOBAL
 70
     0
  0
APPID
  2
DETAIL
 70
     0
  0
APPID
  2
GRPNAME
 70
     0
  0
APPID
  2
GPARA
 70
     0
  0
APPID
  2
MCAD_NO_VIS
 70
     0
  0
APPID
  2
ACAD_TEMP_GRAPHIC
 70
     0
  0
APPID
  2
ACATTRIBSERVICES
 70
     0
  0
APPID
  2
GENIUS_GENSCREG_15
 70
     0
  0
APPID
  2
GENIUS_GENODEF_13
 70
     0
  0
APPID
  2
GENIUS_GENOBJ-N-SDF_13
 70
     0
  0
APPID
  2
GENIUS_GENREC_14
 70
     0
  0
APPID
  2
GENIUS_GENOBJ-N-REC_13
 70
     0
  0
APPID
  2
GENIUS_GENDIMSH_14
 70
     0
  0
APPID
  2
GENIUS_GENOBJ-N-DIM_13
 70
     0
  0
APPID
  2
GENIUS_GENDIM_13
 70
     0
  0
APPID
  2
GENIUS_GENDTOL_13
 70
     0
  0
APPID
  2
GENIUS_GENOLIS_13
 70
     0
  0
APPID
  2
GENIUS_GENOENT_13
 70
     0
  0
APPID
  2
GENIUS_GENOBJ-F-FEM_13
 70
     0
  0
APPID
  2
GENIUS_GENOREF_13
 70
     0
  0
APPID
  2
GENIUS_GEFFEM_13
 70
     0
  0
APPID
  2
GENIUS_GEFFEMP_13
 70
     0
  0
APPID
  2
AD_DRAW
 70
     0
  0
APPID
  2
DESIGNERASSEMBLIES
 70
     0
  0
APPID
  2
ACADM_DIM_EDIT
 70
     0
  0
APPID
  2
AMDT_DM_ADJ
 70
     0
  0
APPID
  2
ITEMNAME
 70
     0
  0
APPID
  2
GENIUS_GENOBJ-N-FIL_13
 70
     0
  0
APPID
  2
GENIUS_GENFIL_13
 70
     0
  0
APPID
  2
GENIUS_GENOBJ-N-CHA_13
 70
     0
  0
APPID
  2
ACAD_NAV_VCDISPLAY
 70
     0
  0
APPID
  2
ACAD_DSTYLE_DIMINSPECT
 70
     0
  0
APPID
  2
ACAD_EXEMPT_FROM_CAD_STANDARDS
 70
     0
  0
APPID
  2
ACAD_MLEADERVER
 70
     0
  0
ENDTAB
  0
TABLE
  2
DIMSTYLE
 70
    23
  0
DIMSTYLE
  2
BIGT
 70
     0
  3

  4

  5
OPEN
  6

  7

 40
1.0
 41
2.2299999999999991
 42
0.5
 43
7.0
 44
1.0
 45
0.0
 46
0.0
 47
0.0
 48
0.01
140
2.7999999999999989
141
0.0
142
0.0
143
25.399999999999999
144
1.0
145
0.0
146
1.0
147
1.0
 71
     0
 72
     0
 73
     0
 74
     0
 75
     0
 76
     0
 77
     3
 78
     9
170
     0
171
     2
172
     1
173
     0
174
     1
175
     0
176
   256
177
   256
178
    40
  0
DIMSTYLE
  2
AM_ISO
 70
     0
  3

  4
"
  5

  6

  7

 40
1.0
 41
2.5
 42
1.0
 43
10.0
 44
1.0
 45
0.0
 46
0.0
 47
0.1
 48
0.1
140
3.5
141
0.0
142
0.0
143
0.0393701
144
1.0
145
0.0
146
0.71
147
1.5
 71
     0
 72
     0
 73
     0
 74
     0
 75
     0
 76
     0
 77
     1
 78
     8
170
     0
171
     2
172
     1
173
     0
174
     0
175
     0
176
   256
177
   256
178
     2
  0
DIMSTYLE
  2
AM_ISO$3
 70
     0
  3

  4
"
  5

  6

  7

 40
1.0
 41
2.5
 42
1.0
 43
10.0
 44
1.0
 45
0.0
 46
0.0
 47
0.1
 48
0.1
140
3.5
141
0.0
142
0.0
143
0.0393701
144
1.0
145
0.0
146
0.71
147
1.5
 71
     0
 72
     0
 73
     0
 74
     1
 75
     0
 76
     0
 77
     1
 78
     8
170
     0
171
     2
172
     0
173
     0
174
     0
175
     0
176
   256
177
   256
178
     2
  0
DIMSTYLE
  2
AM_ISO$4
 70
     0
  3

  4
"
  5

  6

  7

 40
1.0
 41
2.5
 42
1.0
 43
10.0
 44
1.0
 45
0.0
 46
0.0
 47
0.1
 48
0.1
140
3.5
141
0.0
142
0.0
143
0.0393701
144
1.0
145
0.0
146
0.71
147
1.5
 71
     0
 72
     0
 73
     0
 74
     1
 75
     0
 76
     0
 77
     1
 78
     8
170
     0
171
     2
172
     0
173
     0
174
     0
175
     0
176
   256
177
   256
178
     2
  0
DIMSTYLE
  2
AM_ISO$6
 70
     0
  3

  4
"
  5

  6

  7

 40
1.0
 41
2.5
 42
1.0
 43
10.0
 44
1.0
 45
0.0
 46
0.0
 47
0.1
 48
0.1
140
3.5
141
0.0
142
0.0
143
0.0393701
144
1.0
145
0.0
146
0.71
147
1.5
 71
     0
 72
     0
 73
     0
 74
     0
 75
     0
 76
     0
 77
     0
 78
     8
170
     0
171
     2
172
     1
173
     0
174
     0
175
     0
176
   256
177
   256
178
     2
  0
DIMSTYLE
  2
AM_ISO$7
 70
     0
  3

  4
"
  5

  6

  7

 40
1.0
 41
2.5
 42
1.0
 43
10.0
 44
1.0
 45
0.0
 46
0.0
 47
0.1
 48
0.1
140
5.0
141
0.0
142
0.0
143
0.0393701
144
1.0
145
0.0
146
0.71
147
1.5
 71
     0
 72
     0
 73
     0
 74
     0
 75
     0
 76
     0
 77
     1
 78
     8
170
     0
171
     2
172
     1
173
     0
174
     0
175
     0
176
   256
177
   256
178
     2
  0
DIMSTYLE
  2
AM_ISO$SF
 70
     0
  3

  4
"
  5

  6

  7

 40
1.0
 41
2.5
 42
1.0
 43
10.0
 44
1.0
 45
0.0
 46
0.0
 47
0.1
 48
0.1
140
3.5
141
0.0
142
0.0
143
0.0393701
144
1.0
145
0.0
146
0.71
147
1.5
 71
     0
 72
     0
 73
     0
 74
     0
 75
     1
 76
     1
 77
     1
 78
     8
170
     0
171
     2
172
     1
173
     0
174
     0
175
     0
176
   256
177
   256
178
     2
  0
DIMSTYLE
  2
AM_ISO$SH
 70
     0
  3

  4
"
  5

  6
GENAXEH
  7

 40
1.0
 41
2.5
 42
1.0
 43
10.0
 44
1.0
 45
0.0
 46
0.0
 47
0.1
 48
0.1
140
3.5
141
0.0
142
0.0
143
0.0393701
144
2.0
145
0.0
146
0.71
147
1.5
 71
     0
 72
     0
 73
     0
 74
     0
 75
     1
 76
     1
 77
     1
 78
     8
170
     0
171
     2
172
     1
173
     1
174
     0
175
     0
176
   256
177
   256
178
     2
  0
DIMSTYLE
  2
BIGT$2
 70
     0
  3

  4

  5
OPEN
  6

  7

 40
1.0
 41
2.2299999999999991
 42
0.5
 43
7.0
 44
1.0
 45
0.0
 46
0.0
 47
0.0
 48
0.01
140
2.7999999999999989
141
0.0
142
0.0
143
25.399999999999999
144
1.0
145
0.0
146
1.0
147
1.0
 71
     0
 72
     0
 73
     0
 74
     0
 75
     0
 76
     0
 77
     3
 78
     9
170
     0
171
     2
172
     1
173
     0
174
     0
175
     0
176
   256
177
   256
178
    40
  0
DIMSTYLE
  2
BIGT$3
 70
     0
  3

  4

  5
OPEN
  6

  7

 40
1.0
 41
2.2299999999999991
 42
0.5
 43
2.5
 44
1.0
 45
0.0
 46
0.0
 47
0.0
 48
0.01
140
2.7999999999999989
141
0.0
142
0.0
143
25.399999999999999
144
1.0
145
0.0
146
1.0
147
1.0
 71
     0
 72
     0
 73
     0
 74
     0
 75
     0
 76
     0
 77
     3
 78
     9
170
     0
171
     2
172
     1
173
     0
174
     0
175
     0
176
   256
177
   256
178
    40
  0
DIMSTYLE
  2
BIGT$7
 70
     0
  3

  4

  5
OPEN
  6

  7

 40
0.0
 41
2.2299999999999991
 42
0.5
 43
7.0
 44
1.0
 45
0.0
 46
0.0
 47
0.0
 48
0.01
140
2.7999999999999989
141
0.0
142
0.0
143
25.399999999999999
144
1.0
145
0.0
146
1.0
147
1.0
 71
     0
 72
     0
 73
     0
 74
     0
 75
     0
 76
     0
 77
     3
 78
     9
170
     0
171
     2
172
     0
173
     0
174
     0
175
     0
176
   256
177
   256
178
    40
  0
DIMSTYLE
  2
BIGT$6
 70
     0
  3

  4

  5
OPEN
  6

  7

 40
1.0
 41
2.2299999999999991
 42
0.5
 43
2.5
 44
1.0
 45
0.0
 46
0.0
 47
0.0
 48
0.01
140
2.7999999999999989
141
0.0
142
0.0
143
25.399999999999999
144
1.0
145
0.0
146
1.0
147
1.0
 71
     0
 72
     0
 73
     0
 74
     0
 75
     0
 76
     0
 77
     3
 78
     9
170
     0
171
     2
172
     1
173
     0
174
     0
175
     0
176
   256
177
   256
178
    40
  0
DIMSTYLE
  2
BIGT$0
 70
     0
  3

  4

  5
OPEN
  6

  7

 40
1.0
 41
2.2299999999999991
 42
0.5
 43
7.0
 44
1.0
 45
0.0
 46
0.0
 47
0.0
 48
0.01
140
2.7999999999999989
141
0.0
142
0.0
143
25.399999999999999
144
1.0
145
0.0
146
1.0
147
1.0
 71
     0
 72
     0
 73
     0
 74
     0
 75
     0
 76
     0
 77
     3
 78
     9
170
     0
171
     2
172
     1
173
     0
174
     1
175
     0
176
   256
177
   256
178
    40
  0
DIMSTYLE
  2
BIGT$4
 70
     0
  3

  4

  5
OPEN
  6

  7

 40
1.0
 41
2.2299999999999991
 42
0.5
 43
2.5
 44
1.0
 45
0.0
 46
0.0
 47
0.0
 48
0.01
140
2.7999999999999989
141
0.0
142
0.0
143
25.399999999999999
144
1.0
145
0.0
146
1.0
147
1.0
 71
     0
 72
     0
 73
     0
 74
     0
 75
     0
 76
     0
 77
     3
 78
     9
170
     0
171
     2
172
     1
173
     0
174
     0
175
     0
176
   256
177
   256
178
    40
  0
DIMSTYLE
  2
BIGT$SH
 70
     0
  3

  4

  5
OPEN
  6

  7

 40
1.0
 41
2.2299999999999991
 42
0.5
 43
7.0
 44
1.0
 45
0.0
 46
0.0
 47
0.0
 48
0.0
140
2.7999999999999989
141
0.0
142
0.0
143
25.399999999999999
144
1.0
145
0.0
146
1.0
147
1.0
 71
     0
 72
     0
 73
     0
 74
     0
 75
     0
 76
     0
 77
     3
 78
     9
170
     0
171
     2
172
     1
173
     0
174
     0
175
     0
176
   256
177
   256
178
    40
  0
DIMSTYLE
  2
BIGT$SF
 70
     0
  3

  4

  5
OPEN
  6

  7

 40
1.0
 41
2.2299999999999991
 42
0.5
 43
7.0
 44
1.0
 45
0.0
 46
0.0
 47
0.0
 48
0.0
140
2.7999999999999989
141
0.0
142
0.0
143
25.399999999999999
144
1.0
145
0.0
146
1.0
147
1.0
 71
     0
 72
     0
 73
     0
 74
     0
 75
     0
 76
     0
 77
     3
 78
     9
170
     0
171
     2
172
     1
173
     0
174
     0
175
     0
176
   256
177
   256
178
    40
  0
DIMSTYLE
  2
TECHNICAL_OSAKA
 70
     0
  3

  4
"
  5
OPEN30
  6

  7

 40
1.0
 41
2.5
 42
1.0
 43
10.0
 44
1.0
 45
0.0
 46
0.0
 47
0.1
 48
0.1
140
2.7999999999999989
141
0.0
142
0.0
143
0.0393701
144
1.0
145
0.0
146
0.71
147
1.5
 71
     0
 72
     0
 73
     0
 74
     0
 75
     0
 76
     0
 77
     3
 78
     8
170
     0
171
     2
172
     1
173
     0
174
     0
175
     0
176
   256
177
   256
178
    40
  0
DIMSTYLE
  2
TECHNICAL_OSAKA$3
 70
     0
  3

  4
"
  5
OPEN30
  6

  7

 40
1.0
 41
2.5
 42
1.0
 43
10.0
 44
1.0
 45
0.0
 46
0.0
 47
0.1
 48
0.1
140
2.7999999999999989
141
0.0
142
0.0
143
0.0393701
144
1.0
145
0.0
146
0.71
147
1.5
 71
     0
 72
     0
 73
     0
 74
     1
 75
     0
 76
     0
 77
     3
 78
     8
170
     0
171
     2
172
     0
173
     0
174
     0
175
     0
176
   256
177
   256
178
    40
  0
DIMSTYLE
  2
TECHNICAL_OSAKA$4
 70
     0
  3

  4
"
  5
OPEN30
  6

  7

 40
1.0
 41
2.5
 42
1.0
 43
10.0
 44
1.0
 45
0.0
 46
0.0
 47
0.1
 48
0.1
140
2.7999999999999989
141
0.0
142
0.0
143
0.0393701
144
1.0
145
0.0
146
0.71
147
1.5
 71
     0
 72
     0
 73
     0
 74
     1
 75
     0
 76
     0
 77
     3
 78
     8
170
     0
171
     2
172
     0
173
     0
174
     0
175
     0
176
   256
177
   256
178
    40
  0
DIMSTYLE
  2
TECHNICAL_OSAKA$6
 70
     0
  3

  4
"
  5
OPEN30
  6

  7

 40
1.0
 41
2.5
 42
1.0
 43
10.0
 44
1.0
 45
0.0
 46
0.0
 47
0.1
 48
0.1
140
2.7999999999999989
141
0.0
142
0.0
143
0.0393701
144
1.0
145
0.0
146
0.71
147
1.5
 71
     0
 72
     0
 73
     0
 74
     0
 75
     0
 76
     0
 77
     0
 78
     8
170
     0
171
     2
172
     1
173
     0
174
     0
175
     0
176
   256
177
   256
178
    40
  0
DIMSTYLE
  2
TECHNICAL_OSAKA$7
 70
     0
  3

  4
"
  5
OPEN30
  6

  7

 40
1.0
 41
2.5
 42
1.0
 43
10.0
 44
1.0
 45
0.0
 46
0.0
 47
0.1
 48
0.1
140
2.7999999999999989
141
0.0
142
0.0
143
0.0393701
144
1.0
145
0.0
146
0.71
147
1.5
 71
     0
 72
     0
 73
     0
 74
     0
 75
     0
 76
     0
 77
     3
 78
     8
170
     0
171
     2
172
     1
173
     0
174
     0
175
     0
176
   256
177
   256
178
    40
  0
DIMSTYLE
  2
TECHNICAL_OSAKA$SF
 70
     0
  3

  4
"
  5
OPEN30
  6
OPEN30
  7
OPEN30
 40
1.0
 41
2.5
 42
1.0
 43
10.0
 44
1.0
 45
0.0
 46
0.0
 47
0.1
 48
0.1
140
3.5
141
0.0
142
0.0
143
0.0393701
144
1.0
145
0.0
146
0.71
147
1.5
 71
     0
 72
     0
 73
     0
 74
     0
 75
     1
 76
     1
 77
     3
 78
     8
170
     0
171
     2
172
     1
173
     0
174
     0
175
     0
176
   256
177
   256
178
    40
  0
DIMSTYLE
  2
TECHNICAL_OSAKA$SH
 70
     0
  3

  4
"
  5
OPEN30
  6
GENAXEH
  7
OPEN30
 40
1.0
 41
2.5
 42
1.0
 43
10.0
 44
1.0
 45
0.0
 46
0.0
 47
0.1
 48
0.1
140
3.5
141
0.0
142
0.0
143
0.0393701
144
2.0
145
0.0
146
0.71
147
1.5
 71
     0
 72
     0
 73
     0
 74
     0
 75
     1
 76
     1
 77
     3
 78
     8
170
     0
171
     2
172
     1
173
     1
174
     0
175
     0
176
   256
177
   256
178
    40
  0
ENDTAB
  0
ENDSEC
  0
SECTION
  2
BLOCKS
  0
BLOCK
  8
0
  2
$MODEL_SPACE
 70
     0
 10
0.0
 20
0.0
 30
0.0
  3
$MODEL_SPACE
  1

  0
ENDBLK
  5
1C
  8
0
  0
BLOCK
 67
     1
  8
0
  2
$PAPER_SPACE
 70
     0
 10
0.0
 20
0.0
 30
0.0
  3
$PAPER_SPACE
  1

  0
ENDBLK
  5
19
 67
     1
  8
0
  0
BLOCK
  8
0
  2
_OPEN
 70
     0
 10
0.0
 20
0.0
 30
0.0
  3
_OPEN
  1

  0
LINE
  5
4D69
  8
0
  6
BYBLOCK
 62
     0
 10
-1.0
 20
0.1666666666666666
 30
0.0
 11
0.0
 21
0.0
 31
0.0
  0
LINE
  5
4D6A
  8
0
  6
BYBLOCK
 62
     0
 10
-1.0
 20
-0.1666666666666666
 30
0.0
 11
0.0
 21
0.0
 31
0.0
  0
LINE
  5
4D6B
  8
0
  6
BYBLOCK
 62
     0
 10
0.0
 20
0.0
 30
0.0
 11
-1.0
 21
0.0
 31
0.0
  0
ENDBLK
  5
4D6C
  8
0
  0
BLOCK
  8
0
  2
GENAXEH
 70
     0
 10
0.0
 20
0.0
 30
0.0
  3
GENAXEH
  1

  0
LINE
  5
4DA4
  8
0
 10
-1.0
 20
0.0
 30
0.0
 11
1.0
 21
0.0
 31
0.0
  0
ENDBLK
  5
4DA5
  8
0
  0
BLOCK
  8
0
  2
_OPEN30
 70
     0
 10
0.0
 20
0.0
 30
0.0
  3
_OPEN30
  1

  0
LINE
  5
4DE0
  8
0
  6
BYBLOCK
 62
     0
 10
-1.0
 20
0.26794919
 30
0.0
 11
0.0
 21
0.0
 31
0.0
  0
LINE
  5
4DE1
  8
0
  6
BYBLOCK
 62
     0
 10
0.0
 20
0.0
 30
0.0
 11
-1.0
 21
-0.26794919
 31
0.0
  0
LINE
  5
4DE2
  8
0
  6
BYBLOCK
 62
     0
 10
0.0
 20
0.0
 30
0.0
 11
-1.0
 21
0.0
 31
0.0
  0
ENDBLK
  5
4DE3
  8
0
  0
ENDSEC
  0
SECTION
  2
ENTITIES
  0
LINE
  5
443A
  8
241
 10
57.000000000000057
 20
-34.249999999999822
 30
0.0
 11
56.999999999999943
 21
34.25
 31
0.0
  0
LINE
  5
443E
  8
240
 10
42.288675134594648
 20
26.800000000000011
 30
0.0
 11
46.156921938165198
 21
33.5
 31
0.0
  0
ARC
  5
443F
  8
240
 10
41.422649730810122
 20
27.300000000000129
 30
0.0
 40
1.0
 50
270.0
 51
329.99999999999659
1001
GENIUS_GENODEF_13
1002
{
1000
HIER
1070
     0
1002
}
1002
{
1000
MANEDIT
1070
     0
1002
}
1002
{
1000
NOSEL
1070
     0
1002
}
1002
{
1000
BEHIND
1070
     0
1002
}
1002
{
1000
OTHER
1070
     0
1002
}
1002
{
1000
REACTOR
1002
}
1001
GENIUS_GENOBJ-N-FIL_13
1002
{
1000
OWNER
1000
GEN
1002
}
  0
LINE
  5
4440
  8
240
 10
42.288675134594428
 20
-26.800000000000239
 30
0.0
 11
46.1569219381648
 21
-33.5
 31
0.0
  0
ARC
  5
4441
  8
240
 10
41.422649730809887
 20
-27.300000000000349
 30
0.0
 40
1.0
 50
30.000000000003372
 51
90.0
1001
GENIUS_GENOREF_13
1005
0
1001
GENIUS_GENODEF_13
1002
{
1000
HIER
1070
     0
1002
}
1002
{
1000
MANEDIT
1070
     0
1002
}
1002
{
1000
NOSEL
1070
     0
1002
}
1002
{
1000
BEHIND
1070
     0
1002
}
1002
{
1000
OTHER
1070
     0
1002
}
1002
{
1000
REACTOR
1002
}
1001
GENIUS_GENOBJ-N-FIL_13
1002
{
1000
OWNER
1000
GEN
1002
}
  0
LINE
  5
4442
  8
241
 10
46.734272207354138
 20
34.132993161854976
 30
0.0
 11
46.734272207354138
 21
-34.132993161855403
 31
0.0
  0
LINE
  5
4443
  8
241
 10
41.999999999999851
 20
-26.483503419072861
 30
0.0
 11
41.999999999999829
 21
0.0000000000000568
 31
0.0
  0
LINE
  5
4444
  8
245
 10
-35.0
 20
0.0
 30
0.0
 11
72.184093588565247
 21
0.0
 31
0.0
  0
LINE
  5
4445
  8
245
 10
78.375828056332693
 20
0.0
 30
0.0
 11
145.6949036969022
 21
0.0
 31
0.0
  0
LINE
  5
4446
  8
240
 10
47.888972745733668
 20
-34.5
 30
0.0
 11
56.749999999999893
 21
-34.5
 31
0.0
  0
LINE
  5
4447
  8
240
 10
47.888972745734073
 20
34.5
 30
0.0
 11
56.749999999999893
 21
34.5
 31
0.0
  0
ARC
  5
4448
  8
240
 10
47.888972745733597
 20
-32.500000000000099
 30
0.0
 40
2.0
 50
209.99999999999829
 51
270.0
1001
GENIUS_GENOBJ-N-FIL_13
1002
{
1000
OWNER
1000
GEN
1002
}
1001
GENIUS_GENODEF_13
1002
{
1000
HIER
1070
     0
1002
}
1002
{
1000
MANEDIT
1070
     0
1002
}
1002
{
1000
NOSEL
1070
     0
1002
}
1002
{
1000
BEHIND
1070
     0
1002
}
1002
{
1000
OTHER
1070
     0
1002
}
1002
{
1000
REACTOR
1002
}
  0
LINE
  5
4449
  8
240
 10
56.749999999999893
 20
-34.5
 30
0.0
 11
56.999999999999879
 21
-34.25
 31
0.0
1001
GENIUS_GENFIL_13
1070
     0
1040
0.25
1040
0.25
1040
0.5
1040
44.999999999996739
1002
{
1002
}
1001
GENIUS_GENOBJ-N-CHA_13
1002
{
1000
OWNER
1000
GEN
1002
}
1001
GENIUS_GENODEF_13
1002
{
1000
HIER
1070
     0
1002
}
1002
{
1000
MANEDIT
1070
     0
1002
}
1002
{
1000
NOSEL
1070
     0
1002
}
1002
{
1000
BEHIND
1070
     0
1002
}
1002
{
1000
OTHER
1070
     0
1002
}
1002
{
1000
REACTOR
1002
}
  0
ARC
  5
444A
  8
240
 10
47.888972745734073
 20
32.5
 30
0.0
 40
2.0
 50
90.0
 51
150.00000000000031
1001
GENIUS_GENODEF_13
1002
{
1000
HIER
1070
     0
1002
}
1002
{
1000
MANEDIT
1070
     0
1002
}
1002
{
1000
NOSEL
1070
     0
1002
}
1002
{
1000
BEHIND
1070
     0
1002
}
1002
{
1000
OTHER
1070
     0
1002
}
1002
{
1000
REACTOR
1002
}
1001
GENIUS_GENOBJ-N-FIL_13
1002
{
1000
OWNER
1000
GEN
1002
}
  0
LINE
  5
444B
  8
240
 10
56.749999999999893
 20
34.5
 30
0.0
 11
56.999999999999879
 21
34.25
 31
0.0
1001
GENIUS_GENFIL_13
1070
     0
1040
0.25
1040
0.25
1040
0.5
1040
44.999999999996739
1002
{
1002
}
1001
GENIUS_GENOBJ-N-CHA_13
1002
{
1000
OWNER
1000
GEN
1002
}
1001
GENIUS_GENODEF_13
1002
{
1000
HIER
1070
     0
1002
}
1002
{
1000
MANEDIT
1070
     0
1002
}
1002
{
1000
NOSEL
1070
     0
1002
}
1002
{
1000
BEHIND
1070
     0
1002
}
1002
{
1000
OTHER
1070
     0
1002
}
1002
{
1000
REACTOR
1002
}
  0
LINE
  5
4474
  8
240
 10
26.0
 20
26.29999999999999
 30
0.0
 11
41.422649730810093
 21
26.29999999999999
 31
0.0
1001
GRPNAME
1000
PASTMD06
  0
LINE
  5
4475
  8
240
 10
26.0
 20
-26.29999999999999
 30
0.0
 11
41.422649730809887
 21
-26.29999999999999
 31
0.0
1001
GRPNAME
1000
PASTMD06
  0
LINE
  5
448B
  8
241
 10
26.5
 20
24.86991090062509
 30
0.0
 11
26.5
 21
10.437170179253339
 31
0.0
1001
GRPNAME
1000
PASTMD06
  0
LINE
  5
448C
  8
241
 10
26.5
 20
10.437170179253339
 30
0.0
 11
41.483124503702072
 21
10.437170179253339
 31
0.0
1001
GRPNAME
1000
PASTMD06
  0
LINE
  5
448D
  8
241
 10
26.5
 20
24.86991090062509
 30
0.0
 11
41.5
 21
24.86991090062509
 31
0.0
1001
GRPNAME
1000
PASTMD06
  0
LINE
  5
448E
  8
241
 10
41.5
 20
10.437170179253339
 30
0.0
 11
41.5
 21
24.86991090062509
 31
0.0
  0
LINE
  5
448F
  8
241
 10
41.999999999999972
 20
26.483503419072552
 30
0.0
 11
42.0
 21
-20.0
 31
0.0
1001
GRPNAME
1000
PASTMD06
  0
LINE
  5
4490
  8
242
 10
26.5
 20
10.437170179253339
 30
0.0
 11
41.5
 21
24.86991090062509
 31
0.0
1001
GRPNAME
1000
PASTMD06
  0
LINE
  5
4491
  8
242
 10
26.5
 20
24.86991090062509
 30
0.0
 11
41.483124503702072
 21
10.437170179253339
 31
0.0
1001
GRPNAME
1000
PASTMD06
  0
LINE
  5
458B
  8
241
 10
68.499999999999773
 20
0.0000000000005116
 30
0.0
 11
71.499999999999773
 21
0.0000000000005684
 31
0.0
  0
LINE
  5
458C
  8
246
 10
68.499999999999773
 20
-3.0068731247932301
 30
0.0
 11
70.499999999999773
 21
-3.0068731247932301
 31
0.0
  0
LINE
  5
458D
  8
241
 10
68.499999999999829
 20
-5.9908621295080593
 30
0.0
 11
71.499999999999829
 21
-5.9908621295080593
 31
0.0
  0
LINE
  5
458E
  8
241
 10
68.499999999999886
 20
-8.9292570560359632
 30
0.0
 11
70.499999999999886
 21
-8.9292570560359632
 31
0.0
  0
LINE
  5
458F
  8
241
 10
68.499999999999886
 20
-11.79969494473454
 30
0.0
 11
71.499999999999886
 21
-11.79969494473454
 31
0.0
  0
LINE
  5
4590
  8
241
 10
68.499999999999943
 20
-14.58033003005306
 30
0.0
 11
70.499999999999943
 21
-14.58033003005306
 31
0.0
  0
LINE
  5
4591
  8
241
 10
68.499999999999943
 20
-17.24999999999886
 30
0.0
 11
71.499999999999943
 21
-17.24999999999886
 31
0.0
  0
LINE
  5
4592
  8
241
 10
68.5
 20
-19.78838705410999
 30
0.0
 11
70.5
 21
-19.78838705410999
 31
0.0
  0
LINE
  5
4593
  8
241
 10
68.5
 20
-22.176172534184499
 30
0.0
 11
71.5
 21
-22.176172534184499
 31
0.0
  0
LINE
  5
4594
  8
241
 10
68.500000000000057
 20
-24.395183950934719
 30
0.0
 11
70.500000000000057
 21
-24.395183950934719
 31
0.0
  0
LINE
  5
4595
  8
241
 10
68.500000000000057
 20
-26.42853328760356
 30
0.0
 11
71.500000000000057
 21
-26.42853328760356
 31
0.0
  0
LINE
  5
4596
  8
241
 10
68.500000000000114
 20
-28.26074552796905
 30
0.0
 11
70.500000000000114
 21
-28.26074552796905
 31
0.0
  0
LINE
  5
4597
  8
241
 10
68.500000000000114
 20
-29.764182090366148
 30
0.0
 11
71.500000000000114
 21
-29.764182090366148
 31
0.0
  0
LINE
  5
4598
  8
241
 10
68.500000000000114
 20
-31.26761865276325
 30
0.0
 11
70.500000000000114
 21
-31.26761865276325
 31
0.0
  0
LINE
  5
4599
  8
241
 10
68.500000000000171
 20
-32.419395417112639
 30
0.0
 11
71.500000000000114
 21
-32.419395417112639
 31
0.0
  0
LINE
  5
459A
  8
241
 10
68.500000000000171
 20
-33.324441006971711
 30
0.0
 11
70.500000000000171
 21
-33.324441006971711
 31
0.0
  0
LINE
  5
459B
  8
241
 10
68.500000000000171
 20
-33.846579045567921
 30
0.0
 11
71.500000000000171
 21
-33.846579045567921
 31
0.0
  0
LINE
  5
459C
  8
240
 10
84.671572875254355
 20
34.500000000000291
 30
0.0
 11
68.250000000000227
 21
34.500000000000291
 31
0.0
  0
ARC
  5
459D
  8
240
 10
88.500000000000625
 20
28.671572875254071
 30
0.0
 40
2.0
 50
0.0
 51
45.0
1001
GENIUS_GENODEF_13
1002
{
1000
HIER
1070
     0
1002
}
1002
{
1000
MANEDIT
1070
     0
1002
}
1002
{
1000
NOSEL
1070
     0
1002
}
1002
{
1000
BEHIND
1070
     0
1002
}
1002
{
1000
OTHER
1070
     0
1002
}
1002
{
1000
REACTOR
1002
}
1001
GENIUS_GENOBJ-N-FIL_13
1002
{
1000
OWNER
1000
GEN
1002
}
  0
LINE
  5
459E
  8
240
 10
86.085786437627405
 20
33.914213562373391
 30
0.0
 11
89.914213562373675
 21
30.085786437627181
 31
0.0
1001
GENIUS_GENFIL_13
1070
     0
1040
5.0
1040
5.0
1040
0.2500000000000284
1040
45.00000000000162
1002
{
1002
}
1001
GENIUS_GENODEF_13
1002
{
1000
HIER
1070
     0
1002
}
1002
{
1000
MANEDIT
1070
     0
1002
}
1002
{
1000
NOSEL
1070
     0
1002
}
1002
{
1000
BEHIND
1070
     0
1002
}
1002
{
1000
OTHER
1070
     0
1002
}
1002
{
1000
REACTOR
1002
}
1001
GENIUS_GENOBJ-N-CHA_13
1002
{
1000
OWNER
1000
GEN
1002
}
  0
ARC
  5
459F
  8
240
 10
84.671572875254355
 20
32.500000000000277
 30
0.0
 40
2.0
 50
45.0
 51
90.0
1001
GENIUS_GENFIL_13
1070
     0
1040
5.0
1040
5.0
1040
0.2500000000000284
1040
45.00000000000162
1002
{
1002
}
1001
GENIUS_GENOBJ-N-CHA_13
1002
{
1000
OWNER
1000
GEN
1002
}
1001
GENIUS_GENODEF_13
1002
{
1000
HIER
1070
     0
1002
}
1002
{
1000
MANEDIT
1070
     0
1002
}
1002
{
1000
NOSEL
1070
     0
1002
}
1002
{
1000
BEHIND
1070
     0
1002
}
1002
{
1000
OTHER
1070
     0
1002
}
1002
{
1000
REACTOR
1002
}
1001
GENIUS_GENOBJ-N-FIL_13
1002
{
1000
OWNER
1000
GEN
1002
}
  0
LINE
  5
45A0
  8
241
  6
CONTINUOUS
 10
68.000000000000171
 20
-34.249999999999233
 30
0.0
 11
67.999999999999375
 21
34.24999999999946
 31
0.0
  0
LINE
  5
45A1
  8
240
 10
68.250000000000171
 20
-34.499999999999218
 30
0.0
 11
68.000000000000171
 21
-34.249999999999218
 31
0.0
1001
GENIUS_GENFIL_13
1070
     0
1040
0.25
1040
0.25
1040
0.2500000000000284
1040
45.00000000000162
1002
{
1002
}
1001
GENIUS_GENODEF_13
1002
{
1000
HIER
1070
     0
1002
}
1002
{
1000
MANEDIT
1070
     0
1002
}
1002
{
1000
NOSEL
1070
     0
1002
}
1002
{
1000
BEHIND
1070
     0
1002
}
1002
{
1000
OTHER
1070
     0
1002
}
1002
{
1000
REACTOR
1002
}
1001
GENIUS_GENOBJ-N-CHA_13
1002
{
1000
OWNER
1000
GEN
1002
}
  0
LINE
  5
45A2
  8
240
 10
84.671572875254284
 20
-34.499999999999247
 30
0.0
 11
68.250000000000171
 21
-34.499999999999218
 31
0.0
  0
LINE
  5
45A3
  8
240
 10
90.500000000000568
 20
-28.671572875253041
 30
0.0
 11
90.500000000000568
 21
-21.000000000000629
 31
0.0
  0
LINE
  5
45A4
  8
241
 10
90.500000000000568
 20
-21.0000000000006
 30
0.0
 11
90.500000000000625
 21
21.0000000000006
 31
0.0
  0
LINE
  5
45A5
  8
240
 10
90.500000000000625
 20
21.0000000000006
 30
0.0
 11
90.500000000000625
 21
28.671572875254071
 31
0.0
  0
ARC
  5
45A6
  8
240
 10
88.500000000000554
 20
-28.671572875253041
 30
0.0
 40
2.0
 50
315.0
 51
0.0
1001
GENIUS_GENODEF_13
1002
{
1000
HIER
1070
     0
1002
}
1002
{
1000
MANEDIT
1070
     0
1002
}
1002
{
1000
NOSEL
1070
     0
1002
}
1002
{
1000
BEHIND
1070
     0
1002
}
1002
{
1000
OTHER
1070
     0
1002
}
1002
{
1000
REACTOR
1002
}
1001
GENIUS_GENOBJ-N-FIL_13
1002
{
1000
OWNER
1000
GEN
1002
}
  0
LINE
  5
45A7
  8
240
 10
86.085786437627405
 20
-33.914213562372353
 30
0.0
 11
89.914213562373675
 21
-30.08578643762614
 31
0.0
1001
GENIUS_GENFIL_13
1070
     0
1040
5.0
1040
5.0
1040
0.2500000000000284
1040
45.00000000000162
1002
{
1002
}
1001
GENIUS_GENODEF_13
1002
{
1000
HIER
1070
     0
1002
}
1002
{
1000
MANEDIT
1070
     0
1002
}
1002
{
1000
NOSEL
1070
     0
1002
}
1002
{
1000
BEHIND
1070
     0
1002
}
1002
{
1000
OTHER
1070
     0
1002
}
1002
{
1000
REACTOR
1002
}
1001
GENIUS_GENOBJ-N-CHA_13
1002
{
1000
OWNER
1000
GEN
1002
}
  0
ARC
  5
45A8
  8
240
 10
84.671572875254284
 20
-32.499999999999247
 30
0.0
 40
2.0
 50
270.0
 51
315.0
1001
GENIUS_GENFIL_13
1070
     0
1040
5.0
1040
5.0
1040
0.2500000000000284
1040
45.00000000000162
1002
{
1002
}
1001
GENIUS_GENOBJ-N-CHA_13
1002
{
1000
OWNER
1000
GEN
1002
}
1001
GENIUS_GENODEF_13
1002
{
1000
HIER
1070
     0
1002
}
1002
{
1000
MANEDIT
1070
     0
1002
}
1002
{
1000
NOSEL
1070
     0
1002
}
1002
{
1000
BEHIND
1070
     0
1002
}
1002
{
1000
OTHER
1070
     0
1002
}
1002
{
1000
REACTOR
1002
}
1001
GENIUS_GENOBJ-N-FIL_13
1002
{
1000
OWNER
1000
GEN
1002
}
  0
LINE
  5
45A9
  8
240
 10
68.250000000000227
 20
34.500000000000291
 30
0.0
 11
68.000000000000213
 21
34.250000000000291
 31
0.0
  0
LINE
  5
45AA
  8
241
 10
85.500000000000526
 20
-34.320359442248161
 30
0.0
 11
85.500000000000526
 21
34.320359442249213
 31
0.0
  0
LINE
  5
45AB
  8
241
 10
68.000000000000114
 20
34.499999999999893
 30
0.0
 11
67.999999999999432
 21
-34.499999999999893
 31
0.0
  0
ARC
  5
45AC
  8
240
 10
67.500000000000114
 20
34.499999999999893
 30
0.0
 40
0.5
 50
0.0
 51
90.0
1001
GENIUS_GENOBJ-N-FIL_13
1002
{
1000
OWNER
1000
GEN
1002
}
1001
GENIUS_GENODEF_13
1002
{
1000
HIER
1070
     0
1002
}
1002
{
1000
MANEDIT
1070
     0
1002
}
1002
{
1000
NOSEL
1070
     0
1002
}
1002
{
1000
BEHIND
1070
     0
1002
}
1002
{
1000
OTHER
1070
     0
1002
}
1002
{
1000
REACTOR
1002
}
  0
LINE
  5
45AD
  8
240
 10
57.500000000000107
 20
34.999999999999893
 30
0.0
 11
67.500000000000114
 21
34.999999999999893
 31
0.0
  0
LINE
  5
45AE
  8
240
 10
57.0
 20
34.499999999999773
 30
0.0
 11
57.500000000000107
 21
34.999999999999893
 31
0.0
1001
GENIUS_GENFIL_13
1070
     0
1040
0.5
1040
0.5
1040
0.2500000000000284
1040
45.00000000000162
1002
{
1002
}
1001
GENIUS_GENOBJ-N-CHA_13
1002
{
1000
OWNER
1000
GEN
1002
}
1001
GENIUS_GENODEF_13
1002
{
1000
HIER
1070
     0
1002
}
1002
{
1000
MANEDIT
1070
     0
1002
}
1002
{
1000
NOSEL
1070
     0
1002
}
1002
{
1000
BEHIND
1070
     0
1002
}
1002
{
1000
OTHER
1070
     0
1002
}
1002
{
1000
REACTOR
1002
}
  0
LINE
  5
45AF
  8
241
 10
57.0
 20
34.499999999999773
 30
0.0
 11
57.0
 21
-34.499999999999773
 31
0.0
  0
ARC
  5
45B0
  8
240
 10
67.500000000000114
 20
-34.499999999999893
 30
0.0
 40
0.5
 50
270.0
 51
0.0
1001
GENIUS_GENOBJ-N-FIL_13
1002
{
1000
OWNER
1000
GEN
1002
}
1001
GENIUS_GENODEF_13
1002
{
1000
HIER
1070
     0
1002
}
1002
{
1000
MANEDIT
1070
     0
1002
}
1002
{
1000
NOSEL
1070
     0
1002
}
1002
{
1000
BEHIND
1070
     0
1002
}
1002
{
1000
OTHER
1070
     0
1002
}
1002
{
1000
REACTOR
1002
}
  0
LINE
  5
45B1
  8
240
 10
57.500000000000107
 20
-34.999999999999893
 30
0.0
 11
67.000000000000114
 21
-34.999999999999893
 31
0.0
  0
LINE
  5
45B2
  8
240
 10
57.500000000000107
 20
-34.999999999999893
 30
0.0
 11
67.500000000000114
 21
-34.999999999999893
 31
0.0
  0
LINE
  5
45B3
  8
240
 10
57.0
 20
-34.499999999999773
 30
0.0
 11
57.500000000000107
 21
-34.999999999999893
 31
0.0
1001
GENIUS_GENFIL_13
1070
     0
1040
0.5000000000000995
1040
0.5000000000001421
1040
0.5000000000000995
1040
45.00000000000162
1002
{
1002
}
1001
GENIUS_GENOREF_13
1005
0
  0
LINE
  5
45B4
  8
241
 10
63.400000000000027
 20
28.133974596215239
 30
0.0
 11
63.400000000000091
 21
29.866025403784079
 31
0.0
  0
LINE
  5
45B5
  8
241
 10
63.400000000000091
 20
29.866025403784079
 30
0.0
 11
61.900000000000027
 21
30.732050807568609
 31
0.0
  0
LINE
  5
45B6
  8
241
 10
61.900000000000027
 20
30.732050807568609
 30
0.0
 11
60.400000000000091
 21
29.866025403784079
 31
0.0
  0
LINE
  5
45B7
  8
241
 10
60.400000000000027
 20
29.866025403784079
 30
0.0
 11
60.399999999999977
 21
28.133974596215179
 31
0.0
  0
LINE
  5
45B8
  8
241
 10
60.399999999999977
 20
28.133974596215179
 30
0.0
 11
61.900000000000027
 21
27.267949192430709
 31
0.0
  0
LINE
  5
45B9
  8
241
 10
61.900000000000027
 20
27.267949192430709
 30
0.0
 11
63.399999999999977
 21
28.133974596215179
 31
0.0
  0
LINE
  5
45BA
  8
241
 10
67.999999999999716
 20
-4.9079128927340321
 30
0.0
 11
57.0
 21
-4.9079128927340321
 31
0.0
  0
LINE
  5
45BB
  8
241
 10
67.999999999999659
 20
-13.076714195020029
 30
0.0
 11
57.0
 21
-13.076714195020029
 31
0.0
  0
LINE
  5
45BC
  8
241
 10
67.999999999999545
 20
-21.5774686843572
 30
0.0
 11
57.0
 21
-21.5774686843572
 31
0.0
  0
LINE
  5
45BD
  8
241
 10
67.999999999999545
 20
-27.55744627456556
 30
0.0
 11
57.0
 21
-27.55744627456556
 31
0.0
  0
LINE
  5
45BE
  8
241
 10
67.999999999999432
 20
-32.465359167299091
 30
0.0
 11
57.0
 21
-32.465359167299091
 31
0.0
  0
CIRCLE
  5
45C0
  8
241
 10
61.900000000000027
 20
28.999999999999659
 30
0.0
 40
3.5
  0
ARC
  5
45C1
  8
241
 10
61.900000000000091
 20
28.999999999999659
 30
0.0
 40
3.75
 50
180.0
 51
0.0
  0
LINE
  5
45C2
  8
241
 10
58.150000000000091
 20
28.999999999999659
 30
0.0
 11
58.150000000000091
 21
32.749999999999659
 31
0.0
  0
LINE
  5
45C3
  8
241
 10
65.650000000000091
 20
28.999999999999659
 30
0.0
 11
65.650000000000091
 21
32.749999999999659
 31
0.0
  0
LINE
  5
45C4
  8
241
 10
65.650000000000091
 20
32.749999999999659
 30
0.0
 11
58.150000000000091
 21
32.749999999999659
 31
0.0
  0
LINE
  5
45C5
  8
241
 10
67.999999999999716
 20
4.9079128927340596
 30
0.0
 11
57.0
 21
4.9079128927340596
 31
0.0
  0
LINE
  5
45C6
  8
246
 10
68.499999999999773
 20
3.0068731247942528
 30
0.0
 11
70.499999999999773
 21
3.0068731247942528
 31
0.0
  0
LINE
  5
45C7
  8
241
 10
68.499999999999829
 20
5.9908621295090816
 30
0.0
 11
71.499999999999829
 21
5.9908621295090816
 31
0.0
  0
LINE
  5
45C8
  8
241
 10
68.499999999999886
 20
8.9292570560369882
 30
0.0
 11
70.499999999999886
 21
8.9292570560369882
 31
0.0
  0
LINE
  5
45C9
  8
241
 10
68.499999999999886
 20
11.79969494473556
 30
0.0
 11
71.499999999999886
 21
11.79969494473556
 31
0.0
  0
LINE
  5
45CA
  8
241
 10
68.499999999999943
 20
14.58033003005408
 30
0.0
 11
70.499999999999943
 21
14.58033003005408
 31
0.0
  0
LINE
  5
45CB
  8
241
 10
68.499999999999943
 20
17.249999999999879
 30
0.0
 11
71.499999999999943
 21
17.249999999999879
 31
0.0
  0
LINE
  5
45CC
  8
241
 10
68.5
 20
19.788387054111009
 30
0.0
 11
70.5
 21
19.788387054111009
 31
0.0
  0
LINE
  5
45CD
  8
241
 10
68.5
 20
22.176172534185518
 30
0.0
 11
71.5
 21
22.176172534185518
 31
0.0
  0
LINE
  5
45CE
  8
241
 10
68.500000000000057
 20
24.395183950935749
 30
0.0
 11
70.500000000000057
 21
24.395183950935749
 31
0.0
  0
LINE
  5
45CF
  8
241
 10
68.500000000000057
 20
26.42853328760458
 30
0.0
 11
71.500000000000057
 21
26.42853328760458
 31
0.0
  0
LINE
  5
45D0
  8
241
 10
68.500000000000114
 20
28.26074552797008
 30
0.0
 11
70.500000000000114
 21
28.26074552797008
 31
0.0
  0
LINE
  5
45D1
  8
241
 10
68.500000000000114
 20
29.764182090367171
 30
0.0
 11
71.500000000000114
 21
29.764182090367171
 31
0.0
  0
LINE
  5
45D2
  8
241
 10
68.500000000000114
 20
31.26761865276427
 30
0.0
 11
70.500000000000114
 21
31.26761865276427
 31
0.0
  0
LINE
  5
45D3
  8
241
 10
68.500000000000171
 20
32.419395417113662
 30
0.0
 11
71.500000000000114
 21
32.419395417113662
 31
0.0
  0
LINE
  5
45D4
  8
241
 10
68.500000000000171
 20
33.324441006972727
 30
0.0
 11
70.500000000000171
 21
33.324441006972727
 31
0.0
  0
LINE
  5
45D5
  8
241
 10
68.500000000000171
 20
33.846579045568937
 30
0.0
 11
71.500000000000171
 21
33.846579045568937
 31
0.0
  0
LINE
  5
45D6
  8
240
 10
90.999999999998636
 20
20.74999999999994
 30
0.0
 11
113.5000000000001
 21
20.74999999999994
 31
0.0
  0
LINE
  5
45D7
  8
240
 10
90.999999999998408
 20
-20.74999999999994
 30
0.0
 11
113.5000000000001
 21
-20.74999999999994
 31
0.0
  0
LINE
  5
45D8
  8
240
  6
CONTINUOUS
 10
90.500000000000568
 20
-21.0000000000006
 30
0.0
 11
90.749999999997897
 21
-21.000000000000629
 31
0.0
  0
LINE
  5
45D9
  8
240
 10
90.999999999998366
 20
-20.750000000000171
 30
0.0
 11
90.749999999998224
 21
-21.000000000000231
 31
0.0
  0
LINE
  5
45DA
  8
240
  6
CONTINUOUS
 10
90.500000000000568
 20
21.0000000000006
 30
0.0
 11
90.749999999997897
 21
21.000000000000629
 31
0.0
  0
LINE
  5
45DB
  8
240
 10
90.999999999998366
 20
20.750000000000171
 30
0.0
 11
90.749999999998224
 21
21.000000000000231
 31
0.0
  0
LINE
  5
45DC
  8
241
 10
90.999999999998636
 20
20.74999999999994
 30
0.0
 11
90.999999999998565
 21
-20.74999999999994
 31
0.0
  0
ARC
  5
45E2
  8
240
 10
115.5
 20
-19.0
 30
0.0
 40
1.0
 50
90.0
 51
180.0
  0
LINE
  5
45E3
  8
240
 10
115.5
 20
-18.0
 30
0.0
 11
119.0
 21
-18.0
 31
0.0
  0
ARC
  5
45E4
  8
240
 10
115.5
 20
19.0
 30
0.0
 40
1.0
 50
180.0
 51
270.0
  0
LINE
  5
45E5
  8
240
 10
115.5
 20
18.0
 30
0.0
 11
119.0
 21
18.0
 31
0.0
  0
LINE
  5
45E6
  8
240
 10
119.0
 20
19.5
 30
0.0
 11
119.5
 21
20.0
 31
0.0
  0
LINE
  5
45E7
  8
240
 10
119.0
 20
-19.5
 30
0.0
 11
119.5
 21
-20.0
 31
0.0
  0
LINE
  5
45E8
  8
240
 10
119.5
 20
-22.0
 30
0.0
 11
119.5
 21
-20.0
 31
0.0
  0
LINE
  5
45E9
  8
240
 10
119.5
 20
22.0
 30
0.0
 11
119.5
 21
20.0
 31
0.0
  0
ARC
  5
45EA
  8
240
 10
120.5
 20
22.0
 30
0.0
 40
1.0
 50
90.0
 51
180.0
  0
ARC
  5
45EB
  8
240
 10
120.5
 20
-22.0
 30
0.0
 40
1.0
 50
180.0
 51
270.0
  0
LINE
  5
45EC
  8
240
 10
120.5
 20
23.0
 30
0.0
 11
133.08578643762689
 21
23.0
 31
0.0
  0
ARC
  5
45ED
  8
240
 10
133.08578643762689
 20
22.0
 30
0.0
 40
1.000000000000028
 50
45.000000000001151
 51
90.0
  0
LINE
  5
45EE
  8
240
 10
120.5
 20
-23.0
 30
0.0
 11
133.08578643762689
 21
-23.0
 31
0.0
  0
ARC
  5
45EF
  8
240
 10
133.08578643762689
 20
-22.0
 30
0.0
 40
0.9999999999999857
 50
270.0
 51
314.99999999999881
  0
LINE
  5
45F0
  8
240
 10
134.7363961030679
 20
21.76360389693215
 30
0.0
 11
133.79289321881339
 21
22.707106781186582
 31
0.0
  0
LINE
  5
45F1
  8
240
 10
135.0
 20
0.0
 30
0.0
 11
135.0
 21
21.127207793864251
 31
0.0
  0
ARC
  5
45F2
  8
240
 10
134.09999999999999
 20
21.127207793864251
 30
0.0
 40
0.9000000000000056
 50
0.0
 51
45.000000000001151
  0
LINE
  5
45F3
  8
240
 10
135.0
 20
0.0
 30
0.0
 11
135.0
 21
-21.127207793864191
 31
0.0
  0
LINE
  5
45F4
  8
240
 10
133.79289321881339
 20
-22.70710678118655
 30
0.0
 11
134.7363961030679
 21
-21.763603896932089
 31
0.0
  0
ARC
  5
45F5
  8
240
 10
134.09999999999999
 20
-21.127207793864191
 30
0.0
 40
0.9000000000000031
 50
314.99999999999881
 51
0.0
  0
LINE
  5
45F6
  8
240
 10
119.0
 20
-18.0
 30
0.0
 11
119.0
 21
-19.5
 31
0.0
  0
LINE
  5
45F7
  8
240
 10
119.0
 20
19.5
 30
0.0
 11
119.0
 21
18.0
 31
0.0
  0
LINE
  5
45F8
  8
241
 10
116.4999999999999
 20
17.5
 30
0.0
 11
115.9999999999999
 21
18.0
 31
0.0
  0
LINE
  5
45F9
  8
241
 10
116.5
 20
17.5
 30
0.0
 11
116.5
 21
0.0
 31
0.0
  0
LINE
  5
45FA
  8
241
 10
116.5
 20
-17.5
 30
0.0
 11
116.5
 21
0.0
 31
0.0
  0
LINE
  5
45FB
  8
241
 10
116.4999999999999
 20
-17.5
 30
0.0
 11
115.9999999999999
 21
-18.0
 31
0.0
  0
LINE
  5
45FC
  8
241
 10
120.5
 20
-20.84313483298445
 30
0.0
 11
120.5
 21
-23.0
 31
0.0
  0
LINE
  5
45FD
  8
241
 10
120.5
 20
-18.843134832984472
 30
0.0
 11
120.5
 21
-2.0
 31
0.0
  0
LINE
  5
45FE
  8
241
 10
120.5
 20
18.8431348329845
 30
0.0
 11
120.5
 21
2.0
 31
0.0
  0
LINE
  5
45FF
  8
241
 10
120.5
 20
20.843134832984479
 30
0.0
 11
120.5
 21
23.0
 31
0.0
  0
LINE
  5
4600
  8
241
 10
119.5
 20
0.0
 30
0.0
 11
119.5
 21
-20.0
 31
0.0
  0
LINE
  5
4601
  8
241
 10
119.5
 20
0.0
 30
0.0
 11
119.5
 21
20.0
 31
0.0
  0
LINE
  5
4602
  8
241
 10
133.08578643762689
 20
22.21381267738883
 30
0.0
 11
133.08578643762689
 21
-22.346263008514651
 31
0.0
  0
LINE
  5
4603
  8
241
 10
114.5
 20
19.0
 30
0.0
 11
114.5
 21
0.0
 31
0.0
  0
LINE
  5
4604
  8
241
 10
114.5
 20
-19.0
 30
0.0
 11
114.5
 21
0.0
 31
0.0
  0
LINE
  5
4605
  8
241
 10
119.0
 20
18.0
 30
0.0
 11
119.0
 21
-18.0
 31
0.0
  0
LINE
  5
4606
  8
241
 10
128.5
 20
-2.0
 30
0.0
 11
119.5
 21
-2.0
 31
0.0
  0
LINE
  5
4607
  8
241
 10
128.5
 20
2.0
 30
0.0
 11
119.5
 21
2.0
 31
0.0
  0
LINE
  5
4608
  8
241
 10
128.5
 20
2.0
 30
0.0
 11
128.5
 21
0.0
 31
0.0
  0
LINE
  5
4609
  8
241
 10
128.5
 20
-2.0
 30
0.0
 11
128.5
 21
0.0
 31
0.0
  0
LINE
  5
460A
  8
241
 10
128.5
 20
20.843134832984479
 30
0.0
 11
119.5
 21
20.843134832984479
 31
0.0
  0
LINE
  5
460B
  8
241
 10
128.5
 20
18.8431348329845
 30
0.0
 11
119.5
 21
18.8431348329845
 31
0.0
  0
LINE
  5
460C
  8
241
 10
128.5
 20
20.843134832984479
 30
0.0
 11
128.5
 21
18.8431348329845
 31
0.0
  0
LINE
  5
460D
  8
241
 10
128.5
 20
-20.84313483298445
 30
0.0
 11
119.5
 21
-20.84313483298445
 31
0.0
  0
LINE
  5
460E
  8
241
 10
128.5
 20
-18.843134832984472
 30
0.0
 11
119.5
 21
-18.843134832984472
 31
0.0
  0
LINE
  5
460F
  8
241
 10
128.5
 20
-20.84313483298445
 30
0.0
 11
128.5
 21
-18.843134832984472
 31
0.0
  0
LINE
  5
4610
  8
242
 10
119.0
 20
17.5
 30
0.0
 11
116.5
 21
17.5
 31
0.0
  0
LINE
  5
4611
  8
242
 10
119.0
 20
-17.5
 30
0.0
 11
116.5
 21
-17.5
 31
0.0
  0
LINE
  5
4614
  8
246
 10
82.620952153370808
 20
9.5000000000000568
 30
0.0
 11
75.430353230129242
 21
2.309401076758518
 31
0.0
  0
LINE
  5
4615
  8
246
 10
75.430353230129242
 20
1.154700538379245
 30
0.0
 11
71.019669627606334
 21
1.154700538379245
 31
0.0
  0
LINE
  5
4616
  8
246
 10
75.430353230129242
 20
2.30940107675849
 30
0.0
 11
71.019669627606334
 21
2.309401076758518
 31
0.0
  0
LINE
  5
4617
  8
246
 10
70.620952153370794
 20
3.0
 30
0.0
 11
71.019669627606334
 21
2.30940107675849
 31
0.0
  0
LINE
  5
4618
  8
246
 10
70.620952153370794
 20
1.71239356669821
 30
0.0
 11
70.620952153370794
 21
3.0
 31
0.0
  0
ARC
  5
4619
  8
246
 10
63.620952153370808
 20
8.75
 30
0.0
 40
1.0
 50
90.0
 51
180.0
  0
LINE
  5
461A
  8
246
 10
63.620952153370808
 20
9.75
 30
0.0
 11
67.620952153370808
 21
9.75
 31
0.0
  0
LINE
  5
461D
  8
246
 10
82.620952153370808
 20
-9.5000000000000284
 30
0.0
 11
75.430353230129242
 21
-2.30940107675849
 31
0.0
  0
LINE
  5
461E
  8
246
 10
75.430353230129242
 20
-1.154700538379245
 30
0.0
 11
71.019669627606334
 21
-1.154700538379245
 31
0.0
  0
LINE
  5
461F
  8
246
 10
75.430353230129242
 20
-2.30940107675849
 30
0.0
 11
71.019669627606334
 21
-2.30940107675849
 31
0.0
  0
LINE
  5
4620
  8
246
 10
70.620952153370794
 20
-3.0
 30
0.0
 11
71.019669627606334
 21
-2.30940107675849
 31
0.0
  0
LINE
  5
4621
  8
246
 10
70.620952153370794
 20
-1.71239356669821
 30
0.0
 11
70.620952153370794
 21
-3.0
 31
0.0
  0
LINE
  5
4622
  8
246
 10
63.620952153370808
 20
-9.75
 30
0.0
 11
67.620952153370808
 21
-9.75
 31
0.0
  0
LINE
  5
4623
  8
246
 10
129.40000000000001
 20
-14.24999999999997
 30
0.0
 11
97.0
 21
-10.844622777392059
 31
0.0
  0
LINE
  5
4624
  8
246
 10
129.40000000000001
 20
-12.5
 30
0.0
 11
129.40000000000001
 21
-14.24999999999997
 31
0.0
  0
LINE
  5
4625
  8
246
 10
131.80000000000001
 20
-14.25
 30
0.0
 11
132.0
 21
-14.25
 31
0.0
  0
LINE
  5
4626
  8
246
 10
132.0
 20
-14.25
 30
0.0
 11
135.0
 21
-12.5179491924311
 31
0.0
  0
LINE
  5
4627
  8
246
 10
131.7999999999999
 20
-12.5
 30
0.0
 11
131.80000000000001
 21
-14.25
 31
0.0
  0
LINE
  5
4628
  8
246
 10
129.40000000000001
 20
-12.5
 30
0.0
 11
131.7999999999999
 21
-12.5
 31
0.0
  0
LINE
  5
4629
  8
246
 10
135.0
 20
-10.0
 30
0.0
 11
97.0
 21
-10.0
 31
0.0
  0
LINE
  5
462A
  8
246
 10
129.40000000000001
 20
14.25
 30
0.0
 11
97.0
 21
10.84462277739209
 31
0.0
  0
LINE
  5
462B
  8
246
 10
129.40000000000001
 20
12.5
 30
0.0
 11
129.40000000000001
 21
14.25
 31
0.0
  0
LINE
  5
462C
  8
246
 10
131.80000000000001
 20
14.25
 30
0.0
 11
132.0
 21
14.25
 31
0.0
  0
LINE
  5
462D
  8
246
 10
132.0
 20
14.25
 30
0.0
 11
135.0
 21
12.5179491924311
 31
0.0
  0
LINE
  5
462E
  8
246
 10
131.7999999999999
 20
12.5
 30
0.0
 11
131.80000000000001
 21
14.25
 31
0.0
  0
LINE
  5
462F
  8
246
 10
129.40000000000001
 20
12.5
 30
0.0
 11
131.7999999999999
 21
12.5
 31
0.0
  0
LINE
  5
4630
  8
246
 10
135.0
 20
10.0
 30
0.0
 11
97.0
 21
10.0
 31
0.0
  0
LINE
  5
4631
  8
243
 10
127.0
 20
17.5
 30
0.0
 11
126.5
 21
18.0
 31
0.0
  0
LINE
  5
4632
  8
243
 10
119.0
 20
18.0
 30
0.0
 11
126.5
 21
18.0
 31
0.0
  0
LINE
  5
4633
  8
243
 10
127.0
 20
-17.5
 30
0.0
 11
126.5
 21
-18.0
 31
0.0
  0
LINE
  5
4634
  8
243
 10
119.0
 20
-18.0
 30
0.0
 11
126.5
 21
-18.0
 31
0.0
  0
LINE
  5
4636
  8
246
 10
67.620952153370808
 20
9.75
 30
0.0
 11
68.370952153370808
 21
10.5
 31
0.0
  0
LINE
  5
4637
  8
246
 10
67.620952153370808
 20
-9.75
 30
0.0
 11
68.370952153370808
 21
-10.5
 31
0.0
  0
LINE
  5
463A
  8
246
 10
71.019669627606334
 20
-2.30940107675849
 30
0.0
 11
71.019669627606334
 21
2.309401076758518
 31
0.0
  0
LINE
  5
463B
  8
246
 10
75.430353230129242
 20
-2.30940107675849
 30
0.0
 11
75.430353230129242
 21
2.30940107675849
 31
0.0
  0
LINE
  5
463D
  8
246
 10
97.0
 20
-11.0
 30
0.0
 11
97.0
 21
11.0
 31
0.0
  0
LINE
  5
4640
  8
246
 10
81.920952153370806
 20
-10.5
 30
0.0
 11
82.620952153370808
 21
-9.7999999999999812
 31
0.0
  0
LINE
  5
4641
  8
246
 10
82.620952153370808
 20
-9.7999999999999812
 30
0.0
 11
82.620952153370808
 21
9.8000000000000114
 31
0.0
  0
LINE
  5
4642
  8
246
 10
82.620952153370808
 20
9.8000000000000114
 30
0.0
 11
81.920952153370806
 21
10.5
 31
0.0
  0
LINE
  5
4643
  8
246
 10
68.370952153370808
 20
10.5
 30
0.0
 11
81.920952153370806
 21
10.5
 31
0.0
  0
LINE
  5
4645
  8
246
 10
68.370952153370808
 20
-10.5
 30
0.0
 11
81.920952153370806
 21
-10.5
 31
0.0
  0
LINE
  5
4647
  8
246
 10
62.620952153370808
 20
8.75
 30
0.0
 11
62.620952153370808
 21
-8.75
 31
0.0
  0
ARC
  5
4648
  8
246
 10
63.620952153370808
 20
-8.75
 30
0.0
 40
1.0
 50
180.0
 51
270.0
  0
LINE
  5
4649
  8
246
 10
70.620952153370794
 20
3.0
 30
0.0
 11
62.620952153370808
 21
3.0
 31
0.0
  0
LINE
  5
464A
  8
246
 10
70.620952153370794
 20
-3.0
 30
0.0
 11
62.620952153370808
 21
-3.0
 31
0.0
  0
LINE
  5
464B
  8
243
 10
127.0
 20
-17.5
 30
0.0
 11
127.0
 21
-13.997749835362351
 31
0.0
  0
LINE
  5
464C
  8
243
 10
127.0
 20
17.5
 30
0.0
 11
127.0
 21
13.997749835362381
 31
0.0
  0
LINE
  5
464D
  8
244
 10
119.0
 20
17.5
 30
0.0
 11
127.0
 21
17.5
 31
0.0
  0
LINE
  5
464E
  8
244
 10
119.0
 20
-17.5
 30
0.0
 11
127.0
 21
-17.5
 31
0.0
  0
LINE
  5
4653
  8
246
 10
68.020952153370786
 20
10.15
 30
0.0
 11
82.270952153370786
 21
10.15
 31
0.0
  0
LINE
  5
4655
  8
246
 10
68.020952153370786
 20
-10.14999999999997
 30
0.0
 11
82.270952153370786
 21
-10.14999999999997
 31
0.0
  0
ARC
  5
4657
  8
240
 10
113.5
 20
19.74999999999994
 30
0.0
 40
1.0
 50
0.0
 51
90.0
1001
GENIUS_GENOREF_13
1005
0
  0
LINE
  5
4658
  8
240
 10
114.5
 20
19.74999999999994
 30
0.0
 11
114.5
 21
19.0
 31
0.0
  0
ARC
  5
4659
  8
240
 10
113.5
 20
-19.74999999999994
 30
0.0
 40
1.0
 50
270.0
 51
0.0
  0
LINE
  5
465A
  8
240
 10
114.5
 20
-19.74999999999994
 30
0.0
 11
114.5
 21
-19.0
 31
0.0
  0
LINE
  5
465B
  8
241
 10
113.5
 20
20.74999999999994
 30
0.0
 11
113.4999999999999
 21
16.357752945141499
 31
0.0
  0
LINE
  5
465C
  8
241
 10
113.4999999999999
 20
-16.10594836399537
 30
0.0
 11
113.5
 21
-20.74999999999994
 31
0.0
  0
TEXT
  5
4A09
  8
241
 10
-32.0
 20
77.0
 30
0.0
 40
5.0
  1
HSK-A63-NBS20-135NRA
  7
YOKO
 11
-32.0
 21
77.0
 31
0.0
 73
     1
1001
GRPNAME
1000
PASTMD0I
  0
LINE
  5
4A0C
  8
250
 10
-23.037048729999999
 20
-31.833453089999999
 30
0.0
 11
-47.303715400000002
 21
-31.833453089999999
 31
0.0
1001
ITEMNAME
1000
LNSP2
  0
LINE
  5
4A0D
  8
240
 10
0.0
 20
-24.215
 30
0.0
 11
0.0
 21
-31.5
 31
0.0
1001
GRPNAME
1000
PASTMD0X
  0
LINE
  5
4A0E
  8
241
 10
21.377499069999999
 20
-31.5
 30
0.0
 11
21.377499069999999
 21
0.0
 31
0.0
1001
GRPNAME
1000
PASTMD0X
  0
LINE
  5
4A0F
  8
241
 10
14.622500929999999
 20
-31.5
 30
0.0
 11
14.622500929999999
 21
0.0
 31
0.0
1001
GRPNAME
1000
PASTMD0X
  0
LINE
  5
4A10
  8
241
 10
16.125
 20
-27.5
 30
0.0
 11
16.125
 21
0.0
 31
0.0
1001
GRPNAME
1000
PASTMD0X
  0
LINE
  5
4A11
  8
241
 10
19.875
 20
-27.5
 30
0.0
 11
19.875
 21
0.0
 31
0.0
1001
GRPNAME
1000
PASTMD0X
  0
LINE
  5
4A12
  8
245
  6
CENTER2
 10
18.0
 20
-31.5
 30
0.0
 11
18.0
 21
31.5
 31
0.0
  0
LINE
  5
4A13
  8
240
 10
14.622500929999999
 20
-31.5
 30
0.0
 11
0.0
 21
-31.5
 31
0.0
1001
GRPNAME
1000
PASTMD0X
  0
LINE
  5
4A14
  8
243
 10
26.0
 20
-26.5
 30
0.0
 11
5.0
 21
-26.5
 31
0.0
1001
GRPNAME
1000
PASTMD0X
  0
LINE
  5
4A15
  8
243
 10
5.0
 20
-31.5
 30
0.0
 11
5.0
 21
-26.5
 31
0.0
1001
GRPNAME
1000
PASTMD0X
  0
LINE
  5
4A16
  8
240
 10
19.875
 20
-28.897595259999999
 30
0.0
 11
21.377499069999999
 21
-31.5
 31
0.0
1001
GRPNAME
1000
PASTMD0X
  0
LINE
  5
4A17
  8
240
 10
16.125
 20
-28.897595259999999
 30
0.0
 11
14.622500929999999
 21
-31.5
 31
0.0
1001
GRPNAME
1000
PASTMD0X
  0
LINE
  5
4A18
  8
240
 10
19.875
 20
-27.5
 30
0.0
 11
16.125
 21
-27.5
 31
0.0
1001
GRPNAME
1000
PASTMD0X
  0
LINE
  5
4A19
  8
240
 10
16.125
 20
-27.5
 30
0.0
 11
16.125
 21
-28.897595259999999
 31
0.0
1001
GRPNAME
1000
PASTMD0X
  0
LINE
  5
4A1A
  8
240
 10
19.875
 20
-27.5
 30
0.0
 11
19.875
 21
-28.897595259999999
 31
0.0
1001
GRPNAME
1000
PASTMD0X
  0
LINE
  5
4A1B
  8
240
 10
26.0
 20
-31.5
 30
0.0
 11
26.0
 21
-26.29999999999999
 31
0.0
1001
GRPNAME
1000
PASTMD0X
  0
LINE
  5
4A1C
  8
240
 10
26.0
 20
-31.5
 30
0.0
 11
21.377499069999999
 21
-31.5
 31
0.0
1001
GRPNAME
1000
PASTMD0X
  0
LINE
  5
4A1D
  8
240
 10
14.622500929999999
 20
31.5
 30
0.0
 11
0.0
 21
31.5
 31
0.0
1001
GRPNAME
1000
PASTMD0X
  0
LINE
  5
4A1E
  8
243
 10
26.0
 20
26.5
 30
0.0
 11
5.0
 21
26.5
 31
0.0
1001
GRPNAME
1000
PASTMD0X
  0
LINE
  5
4A1F
  8
241
 10
16.125
 20
20.0
 30
0.0
 11
5.0
 21
20.0
 31
0.0
1001
GRPNAME
1000
PASTMD0X
  0
ARC
  5
4A20
  8
241
 10
12.1117139
 20
16.336187049999999
 30
0.0
 40
8.0
 50
89.999999990000006
 51
152.74338068
1001
GRPNAME
1000
PASTMD0X
  0
LINE
  5
4A21
  8
241
 10
0.0
 20
24.215
 30
0.0
 11
0.0
 21
0.0
 31
0.0
1001
GRPNAME
1000
PASTMD0X
  0
LINE
  5
4A22
  8
241
 10
-2.0
 20
24.215
 30
0.0
 11
-2.0
 21
0.0
 31
0.0
1001
GRPNAME
1000
PASTMD0X
  0
LINE
  5
4A23
  8
240
 10
-32.0
 20
21.573500939999999
 30
0.0
 11
-32.0
 21
0.0
 31
0.0
1001
GRPNAME
1000
PASTMD0X
  0
LINE
  5
4A24
  8
240
 10
-2.0
 20
-24.215
 30
0.0
 11
-30.859925140000001
 21
-22.772003739999999
 31
0.0
1001
GRPNAME
1000
PASTMD0X
  0
LINE
  5
4A25
  8
240
 10
-32.0
 20
-21.573500939999999
 30
0.0
 11
-32.0
 21
0.0
 31
0.0
1001
GRPNAME
1000
PASTMD0X
  0
ARC
  5
4A26
  8
240
 10
-30.800000000000001
 20
-21.573500939999999
 30
0.0
 40
1.200000000000041
 50
180.00000007999989
 51
267.13759485000003
1001
GRPNAME
1000
PASTMD0X
  0
LINE
  5
4A27
  8
241
 10
-2.0
 20
-24.215
 30
0.0
 11
-2.0
 21
0.0
 31
0.0
1001
GRPNAME
1000
PASTMD0X
  0
LINE
  5
4A28
  8
241
 10
0.0
 20
-24.215
 30
0.0
 11
0.0
 21
0.0
 31
0.0
1001
GRPNAME
1000
PASTMD0X
  0
LINE
  5
4A29
  8
240
 10
-2.0
 20
-24.215
 30
0.0
 11
0.0
 21
-24.215
 31
0.0
  0
LINE
  5
4A2A
  8
243
 10
-6.2449979999999998
 20
20.0
 30
0.0
 11
-16.917564429999999
 21
20.0
 31
0.0
1001
GRPNAME
1000
PASTMD0X
  0
LINE
  5
4A2B
  8
240
 10
-2.0
 20
24.215
 30
0.0
 11
-30.859925140000001
 21
22.772003739999999
 31
0.0
1001
GRPNAME
1000
PASTMD0X
  0
LINE
  5
4A2C
  8
243
 10
-26.0
 20
23.015000000000001
 30
0.0
 11
-26.0
 21
17.0
 31
0.0
1001
GRPNAME
1000
PASTMD0X
  0
ARC
  5
4A2D
  8
240
 10
-30.800000000000001
 20
21.573500939999999
 30
0.0
 40
1.1999999999999891
 50
92.862405229999979
 51
180.0
1001
GRPNAME
1000
PASTMD0X
  0
LINE
  5
4A2E
  8
243
 10
-18.996025400000001
 20
17.0
 30
0.0
 11
-32.0
 21
17.0
 31
0.0
1001
GRPNAME
1000
PASTMD0X
  0
LINE
  5
4A2F
  8
243
 10
-18.996025400000001
 20
17.0
 30
0.0
 11
-17.43717968
 21
19.699999999999999
 31
0.0
1001
GRPNAME
1000
PASTMD0X
  0
ARC
  5
4A30
  8
243
 10
-16.917564429999999
 20
19.399999999999999
 30
0.0
 40
0.6000000000003638
 50
89.999999990000006
 51
149.99999998999999
1001
GRPNAME
1000
PASTMD0X
  0
LINE
  5
4A31
  8
243
 10
-5.25
 20
24.052499999999998
 30
0.0
 11
-5.25
 21
20.0
 31
0.0
1001
GRPNAME
1000
PASTMD1W
  0
LINE
  5
4A32
  8
243
 10
-12.75
 20
23.677499999999998
 30
0.0
 11
-12.75
 21
20.0
 31
0.0
1001
GRPNAME
1000
PASTMD1W
  0
ARC
  5
4A33
  8
243
 10
-6.2449979999999998
 20
12.0
 30
0.0
 40
7.9999999999997771
 50
38.682187259999999
 51
89.999999810000006
1001
GRPNAME
1000
PASTMD0X
  0
LINE
  5
4A34
  8
243
 10
5.0
 20
31.5
 30
0.0
 11
5.0
 21
26.5
 31
0.0
1001
GRPNAME
1000
PASTMD0X
  0
LINE
  5
4A35
  8
240
 10
0.0
 20
31.5
 30
0.0
 11
0.0
 21
24.215
 31
0.0
1001
GRPNAME
1000
PASTMD0X
  0
LINE
  5
4A36
  8
240
 10
-2.0
 20
24.215
 30
0.0
 11
0.0
 21
24.215
 31
0.0
  0
LINE
  5
4A37
  8
241
 10
21.377499069999999
 20
20.0
 30
0.0
 11
21.377499069999999
 21
0.0
 31
0.0
1001
GRPNAME
1000
PASTMD0X
  0
LINE
  5
4A38
  8
241
 10
14.622500929999999
 20
20.0
 30
0.0
 11
14.622500929999999
 21
0.0
 31
0.0
1001
GRPNAME
1000
PASTMD0X
  0
LINE
  5
4A39
  8
241
 10
16.125
 20
27.5
 30
0.0
 11
16.125
 21
0.0
 31
0.0
1001
GRPNAME
1000
PASTMD0X
  0
LINE
  5
4A3A
  8
241
 10
19.875
 20
27.5
 30
0.0
 11
19.875
 21
0.0
 31
0.0
1001
GRPNAME
1000
PASTMD0X
  0
LINE
  5
4A3B
  8
241
 10
26.0
 20
26.29999999999999
 30
0.0
 11
26.0
 21
-26.29999999999999
 31
0.0
1001
GRPNAME
1000
PASTMD0X
  0
LINE
  5
4A3C
  8
241
 10
21.377499069999999
 20
24.336187049999999
 30
0.0
 11
19.875
 21
20.858355929999998
 31
0.0
1001
GRPNAME
1000
PASTMD0X
  0
LINE
  5
4A3D
  8
241
 10
14.622500929999999
 20
24.336187049999999
 30
0.0
 11
16.125
 21
20.858355929999998
 31
0.0
1001
GRPNAME
1000
PASTMD0X
  0
LINE
  5
4A3E
  8
241
 10
26.0
 20
20.0
 30
0.0
 11
19.875
 21
20.0
 31
0.0
1001
GRPNAME
1000
PASTMD0X
  0
LINE
  5
4A3F
  8
240
 10
19.875
 20
28.897595259999999
 30
0.0
 11
21.377499069999999
 21
31.5
 31
0.0
1001
GRPNAME
1000
PASTMD0X
  0
LINE
  5
4A40
  8
240
 10
16.125
 20
28.897595259999999
 30
0.0
 11
14.622500929999999
 21
31.5
 31
0.0
1001
GRPNAME
1000
PASTMD0X
  0
LINE
  5
4A41
  8
241
 10
14.622500929999999
 20
31.5
 30
0.0
 11
14.622500929999999
 21
24.336187049999999
 31
0.0
1001
GRPNAME
1000
PASTMD0X
  0
LINE
  5
4A42
  8
241
 10
14.622500929999999
 20
24.336187049999999
 30
0.0
 11
12.1117139
 21
24.336187049999999
 31
0.0
1001
GRPNAME
1000
PASTMD0X
  0
LINE
  5
4A43
  8
240
 10
19.875
 20
27.5
 30
0.0
 11
16.125
 21
27.5
 31
0.0
1001
GRPNAME
1000
PASTMD0X
  0
LINE
  5
4A44
  8
240
 10
16.125
 20
27.5
 30
0.0
 11
16.125
 21
28.897595259999999
 31
0.0
1001
GRPNAME
1000
PASTMD0X
  0
LINE
  5
4A45
  8
240
 10
19.875
 20
27.5
 30
0.0
 11
19.875
 21
28.897595259999999
 31
0.0
1001
GRPNAME
1000
PASTMD0X
  0
ARC
  5
4A46
  8
240
 10
25.5
 20
31.0
 30
0.0
 40
0.5
 50
0.0
 51
90.0
1001
GRPNAME
1000
PASTMD0X
  0
LINE
  5
4A47
  8
241
 10
21.377499069999999
 20
31.5
 30
0.0
 11
21.377499069999999
 21
24.336187049999999
 31
0.0
1001
GRPNAME
1000
PASTMD0X
  0
LINE
  5
4A48
  8
241
 10
26.0
 20
24.336187049999999
 30
0.0
 11
21.377499069999999
 21
24.336187049999999
 31
0.0
1001
GRPNAME
1000
PASTMD0X
  0
LINE
  5
4A49
  8
240
 10
25.5
 20
31.5
 30
0.0
 11
21.377499069999999
 21
31.5
 31
0.0
1001
GRPNAME
1000
PASTMD0X
  0
LINE
  5
4B05
  8
240
 10
26.0
 20
31.5
 30
0.0
 11
26.0
 21
26.29999999999999
 31
0.0
1001
GRPNAME
1000
PASTMD0X
  0
LINE
  5
4B06
  8
250
 10
90.500000000000611
 20
29.171572875254071
 30
0.0
 11
90.500000000000611
 21
57.0
 31
0.0
  0
LINE
  5
4B07
  8
250
 10
135.0
 20
21.62720779386424
 30
0.0
 11
135.0
 21
57.0
 31
0.0
  0
LINE
  5
4B08
  8
250
 10
92.730000000000615
 20
56.0
 30
0.0
 11
132.77000000000001
 21
56.0
 31
0.0
  0
LINE
  5
4B0D
  8
250
 10
-0.0000000000002273
 20
31.49999999993279
 30
0.0
 11
-0.0000000000002258
 21
57.0
 31
0.0
  0
LINE
  5
4B0E
  8
250
 10
90.500000000000625
 20
29.171572875254071
 30
0.0
 11
90.500000000000625
 21
57.0
 31
0.0
  0
LINE
  5
4B0F
  8
250
 10
2.2299999999997731
 20
56.0
 30
0.0
 11
88.270000000000621
 21
56.0
 31
0.0
  0
LINE
  5
4B13
  8
250
 10
-0.0000000000002273
 20
31.49999999993279
 30
0.0
 11
-0.0000000000002254
 21
64.0
 31
0.0
  0
LINE
  5
4B14
  8
250
 10
135.0
 20
21.627207793864191
 30
0.0
 11
135.0
 21
64.0
 31
0.0
  0
LINE
  5
4B15
  8
250
 10
2.2299999999997739
 20
63.0
 30
0.0
 11
132.77000000000001
 21
63.0
 31
0.0
  0
TEXT
  5
4B19
  8
250
 10
-45.037048733333322
 20
-30.833453089999999
 30
0.0
 40
2.799999999999998
  1
HSK-A63
  7
YOKO
1001
ITEMNAME
1000
LNSP3
  0
LINE
  5
4B1C
  8
250
 10
135.5
 20
-10.0
 30
0.0
 11
152.63297244243921
 21
-10.0
 31
0.0
  0
LINE
  5
4B1D
  8
250
 10
135.5
 20
10.0
 30
0.0
 11
152.63297244243921
 21
9.9999999999999947
 31
0.0
  0
LINE
  5
4B1E
  8
250
 10
151.63297244243921
 20
-7.770000000000004
 30
0.0
 11
151.63297244243921
 21
7.7699999999999942
 31
0.0
  0
LINE
  5
4B22
  8
250
 10
133.58578643762689
 20
-23.0
 30
0.0
 11
159.6329724424393
 21
-23.000000000000011
 31
0.0
  0
LINE
  5
4B23
  8
250
 10
133.58578643762689
 20
23.0
 30
0.0
 11
159.6329724424393
 21
22.999999999999989
 31
0.0
  0
LINE
  5
4B24
  8
250
 10
158.6329724424393
 20
-20.77000000000001
 30
0.0
 11
158.6329724424393
 21
20.769999999999989
 31
0.0
  0
LINE
  5
4B28
  8
250
 10
82.620952153370808
 20
-10.30000000000001
 30
0.0
 11
82.620952153370808
 21
-49.999999999999943
 31
0.0
  0
LINE
  5
4B29
  8
250
 10
135.0
 20
-21.62720779386424
 30
0.0
 11
135.0
 21
-49.999999999999943
 31
0.0
  0
LINE
  5
4B2A
  8
250
 10
84.850952153370798
 20
-48.99999999999995
 30
0.0
 11
132.77000000000001
 21
-48.99999999999995
 31
0.0
  0
TEXT
  5
4B2E
  8
250
 10
150.63297244243921
 20
-9.4285714285713951
 30
0.0
 40
3.0
  1
MAX.\U+220520
 50
90.0
  0
LINE
  5
4B2F
  8
250
 10
151.2613057757726
 20
7.7699999999999942
 30
0.0
 11
151.63297244243921
 21
9.9999999999999947
 31
0.0
  0
LINE
  5
4B30
  8
250
 10
152.00463910910591
 20
7.7699999999999942
 30
0.0
 11
151.63297244243921
 21
9.9999999999999947
 31
0.0
  0
LINE
  5
4B31
  8
250
 10
151.63297244243921
 20
9.9999999999999947
 30
0.0
 11
151.63297244243921
 21
7.7699999999999942
 31
0.0
  0
LINE
  5
4B32
  8
250
 10
152.00463910910591
 20
-7.770000000000004
 30
0.0
 11
151.63297244243921
 21
-10.0
 31
0.0
  0
LINE
  5
4B33
  8
250
 10
151.2613057757726
 20
-7.770000000000004
 30
0.0
 11
151.63297244243921
 21
-10.0
 31
0.0
  0
LINE
  5
4B34
  8
250
 10
151.63297244243921
 20
-10.0
 30
0.0
 11
151.63297244243921
 21
-7.770000000000004
 31
0.0
  0
TEXT
  5
4B35
  8
250
 10
157.63297244243921
 20
-4.214285714285694
 30
0.0
 40
3.0
  1
\U+220546
 50
90.0
  0
LINE
  5
4B36
  8
250
 10
158.2613057757726
 20
20.769999999999989
 30
0.0
 11
158.6329724424393
 21
22.999999999999989
 31
0.0
  0
LINE
  5
4B37
  8
250
 10
159.00463910910591
 20
20.769999999999989
 30
0.0
 11
158.6329724424393
 21
22.999999999999989
 31
0.0
  0
LINE
  5
4B38
  8
250
 10
158.6329724424393
 20
22.999999999999989
 30
0.0
 11
158.6329724424393
 21
20.769999999999989
 31
0.0
  0
LINE
  5
4B39
  8
250
 10
159.00463910910591
 20
-20.77000000000001
 30
0.0
 11
158.6329724424393
 21
-23.000000000000011
 31
0.0
  0
LINE
  5
4B3A
  8
250
 10
158.2613057757726
 20
-20.77000000000001
 30
0.0
 11
158.6329724424393
 21
-23.000000000000011
 31
0.0
  0
LINE
  5
4B3B
  8
250
 10
158.6329724424393
 20
-23.000000000000011
 30
0.0
 11
158.6329724424393
 21
-20.77000000000001
 31
0.0
  0
TEXT
  5
4B3C
  8
250
 10
101.2961903623997
 20
-47.999999999999943
 30
0.0
 40
3.0
  1
48ü`65
  0
LINE
  5
4B3D
  8
250
 10
132.77000000000001
 20
-48.628333333333273
 30
0.0
 11
135.0
 21
-48.99999999999995
 31
0.0
  0
LINE
  5
4B3E
  8
250
 10
132.77000000000001
 20
-49.371666666666613
 30
0.0
 11
135.0
 21
-48.99999999999995
 31
0.0
  0
LINE
  5
4B3F
  8
250
 10
135.0
 20
-48.99999999999995
 30
0.0
 11
132.77000000000001
 21
-48.99999999999995
 31
0.0
  0
LINE
  5
4B40
  8
250
 10
84.850952153370798
 20
-49.371666666666613
 30
0.0
 11
82.620952153370808
 21
-48.99999999999995
 31
0.0
  0
LINE
  5
4B41
  8
250
 10
84.850952153370798
 20
-48.628333333333273
 30
0.0
 11
82.620952153370808
 21
-48.99999999999995
 31
0.0
  0
LINE
  5
4B42
  8
250
 10
82.620952153370808
 20
-48.99999999999995
 30
0.0
 11
84.850952153370798
 21
-48.99999999999995
 31
0.0
  0
TEXT
  5
4B43
  8
250
 10
108.0833333333336
 20
57.0
 30
0.0
 40
2.7999999999999989
  1
44.5
  0
LINE
  5
4B44
  8
250
 10
132.77000000000001
 20
56.37166666666667
 30
0.0
 11
135.0
 21
56.0
 31
0.0
  0
LINE
  5
4B45
  8
250
 10
132.77000000000001
 20
55.62833333333333
 30
0.0
 11
135.0
 21
56.0
 31
0.0
  0
LINE
  5
4B46
  8
250
 10
135.0
 20
56.0
 30
0.0
 11
132.77000000000001
 21
56.0
 31
0.0
  0
LINE
  5
4B47
  8
250
 10
92.730000000000615
 20
55.62833333333333
 30
0.0
 11
90.500000000000611
 21
56.0
 31
0.0
  0
LINE
  5
4B48
  8
250
 10
92.730000000000615
 20
56.37166666666667
 30
0.0
 11
90.500000000000611
 21
56.0
 31
0.0
  0
LINE
  5
4B49
  8
250
 10
90.500000000000611
 20
56.0
 30
0.0
 11
92.730000000000615
 21
56.0
 31
0.0
  0
TEXT
  5
4B4A
  8
250
 10
40.583333333333528
 20
57.0
 30
0.0
 40
2.7999999999999989
  1
90.5
  0
LINE
  5
4B4B
  8
250
 10
88.270000000000621
 20
56.37166666666667
 30
0.0
 11
90.500000000000625
 21
56.0
 31
0.0
  0
LINE
  5
4B4C
  8
250
 10
88.270000000000621
 20
55.62833333333333
 30
0.0
 11
90.500000000000625
 21
56.0
 31
0.0
  0
LINE
  5
4B4D
  8
250
 10
90.500000000000625
 20
56.0
 30
0.0
 11
88.270000000000621
 21
56.0
 31
0.0
  0
LINE
  5
4B4E
  8
250
 10
2.2299999999997731
 20
55.62833333333333
 30
0.0
 11
-0.0000000000002258
 21
56.0
 31
0.0
  0
LINE
  5
4B4F
  8
250
 10
2.2299999999997731
 20
56.37166666666667
 30
0.0
 11
-0.0000000000002258
 21
56.0
 31
0.0
  0
LINE
  5
4B50
  8
250
 10
-0.0000000000002258
 20
56.0
 30
0.0
 11
2.2299999999997731
 21
56.0
 31
0.0
  0
TEXT
  5
4B51
  8
250
 10
63.299999999999883
 20
64.000000000000014
 30
0.0
 40
2.7999999999999989
  1
135
  0
LINE
  5
4B52
  8
250
 10
132.77000000000001
 20
63.37166666666667
 30
0.0
 11
135.0
 21
63.0
 31
0.0
  0
LINE
  5
4B53
  8
250
 10
132.77000000000001
 20
62.62833333333333
 30
0.0
 11
135.0
 21
63.0
 31
0.0
  0
LINE
  5
4B54
  8
250
 10
135.0
 20
63.0
 30
0.0
 11
132.77000000000001
 21
63.0
 31
0.0
  0
LINE
  5
4B55
  8
250
 10
2.2299999999997739
 20
62.62833333333333
 30
0.0
 11
-0.0000000000002254
 21
63.0
 31
0.0
  0
LINE
  5
4B56
  8
250
 10
2.2299999999997739
 20
63.37166666666667
 30
0.0
 11
-0.0000000000002254
 21
63.0
 31
0.0
  0
LINE
  5
4B57
  8
250
 10
-0.0000000000002254
 20
63.0
 30
0.0
 11
2.2299999999997739
 21
63.0
 31
0.0
  0
LINE
  5
4B58
  8
250
 10
-19.286696129993778
 20
-25.337651840442891
 30
0.0
 11
-23.037048729999999
 21
-31.833453089999999
 31
0.0
1001
ACAD
1000
DSTYLE
1002
{
1070
     6
1000
OPEN
1070
   343
1005
594
1002
}
  0
LINE
  5
4B59
  8
250
 10
-19.608568905067589
 20
-25.15181850711059
 30
0.0
 11
-18.171696130000001
 21
-23.406415190000001
 31
0.0
  0
LINE
  5
4B5A
  8
250
 10
-18.964823354919972
 20
-25.523485173775189
 30
0.0
 11
-18.171696130000001
 21
-23.406415190000001
 31
0.0
  0
LINE
  5
4B5B
  8
250
 10
-18.171696130000001
 20
-23.406415190000001
 30
0.0
 11
-19.286696129993778
 21
-25.337651840442891
 31
0.0
  0
VIEWPORT
  5
22
 67
     1
  8
0
 10
261.51769911504419
 20
148.5
 30
0.0
 40
523.0353982300885
 41
297.0
 68
     1
 69
     1
1001
ACAD
1000
MVIEW
1002
{
1070
    16
1010
0.0
1020
0.0
1030
0.0
1010
0.0
1020
0.0
1030
1.0
1040
0.0
1040
297.0
1040
261.51769911504419
1040
148.5
1040
50.0
1040
0.0
1040
0.0
1070
     0
1070
   100
1070
     1
1070
     1
1070
     0
1070
     0
1070
     0
1070
     0
1040
0.0
1040
0.0
1040
0.0
1040
1.0
1040
1.0
1040
10.0
1040
10.0
1070
     0
1002
{
1002
}
1002
}
1001
GENIUS_GENODEF_13
1002
{
1000
HIER
1070
     0
1002
}
1002
{
1000
MANEDIT
1070
     0
1002
}
1002
{
1000
NOSEL
1070
     0
1002
}
1002
{
1000
BEHIND
1070
     0
1002
}
1002
{
1000
OTHER
1070
     0
1002
}
1002
{
1000
REACTOR
1002
}
1001
GENIUS_GENOBJ-N-SDF_13
1002
{
1000
OWNER
1000
GEN
1002
}
1001
GENIUS_GENSCREG_15
1000
PF
1040
1.0
1000
DF
1040
1.0
1000
MIN
1011
0.0
1021
0.0
1031
0.0
1021
0.0
1031
0.0
1000
MAX
1011
523.0353982300885
1021
0.0
1031
0.0
1021
297.0
1031
0.0
1000
FLAGS
1070
     4
  0
ENDSEC
  0
EOF
