  0
SECTION
  2
HEADER
  9
$ACADVER
  1
AC1009
  9
$INSBASE
 10
0.0
 20
0.0
 30
0.0
  9
$EXTMIN
 10
-47.303715400000002
 20
-43.000000000000028
 30
0.0
  9
$EXTMAX
 10
136.99999999999761
 20
68.000000000000014
 30
0.0
  9
$LIMMIN
 10
0.0
 20
0.0
  9
$LIMMAX
 10
297.0
 20
210.0
  9
$ORTHOMODE
 70
     0
  9
$REGENMODE
 70
     1
  9
$FILLMODE
 70
     1
  9
$QTEXTMODE
 70
     0
  9
$MIRRTEXT
 70
     1
  9
$DRAGMODE
 70
     2
  9
$LTSCALE
 40
10.0
  9
$OSMODE
 70
    63
  9
$ATTMODE
 70
     1
  9
$TEXTSIZE
 40
3.0
  9
$TRACEWID
 40
1.0
  9
$TEXTSTYLE
  7
YOKO
  9
$CLAYER
  8
240
  9
$CELTYPE
  6
BYLAYER
  9
$CECOLOR
 62
   256
  9
$DIMSCALE
 40
1.0
  9
$DIMASZ
 40
2.2299999999999991
  9
$DIMEXO
 40
0.5
  9
$DIMDLI
 40
7.0
  9
$DIMRND
 40
0.0
  9
$DIMDLE
 40
0.0
  9
$DIMEXE
 40
1.0
  9
$DIMTP
 40
0.0
  9
$DIMTM
 40
0.01
  9
$DIMTXT
 40
2.7999999999999989
  9
$DIMCEN
 40
0.0
  9
$DIMTSZ
 40
0.0
  9
$DIMTOL
 70
     0
  9
$DIMLIM
 70
     0
  9
$DIMTIH
 70
     0
  9
$DIMTOH
 70
     0
  9
$DIMSE1
 70
     0
  9
$DIMSE2
 70
     0
  9
$DIMTAD
 70
     3
  9
$DIMZIN
 70
     9
  9
$DIMBLK
  1
OPEN
  9
$DIMASO
 70
     1
  9
$DIMSHO
 70
     1
  9
$DIMPOST
  1

  9
$DIMAPOST
  1

  9
$DIMALT
 70
     0
  9
$DIMALTD
 70
     2
  9
$DIMALTF
 40
25.399999999999999
  9
$DIMLFAC
 40
1.0
  9
$DIMTOFL
 70
     1
  9
$DIMTVP
 40
0.0
  9
$DIMTIX
 70
     1
  9
$DIMSOXD
 70
     0
  9
$DIMSAH
 70
     0
  9
$DIMBLK1
  1

  9
$DIMBLK2
  1

  9
$DIMSTYLE
  2
BIGT
  9
$DIMCLRD
 70
   256
  9
$DIMCLRE
 70
   256
  9
$DIMCLRT
 70
    40
  9
$DIMTFAC
 40
1.0
  9
$DIMGAP
 40
1.0
  9
$LUNITS
 70
     2
  9
$LUPREC
 70
     6
  9
$SKETCHINC
 40
1.0
  9
$FILLETRAD
 40
0.0
  9
$AUNITS
 70
     0
  9
$AUPREC
 70
     6
  9
$MENU
  1
.
  9
$ELEVATION
 40
0.0
  9
$PELEVATION
 40
0.0
  9
$THICKNESS
 40
0.0
  9
$LIMCHECK
 70
     0
  9
$BLIPMODE
 70
     0
  9
$CHAMFERA
 40
0.2
  9
$CHAMFERB
 40
0.2
  9
$SKPOLY
 70
     0
  9
$TDCREATE
 40
2457242.3592007868
  9
$TDUPDATE
 40
2457242.3856138778
  9
$TDINDWG
 40
0.0064121991
  9
$TDUSRTIMER
 40
0.0064121644
  9
$USRTIMER
 70
     1
  9
$ANGBASE
 50
0.0
  9
$ANGDIR
 70
     0
  9
$PDMODE
 70
     1
  9
$PDSIZE
 40
0.0
  9
$PLINEWID
 40
0.0
  9
$COORDS
 70
     1
  9
$SPLFRAME
 70
     0
  9
$SPLINETYPE
 70
     6
  9
$SPLINESEGS
 70
     4
  9
$ATTDIA
 70
     1
  9
$ATTREQ
 70
     1
  9
$HANDLING
 70
     1
  9
$HANDSEED
  5
4B4E
  9
$SURFTAB1
 70
     6
  9
$SURFTAB2
 70
     6
  9
$SURFTYPE
 70
     6
  9
$SURFU
 70
     6
  9
$SURFV
 70
     6
  9
$UCSNAME
  2

  9
$UCSORG
 10
0.0
 20
0.0
 30
0.0
  9
$UCSXDIR
 10
1.0
 20
0.0
 30
0.0
  9
$UCSYDIR
 10
0.0
 20
1.0
 30
0.0
  9
$PUCSNAME
  2

  9
$PUCSORG
 10
0.0
 20
0.0
 30
0.0
  9
$PUCSXDIR
 10
1.0
 20
0.0
 30
0.0
  9
$PUCSYDIR
 10
0.0
 20
1.0
 30
0.0
  9
$USERI1
 70
     1
  9
$USERI2
 70
     0
  9
$USERI3
 70
     0
  9
$USERI4
 70
     0
  9
$USERI5
 70
     0
  9
$USERR1
 40
0.0
  9
$USERR2
 40
0.0
  9
$USERR3
 40
0.0
  9
$USERR4
 40
0.0
  9
$USERR5
 40
0.0
  9
$WORLDVIEW
 70
     1
  9
$SHADEDGE
 70
     3
  9
$SHADEDIF
 70
    70
  9
$TILEMODE
 70
     1
  9
$MAXACTVP
 70
    16
  9
$PLIMCHECK
 70
     0
  9
$PEXTMIN
 10
1.0000000000000000E+020
 20
1.0000000000000000E+020
 30
1.0000000000000000E+020
  9
$PEXTMAX
 10
-1.0000000000000000E+020
 20
-1.0000000000000000E+020
 30
-1.0000000000000000E+020
  9
$PLIMMIN
 10
0.0
 20
0.0
  9
$PLIMMAX
 10
420.0
 20
297.0
  9
$UNITMODE
 70
     0
  9
$VISRETAIN
 70
     1
  9
$PLINEGEN
 70
     0
  9
$PSLTSCALE
 70
     1
  0
ENDSEC
  0
SECTION
  2
TABLES
  0
TABLE
  2
VPORT
 70
     1
  0
VPORT
  2
*ACTIVE
 70
     0
 10
0.0
 20
0.0
 11
1.0
 21
1.0
 12
44.84502467972343
 22
14.561125760208011
 13
0.0
 23
0.0
 14
7.0
 24
7.0
 15
7.0
 25
7.0
 16
0.0
 26
0.0
 36
1.0
 17
0.0
 27
0.0
 37
0.0
 40
129.0215011793893
 41
1.4355016538037479
 42
50.0
 43
0.0
 44
0.0
 50
0.0
 51
0.0
 71
     0
 72
  2000
 73
     1
 74
     0
 75
     1
 76
     1
 77
     0
 78
     0
  0
ENDTAB
  0
TABLE
  2
LTYPE
 70
    13
  0
LTYPE
  2
CONTINUOUS
 70
     0
  3
Solid line
 72
    65
 73
     0
 40
0.0
  0
LTYPE
  2
CENTER2
 70
     0
  3
___ _ ___ _ ___ _ ___ _ ___ _ ___ _ ___ _ ___ _
 72
    65
 73
     4
 40
1.125
 49
0.75
 49
-0.125
 49
0.125
 49
-0.125
  0
LTYPE
  2
HIDDEN2
 70
     0
  3
_ _ _ _ _ _ _ _ _ _ _ _ _ _ _ _ _ _ _ _ _ _ _ _
 72
    65
 73
     2
 40
0.1875
 49
0.125
 49
-0.0625
  0
LTYPE
  2
PHANTOM2
 70
     0
  3
___ _ _ ___ _ _ ___ _ _ ___ _ _ ___ _ _ ___ _ _
 72
    65
 73
     6
 40
1.25
 49
0.625
 49
-0.125
 49
0.125
 49
-0.125
 49
0.125
 49
-0.125
  0
LTYPE
  2
AM_ISO02W050
 70
     0
  3
__ __ __ __ __ __ __ __ __ __ __ __ __ __ __
 72
    65
 73
     2
 40
7.5
 49
6.0
 49
-1.5
  0
LTYPE
  2
AMCONSTR
 70
     0
  3
_______________________
 72
    65
 73
     2
 40
9999.0
 49
9999.0
 49
0.0
  0
LTYPE
  2
ACISOWELD
 70
     0
  3
_ _ _ _ _
 72
    65
 73
     2
 40
2.0
 49
2.0
 49
-1.0
  0
LTYPE
  2
ACISOTGB
 70
     0
  3
__ . . __ . .
 72
    65
 73
     6
 40
9.0
 49
4.0
 49
-1.0
 49
1.0
 49
-1.0
 49
1.0
 49
-1.0
  0
LTYPE
  2
ACISOTGL
 70
     0
  3
_ _ _ _ _
 72
    65
 73
     2
 40
3.0
 49
2.0
 49
-1.0
  0
LTYPE
  2
ACJISTGB
 70
     0
  3
__ . . __ . .
 72
    65
 73
     6
 40
9.0
 49
4.0
 49
-1.0
 49
1.0
 49
-1.0
 49
1.0
 49
-1.0
  0
LTYPE
  2
ACJISTGL
 70
     0
  3
_ _ _ _ _
 72
    65
 73
     2
 40
3.0
 49
2.0
 49
-1.0
  0
ENDTAB
  0
TABLE
  2
LAYER
 70
    11
  0
LAYER
  2
0
 70
     0
 62
     7
  6
CONTINUOUS
  0
LAYER
  2
DEFPOINTS
 70
     0
 62
     7
  6
CONTINUOUS
  0
LAYER
  2
245
 70
     0
 62
     2
  6
CENTER2
  0
LAYER
  2
240
 70
     0
 62
     4
  6
CONTINUOUS
  0
LAYER
  2
241
 70
     0
 62
   211
  6
CONTINUOUS
  0
LAYER
  2
242
 70
     0
 62
     3
  6
CONTINUOUS
  0
LAYER
  2
243
 70
     0
 62
   211
  6
HIDDEN2
  0
LAYER
  2
244
 70
     0
 62
     3
  6
HIDDEN2
  0
LAYER
  2
246
 70
     0
 62
     3
  6
PHANTOM2
  0
LAYER
  2
247
 70
     0
 62
    60
  6
CONTINUOUS
  0
LAYER
  2
250
 70
     0
 62
     3
  6
CONTINUOUS
  0
ENDTAB
  0
TABLE
  2
STYLE
 70
     6
  0
STYLE
  2
STANDARD
 70
     0
 40
0.0
 41
1.0
 50
0.0
 71
     0
 42
3.0
  3
romans.shx
  4
extfont.shx
  0
STYLE
  2
ACISOTS
 70
     0
 40
1.0
 41
1.0
 50
0.0
 71
     0
 42
3.0
  3
amgdt.shx
  4
extfont.shx
  0
STYLE
  2
ACISOGDT
 70
     0
 40
0.0
 41
1.0
 50
0.0
 71
     0
 42
3.0
  3
amgdt.shx
  4
extfont.shx
  0
STYLE
  2
ACJISTS
 70
     0
 40
1.0
 41
1.0
 50
0.0
 71
     0
 42
3.0
  3
amgdt.shx
  4
extfont.shx
  0
STYLE
  2
ACJISGDT
 70
     0
 40
0.0
 41
1.0
 50
0.0
 71
     0
 42
3.0
  3
amgdt.shx
  4
extfont.shx
  0
STYLE
  2
YOKO
 70
     0
 40
0.0
 41
1.0
 50
0.0
 71
     0
 42
3.0
  3
romans.shx
  4
extfont.shx
  0
ENDTAB
  0
TABLE
  2
VIEW
 70
     0
  0
ENDTAB
  0
TABLE
  2
UCS
 70
     0
  0
ENDTAB
  0
TABLE
  2
APPID
 70
    35
  0
APPID
  2
ACAD
 70
     0
  0
APPID
  2
GLOBAL
 70
     0
  0
APPID
  2
DETAIL
 70
     0
  0
APPID
  2
GRPNAME
 70
     0
  0
APPID
  2
GPARA
 70
     0
  0
APPID
  2
MCAD_NO_VIS
 70
     0
  0
APPID
  2
ACAD_TEMP_GRAPHIC
 70
     0
  0
APPID
  2
ACATTRIBSERVICES
 70
     0
  0
APPID
  2
GENIUS_GENSCREG_15
 70
     0
  0
APPID
  2
GENIUS_GENODEF_13
 70
     0
  0
APPID
  2
GENIUS_GENOBJ-N-SDF_13
 70
     0
  0
APPID
  2
GENIUS_GENREC_14
 70
     0
  0
APPID
  2
GENIUS_GENOBJ-N-REC_13
 70
     0
  0
APPID
  2
GENIUS_GENDIMSH_14
 70
     0
  0
APPID
  2
GENIUS_GENOBJ-N-DIM_13
 70
     0
  0
APPID
  2
GENIUS_GENDIM_13
 70
     0
  0
APPID
  2
GENIUS_GENDTOL_13
 70
     0
  0
APPID
  2
GENIUS_GENOLIS_13
 70
     0
  0
APPID
  2
GENIUS_GENOENT_13
 70
     0
  0
APPID
  2
GENIUS_GENOBJ-F-FEM_13
 70
     0
  0
APPID
  2
GENIUS_GENOREF_13
 70
     0
  0
APPID
  2
GENIUS_GEFFEM_13
 70
     0
  0
APPID
  2
GENIUS_GEFFEMP_13
 70
     0
  0
APPID
  2
AD_DRAW
 70
     0
  0
APPID
  2
DESIGNERASSEMBLIES
 70
     0
  0
APPID
  2
ACADM_DIM_EDIT
 70
     0
  0
APPID
  2
AMDT_DM_ADJ
 70
     0
  0
APPID
  2
ITEMNAME
 70
     0
  0
APPID
  2
GENIUS_GENOBJ-N-FIL_13
 70
     0
  0
APPID
  2
GENIUS_GENFIL_13
 70
     0
  0
APPID
  2
GENIUS_GENOBJ-N-CHA_13
 70
     0
  0
APPID
  2
ACAD_NAV_VCDISPLAY
 70
     0
  0
APPID
  2
ACAD_DSTYLE_DIMINSPECT
 70
     0
  0
APPID
  2
ACAD_EXEMPT_FROM_CAD_STANDARDS
 70
     0
  0
APPID
  2
ACAD_MLEADERVER
 70
     0
  0
ENDTAB
  0
TABLE
  2
DIMSTYLE
 70
    23
  0
DIMSTYLE
  2
BIGT
 70
     0
  3

  4

  5
OPEN
  6

  7

 40
1.0
 41
2.2299999999999991
 42
0.5
 43
7.0
 44
1.0
 45
0.0
 46
0.0
 47
0.0
 48
0.01
140
2.7999999999999989
141
0.0
142
0.0
143
25.399999999999999
144
1.0
145
0.0
146
1.0
147
1.0
 71
     0
 72
     0
 73
     0
 74
     0
 75
     0
 76
     0
 77
     3
 78
     9
170
     0
171
     2
172
     1
173
     0
174
     1
175
     0
176
   256
177
   256
178
    40
  0
DIMSTYLE
  2
AM_ISO
 70
     0
  3

  4
"
  5

  6

  7

 40
1.0
 41
2.5
 42
1.0
 43
10.0
 44
1.0
 45
0.0
 46
0.0
 47
0.1
 48
0.1
140
3.5
141
0.0
142
0.0
143
0.0393701
144
1.0
145
0.0
146
0.71
147
1.5
 71
     0
 72
     0
 73
     0
 74
     0
 75
     0
 76
     0
 77
     1
 78
     8
170
     0
171
     2
172
     1
173
     0
174
     0
175
     0
176
   256
177
   256
178
     2
  0
DIMSTYLE
  2
AM_ISO$3
 70
     0
  3

  4
"
  5

  6

  7

 40
1.0
 41
2.5
 42
1.0
 43
10.0
 44
1.0
 45
0.0
 46
0.0
 47
0.1
 48
0.1
140
3.5
141
0.0
142
0.0
143
0.0393701
144
1.0
145
0.0
146
0.71
147
1.5
 71
     0
 72
     0
 73
     0
 74
     1
 75
     0
 76
     0
 77
     1
 78
     8
170
     0
171
     2
172
     0
173
     0
174
     0
175
     0
176
   256
177
   256
178
     2
  0
DIMSTYLE
  2
AM_ISO$4
 70
     0
  3

  4
"
  5

  6

  7

 40
1.0
 41
2.5
 42
1.0
 43
10.0
 44
1.0
 45
0.0
 46
0.0
 47
0.1
 48
0.1
140
3.5
141
0.0
142
0.0
143
0.0393701
144
1.0
145
0.0
146
0.71
147
1.5
 71
     0
 72
     0
 73
     0
 74
     1
 75
     0
 76
     0
 77
     1
 78
     8
170
     0
171
     2
172
     0
173
     0
174
     0
175
     0
176
   256
177
   256
178
     2
  0
DIMSTYLE
  2
AM_ISO$6
 70
     0
  3

  4
"
  5

  6

  7

 40
1.0
 41
2.5
 42
1.0
 43
10.0
 44
1.0
 45
0.0
 46
0.0
 47
0.1
 48
0.1
140
3.5
141
0.0
142
0.0
143
0.0393701
144
1.0
145
0.0
146
0.71
147
1.5
 71
     0
 72
     0
 73
     0
 74
     0
 75
     0
 76
     0
 77
     0
 78
     8
170
     0
171
     2
172
     1
173
     0
174
     0
175
     0
176
   256
177
   256
178
     2
  0
DIMSTYLE
  2
AM_ISO$7
 70
     0
  3

  4
"
  5

  6

  7

 40
1.0
 41
2.5
 42
1.0
 43
10.0
 44
1.0
 45
0.0
 46
0.0
 47
0.1
 48
0.1
140
5.0
141
0.0
142
0.0
143
0.0393701
144
1.0
145
0.0
146
0.71
147
1.5
 71
     0
 72
     0
 73
     0
 74
     0
 75
     0
 76
     0
 77
     1
 78
     8
170
     0
171
     2
172
     1
173
     0
174
     0
175
     0
176
   256
177
   256
178
     2
  0
DIMSTYLE
  2
AM_ISO$SF
 70
     0
  3

  4
"
  5

  6

  7

 40
1.0
 41
2.5
 42
1.0
 43
10.0
 44
1.0
 45
0.0
 46
0.0
 47
0.1
 48
0.1
140
3.5
141
0.0
142
0.0
143
0.0393701
144
1.0
145
0.0
146
0.71
147
1.5
 71
     0
 72
     0
 73
     0
 74
     0
 75
     1
 76
     1
 77
     1
 78
     8
170
     0
171
     2
172
     1
173
     0
174
     0
175
     0
176
   256
177
   256
178
     2
  0
DIMSTYLE
  2
AM_ISO$SH
 70
     0
  3

  4
"
  5

  6
GENAXEH
  7

 40
1.0
 41
2.5
 42
1.0
 43
10.0
 44
1.0
 45
0.0
 46
0.0
 47
0.1
 48
0.1
140
3.5
141
0.0
142
0.0
143
0.0393701
144
2.0
145
0.0
146
0.71
147
1.5
 71
     0
 72
     0
 73
     0
 74
     0
 75
     1
 76
     1
 77
     1
 78
     8
170
     0
171
     2
172
     1
173
     1
174
     0
175
     0
176
   256
177
   256
178
     2
  0
DIMSTYLE
  2
BIGT$2
 70
     0
  3

  4

  5
OPEN
  6

  7

 40
1.0
 41
2.2299999999999991
 42
0.5
 43
7.0
 44
1.0
 45
0.0
 46
0.0
 47
0.0
 48
0.01
140
2.7999999999999989
141
0.0
142
0.0
143
25.399999999999999
144
1.0
145
0.0
146
1.0
147
1.0
 71
     0
 72
     0
 73
     0
 74
     0
 75
     0
 76
     0
 77
     3
 78
     9
170
     0
171
     2
172
     1
173
     0
174
     0
175
     0
176
   256
177
   256
178
    40
  0
DIMSTYLE
  2
BIGT$3
 70
     0
  3

  4

  5
OPEN
  6

  7

 40
1.0
 41
2.2299999999999991
 42
0.5
 43
2.5
 44
1.0
 45
0.0
 46
0.0
 47
0.0
 48
0.01
140
2.7999999999999989
141
0.0
142
0.0
143
25.399999999999999
144
1.0
145
0.0
146
1.0
147
1.0
 71
     0
 72
     0
 73
     0
 74
     0
 75
     0
 76
     0
 77
     3
 78
     9
170
     0
171
     2
172
     1
173
     0
174
     0
175
     0
176
   256
177
   256
178
    40
  0
DIMSTYLE
  2
BIGT$7
 70
     0
  3

  4

  5
OPEN
  6

  7

 40
0.0
 41
2.2299999999999991
 42
0.5
 43
7.0
 44
1.0
 45
0.0
 46
0.0
 47
0.0
 48
0.01
140
2.7999999999999989
141
0.0
142
0.0
143
25.399999999999999
144
1.0
145
0.0
146
1.0
147
1.0
 71
     0
 72
     0
 73
     0
 74
     0
 75
     0
 76
     0
 77
     3
 78
     9
170
     0
171
     2
172
     0
173
     0
174
     0
175
     0
176
   256
177
   256
178
    40
  0
DIMSTYLE
  2
BIGT$6
 70
     0
  3

  4

  5
OPEN
  6

  7

 40
1.0
 41
2.2299999999999991
 42
0.5
 43
2.5
 44
1.0
 45
0.0
 46
0.0
 47
0.0
 48
0.01
140
2.7999999999999989
141
0.0
142
0.0
143
25.399999999999999
144
1.0
145
0.0
146
1.0
147
1.0
 71
     0
 72
     0
 73
     0
 74
     0
 75
     0
 76
     0
 77
     3
 78
     9
170
     0
171
     2
172
     1
173
     0
174
     0
175
     0
176
   256
177
   256
178
    40
  0
DIMSTYLE
  2
BIGT$0
 70
     0
  3

  4

  5
OPEN
  6

  7

 40
1.0
 41
2.2299999999999991
 42
0.5
 43
7.0
 44
1.0
 45
0.0
 46
0.0
 47
0.0
 48
0.01
140
2.7999999999999989
141
0.0
142
0.0
143
25.399999999999999
144
1.0
145
0.0
146
1.0
147
1.0
 71
     0
 72
     0
 73
     0
 74
     0
 75
     0
 76
     0
 77
     3
 78
     9
170
     0
171
     2
172
     1
173
     0
174
     1
175
     0
176
   256
177
   256
178
    40
  0
DIMSTYLE
  2
BIGT$4
 70
     0
  3

  4

  5
OPEN
  6

  7

 40
1.0
 41
2.2299999999999991
 42
0.5
 43
2.5
 44
1.0
 45
0.0
 46
0.0
 47
0.0
 48
0.01
140
2.7999999999999989
141
0.0
142
0.0
143
25.399999999999999
144
1.0
145
0.0
146
1.0
147
1.0
 71
     0
 72
     0
 73
     0
 74
     0
 75
     0
 76
     0
 77
     3
 78
     9
170
     0
171
     2
172
     1
173
     0
174
     0
175
     0
176
   256
177
   256
178
    40
  0
DIMSTYLE
  2
BIGT$SH
 70
     0
  3

  4

  5
OPEN
  6

  7

 40
1.0
 41
2.2299999999999991
 42
0.5
 43
7.0
 44
1.0
 45
0.0
 46
0.0
 47
0.0
 48
0.0
140
2.7999999999999989
141
0.0
142
0.0
143
25.399999999999999
144
1.0
145
0.0
146
1.0
147
1.0
 71
     0
 72
     0
 73
     0
 74
     0
 75
     0
 76
     0
 77
     3
 78
     9
170
     0
171
     2
172
     1
173
     0
174
     0
175
     0
176
   256
177
   256
178
    40
  0
DIMSTYLE
  2
BIGT$SF
 70
     0
  3

  4

  5
OPEN
  6

  7

 40
1.0
 41
2.2299999999999991
 42
0.5
 43
7.0
 44
1.0
 45
0.0
 46
0.0
 47
0.0
 48
0.0
140
2.7999999999999989
141
0.0
142
0.0
143
25.399999999999999
144
1.0
145
0.0
146
1.0
147
1.0
 71
     0
 72
     0
 73
     0
 74
     0
 75
     0
 76
     0
 77
     3
 78
     9
170
     0
171
     2
172
     1
173
     0
174
     0
175
     0
176
   256
177
   256
178
    40
  0
DIMSTYLE
  2
TECHNICAL_OSAKA
 70
     0
  3

  4
"
  5
OPEN30
  6

  7

 40
1.0
 41
2.5
 42
1.0
 43
10.0
 44
1.0
 45
0.0
 46
0.0
 47
0.1
 48
0.1
140
2.7999999999999989
141
0.0
142
0.0
143
0.0393701
144
1.0
145
0.0
146
0.71
147
1.5
 71
     0
 72
     0
 73
     0
 74
     0
 75
     0
 76
     0
 77
     3
 78
     8
170
     0
171
     2
172
     1
173
     0
174
     0
175
     0
176
   256
177
   256
178
    40
  0
DIMSTYLE
  2
TECHNICAL_OSAKA$3
 70
     0
  3

  4
"
  5
OPEN30
  6

  7

 40
1.0
 41
2.5
 42
1.0
 43
10.0
 44
1.0
 45
0.0
 46
0.0
 47
0.1
 48
0.1
140
2.7999999999999989
141
0.0
142
0.0
143
0.0393701
144
1.0
145
0.0
146
0.71
147
1.5
 71
     0
 72
     0
 73
     0
 74
     1
 75
     0
 76
     0
 77
     3
 78
     8
170
     0
171
     2
172
     0
173
     0
174
     0
175
     0
176
   256
177
   256
178
    40
  0
DIMSTYLE
  2
TECHNICAL_OSAKA$4
 70
     0
  3

  4
"
  5
OPEN30
  6

  7

 40
1.0
 41
2.5
 42
1.0
 43
10.0
 44
1.0
 45
0.0
 46
0.0
 47
0.1
 48
0.1
140
2.7999999999999989
141
0.0
142
0.0
143
0.0393701
144
1.0
145
0.0
146
0.71
147
1.5
 71
     0
 72
     0
 73
     0
 74
     1
 75
     0
 76
     0
 77
     3
 78
     8
170
     0
171
     2
172
     0
173
     0
174
     0
175
     0
176
   256
177
   256
178
    40
  0
DIMSTYLE
  2
TECHNICAL_OSAKA$6
 70
     0
  3

  4
"
  5
OPEN30
  6

  7

 40
1.0
 41
2.5
 42
1.0
 43
10.0
 44
1.0
 45
0.0
 46
0.0
 47
0.1
 48
0.1
140
2.7999999999999989
141
0.0
142
0.0
143
0.0393701
144
1.0
145
0.0
146
0.71
147
1.5
 71
     0
 72
     0
 73
     0
 74
     0
 75
     0
 76
     0
 77
     0
 78
     8
170
     0
171
     2
172
     1
173
     0
174
     0
175
     0
176
   256
177
   256
178
    40
  0
DIMSTYLE
  2
TECHNICAL_OSAKA$7
 70
     0
  3

  4
"
  5
OPEN30
  6

  7

 40
1.0
 41
2.5
 42
1.0
 43
10.0
 44
1.0
 45
0.0
 46
0.0
 47
0.1
 48
0.1
140
2.7999999999999989
141
0.0
142
0.0
143
0.0393701
144
1.0
145
0.0
146
0.71
147
1.5
 71
     0
 72
     0
 73
     0
 74
     0
 75
     0
 76
     0
 77
     3
 78
     8
170
     0
171
     2
172
     1
173
     0
174
     0
175
     0
176
   256
177
   256
178
    40
  0
DIMSTYLE
  2
TECHNICAL_OSAKA$SF
 70
     0
  3

  4
"
  5
OPEN30
  6
OPEN30
  7
OPEN30
 40
1.0
 41
2.5
 42
1.0
 43
10.0
 44
1.0
 45
0.0
 46
0.0
 47
0.1
 48
0.1
140
3.5
141
0.0
142
0.0
143
0.0393701
144
1.0
145
0.0
146
0.71
147
1.5
 71
     0
 72
     0
 73
     0
 74
     0
 75
     1
 76
     1
 77
     3
 78
     8
170
     0
171
     2
172
     1
173
     0
174
     0
175
     0
176
   256
177
   256
178
    40
  0
DIMSTYLE
  2
TECHNICAL_OSAKA$SH
 70
     0
  3

  4
"
  5
OPEN30
  6
GENAXEH
  7
OPEN30
 40
1.0
 41
2.5
 42
1.0
 43
10.0
 44
1.0
 45
0.0
 46
0.0
 47
0.1
 48
0.1
140
3.5
141
0.0
142
0.0
143
0.0393701
144
2.0
145
0.0
146
0.71
147
1.5
 71
     0
 72
     0
 73
     0
 74
     0
 75
     1
 76
     1
 77
     3
 78
     8
170
     0
171
     2
172
     1
173
     1
174
     0
175
     0
176
   256
177
   256
178
    40
  0
ENDTAB
  0
ENDSEC
  0
SECTION
  2
BLOCKS
  0
BLOCK
  8
0
  2
$MODEL_SPACE
 70
     0
 10
0.0
 20
0.0
 30
0.0
  3
$MODEL_SPACE
  1

  0
ENDBLK
  5
1C
  8
0
  0
BLOCK
 67
     1
  8
0
  2
$PAPER_SPACE
 70
     0
 10
0.0
 20
0.0
 30
0.0
  3
$PAPER_SPACE
  1

  0
ENDBLK
  5
19
 67
     1
  8
0
  0
BLOCK
  8
0
  2
_OPEN
 70
     0
 10
0.0
 20
0.0
 30
0.0
  3
_OPEN
  1

  0
LINE
  5
4A5E
  8
0
  6
BYBLOCK
 62
     0
 10
-1.0
 20
0.1666666666666666
 30
0.0
 11
0.0
 21
0.0
 31
0.0
  0
LINE
  5
4A5F
  8
0
  6
BYBLOCK
 62
     0
 10
-1.0
 20
-0.1666666666666666
 30
0.0
 11
0.0
 21
0.0
 31
0.0
  0
LINE
  5
4A60
  8
0
  6
BYBLOCK
 62
     0
 10
0.0
 20
0.0
 30
0.0
 11
-1.0
 21
0.0
 31
0.0
  0
ENDBLK
  5
4A61
  8
0
  0
BLOCK
  8
0
  2
GENAXEH
 70
     0
 10
0.0
 20
0.0
 30
0.0
  3
GENAXEH
  1

  0
LINE
  5
4A99
  8
0
 10
-1.0
 20
0.0
 30
0.0
 11
1.0
 21
0.0
 31
0.0
  0
ENDBLK
  5
4A9A
  8
0
  0
BLOCK
  8
0
  2
_OPEN30
 70
     0
 10
0.0
 20
0.0
 30
0.0
  3
_OPEN30
  1

  0
LINE
  5
4AD5
  8
0
  6
BYBLOCK
 62
     0
 10
-1.0
 20
0.26794919
 30
0.0
 11
0.0
 21
0.0
 31
0.0
  0
LINE
  5
4AD6
  8
0
  6
BYBLOCK
 62
     0
 10
0.0
 20
0.0
 30
0.0
 11
-1.0
 21
-0.26794919
 31
0.0
  0
LINE
  5
4AD7
  8
0
  6
BYBLOCK
 62
     0
 10
0.0
 20
0.0
 30
0.0
 11
-1.0
 21
0.0
 31
0.0
  0
ENDBLK
  5
4AD8
  8
0
  0
ENDSEC
  0
SECTION
  2
ENTITIES
  0
LINE
  5
4436
  8
240
 10
45.028427124745569
 20
-28.500000000000121
 30
0.0
 11
52.249999999997613
 21
-28.500000000000121
 31
0.0
  0
ARC
  5
4437
  8
240
 10
45.028427124745569
 20
-26.50000000000011
 30
0.0
 40
2.0
 50
225.0
 51
270.0
1001
GENIUS_GENOBJ-N-FIL_13
1002
{
1000
OWNER
1000
GEN
1002
}
1001
GENIUS_GENODEF_13
1002
{
1000
HIER
1070
     0
1002
}
1002
{
1000
MANEDIT
1070
     0
1002
}
1002
{
1000
NOSEL
1070
     0
1002
}
1002
{
1000
BEHIND
1070
     0
1002
}
1002
{
1000
OTHER
1070
     0
1002
}
1002
{
1000
REACTOR
1002
}
  0
LINE
  5
4438
  8
240
 10
45.028427124745797
 20
28.49999999999989
 30
0.0
 11
52.249999999997613
 21
28.49999999999989
 31
0.0
  0
LINE
  5
4439
  8
240
 10
52.499999999997613
 20
28.249999999999879
 30
0.0
 11
52.249999999997613
 21
28.49999999999989
 31
0.0
1001
GENIUS_GENFIL_13
1070
     0
1040
0.25
1040
0.25
1040
0.5
1040
45.00000000000162
1002
{
1002
}
1001
GENIUS_GENODEF_13
1002
{
1000
HIER
1070
     0
1002
}
1002
{
1000
MANEDIT
1070
     0
1002
}
1002
{
1000
NOSEL
1070
     0
1002
}
1002
{
1000
BEHIND
1070
     0
1002
}
1002
{
1000
OTHER
1070
     0
1002
}
1002
{
1000
REACTOR
1002
}
1001
GENIUS_GENOBJ-N-CHA_13
1002
{
1000
OWNER
1000
GEN
1002
}
  0
LINE
  5
443A
  8
240
 10
52.249999999997613
 20
-28.500000000000121
 30
0.0
 11
52.499999999997613
 21
-28.250000000000121
 31
0.0
1001
GENIUS_GENFIL_13
1070
     0
1040
0.25
1040
0.25
1040
0.5
1040
45.00000000000162
1002
{
1002
}
1001
GENIUS_GENOBJ-N-CHA_13
1002
{
1000
OWNER
1000
GEN
1002
}
1001
GENIUS_GENODEF_13
1002
{
1000
HIER
1070
     0
1002
}
1002
{
1000
MANEDIT
1070
     0
1002
}
1002
{
1000
NOSEL
1070
     0
1002
}
1002
{
1000
BEHIND
1070
     0
1002
}
1002
{
1000
OTHER
1070
     0
1002
}
1002
{
1000
REACTOR
1002
}
  0
LINE
  5
443C
  8
241
 10
41.999999999999659
 20
-26.300000000000129
 30
0.0
 11
41.999999999999659
 21
-0.0000000000001705
 31
0.0
  0
LINE
  5
443D
  8
240
 10
42.29289321881302
 20
26.592893218813369
 30
0.0
 11
43.614213562372811
 21
27.914213562372989
 31
0.0
  0
ARC
  5
443E
  8
240
 10
41.585786437626517
 20
27.299999999999951
 30
0.0
 40
1.0
 50
270.0
 51
314.99999999999648
1001
GENIUS_GENODEF_13
1002
{
1000
HIER
1070
     0
1002
}
1002
{
1000
MANEDIT
1070
     0
1002
}
1002
{
1000
NOSEL
1070
     0
1002
}
1002
{
1000
BEHIND
1070
     0
1002
}
1002
{
1000
OTHER
1070
     0
1002
}
1002
{
1000
REACTOR
1002
}
1001
GENIUS_GENOBJ-N-FIL_13
1002
{
1000
OWNER
1000
GEN
1002
}
  0
ARC
  5
443F
  8
240
 10
45.028427124745797
 20
26.49999999999989
 30
0.0
 40
2.0
 50
90.0
 51
135.0
1001
GENIUS_GENOBJ-N-FIL_13
1002
{
1000
OWNER
1000
GEN
1002
}
1001
GENIUS_GENODEF_13
1002
{
1000
HIER
1070
     0
1002
}
1002
{
1000
MANEDIT
1070
     0
1002
}
1002
{
1000
NOSEL
1070
     0
1002
}
1002
{
1000
BEHIND
1070
     0
1002
}
1002
{
1000
OTHER
1070
     0
1002
}
1002
{
1000
REACTOR
1002
}
  0
LINE
  5
4440
  8
240
 10
42.292893218812743
 20
-26.592893218813462
 30
0.0
 11
43.614213562372463
 21
-27.91421356237322
 31
0.0
  0
ARC
  5
4441
  8
240
 10
41.585786437626183
 20
-27.300000000000011
 30
0.0
 40
1.0
 50
45.0
 51
90.0
1001
GENIUS_GENODEF_13
1002
{
1000
HIER
1070
     0
1002
}
1002
{
1000
MANEDIT
1070
     0
1002
}
1002
{
1000
NOSEL
1070
     0
1002
}
1002
{
1000
BEHIND
1070
     0
1002
}
1002
{
1000
OTHER
1070
     0
1002
}
1002
{
1000
REACTOR
1002
}
1001
GENIUS_GENOBJ-N-FIL_13
1002
{
1000
OWNER
1000
GEN
1002
}
  0
LINE
  5
4442
  8
241
 10
44.69999999999856
 20
-28.472849620151241
 30
0.0
 11
44.699999999998681
 21
28.472849620150981
 31
0.0
  0
LINE
  5
446C
  8
240
 10
25.999999999999989
 20
26.29999999999999
 30
0.0
 11
41.585786437626517
 21
26.299999999999951
 31
0.0
1001
GRPNAME
1000
PASTMD06
  0
LINE
  5
446D
  8
240
 10
26.0
 20
-26.29999999999999
 30
0.0
 11
41.585786437626183
 21
-26.300000000000011
 31
0.0
1001
GRPNAME
1000
PASTMD06
  0
LINE
  5
4483
  8
241
 10
26.5
 20
24.86991090062509
 30
0.0
 11
26.5
 21
10.437170179253339
 31
0.0
1001
GRPNAME
1000
PASTMD06
  0
LINE
  5
4484
  8
241
 10
26.5
 20
10.437170179253339
 30
0.0
 11
41.483124503702072
 21
10.437170179253339
 31
0.0
1001
GRPNAME
1000
PASTMD06
  0
LINE
  5
4485
  8
241
 10
26.5
 20
24.86991090062509
 30
0.0
 11
41.5
 21
24.86991090062509
 31
0.0
1001
GRPNAME
1000
PASTMD06
  0
LINE
  5
4486
  8
241
 10
41.5
 20
10.437170179253339
 30
0.0
 11
41.5
 21
24.86991090062509
 31
0.0
  0
LINE
  5
4487
  8
241
 10
42.0
 20
26.389820278875678
 30
0.0
 11
42.0
 21
-20.0
 31
0.0
1001
GRPNAME
1000
PASTMD06
  0
LINE
  5
4488
  8
242
 10
26.5
 20
10.437170179253339
 30
0.0
 11
41.5
 21
24.86991090062509
 31
0.0
1001
GRPNAME
1000
PASTMD06
  0
LINE
  5
4489
  8
242
 10
26.5
 20
24.86991090062509
 30
0.0
 11
41.483124503702072
 21
10.437170179253339
 31
0.0
1001
GRPNAME
1000
PASTMD06
  0
LINE
  5
44D8
  8
245
 10
-34.336912935692283
 20
0.0
 30
0.0
 11
118.9999999999999
 21
0.0
 31
0.0
1001
GRPNAME
1000
PASTMD0P
  0
LINE
  5
458B
  8
240
 10
98.999999999997627
 20
-14.49999999999997
 30
0.0
 11
99.499999999997613
 21
-14.99999999999997
 31
0.0
  0
LINE
  5
458C
  8
240
 10
98.999999999997627
 20
14.5
 30
0.0
 11
99.499999999997613
 21
15.0
 31
0.0
  0
ARC
  5
458D
  8
240
 10
95.499999999997598
 20
-14.0
 30
0.0
 40
1.0
 50
90.0
 51
180.0
  0
LINE
  5
458E
  8
240
 10
95.499999999997598
 20
-13.0
 30
0.0
 11
98.999999999997627
 21
-13.0
 31
0.0
  0
ARC
  5
458F
  8
240
 10
95.499999999997598
 20
14.00000000000003
 30
0.0
 40
1.0
 50
180.0
 51
270.0
  0
LINE
  5
4590
  8
240
 10
95.499999999997598
 20
13.00000000000003
 30
0.0
 11
98.999999999997627
 21
13.00000000000003
 31
0.0
  0
LINE
  5
4591
  8
240
 10
99.499999999997499
 20
16.70000000000001
 30
0.0
 11
99.499999999997499
 21
14.99999999999997
 31
0.0
  0
ARC
  5
4592
  8
240
 10
100.2999999999975
 20
16.70000000000001
 30
0.0
 40
0.799999999999983
 50
90.0
 51
180.0
  0
LINE
  5
4593
  8
240
 10
99.499999999997499
 20
-16.69999999999996
 30
0.0
 11
99.499999999997499
 21
-14.99999999999994
 31
0.0
  0
ARC
  5
4594
  8
240
 10
100.2999999999975
 20
-16.69999999999996
 30
0.0
 40
0.8000000000000113
 50
180.0
 51
270.0
  0
LINE
  5
4595
  8
240
 10
100.2999999999975
 20
17.5
 30
0.0
 11
113.41862915009899
 21
17.5
 31
0.0
  0
ARC
  5
4596
  8
240
 10
113.41862915009899
 20
16.70000000000001
 30
0.0
 40
0.7999999999999984
 50
45.0
 51
90.0
  0
LINE
  5
4597
  8
240
 10
100.2999999999975
 20
-17.499999999999972
 30
0.0
 11
113.41862915009899
 21
-17.500000000000028
 31
0.0
  0
ARC
  5
4598
  8
240
 10
113.41862915009899
 20
-16.70000000000001
 30
0.0
 40
0.7999999999999972
 50
270.0
 51
314.99999999999881
  0
LINE
  5
4599
  8
240
 10
114.7949747468282
 20
16.455025253169421
 30
0.0
 11
113.9843145750483
 21
17.26568542494925
 31
0.0
  0
ARC
  5
459A
  8
240
 10
114.2999999999975
 20
15.960050506338829
 30
0.0
 40
0.7000000000000171
 50
0.0
 51
45.000000000001151
  0
LINE
  5
459B
  8
240
 10
114.9999999999976
 20
15.960050506338829
 30
0.0
 11
114.9999999999976
 21
-15.960050506338829
 31
0.0
  0
LINE
  5
459C
  8
240
 10
113.9843145750483
 20
-17.26568542494925
 30
0.0
 11
114.7949747468282
 21
-16.455025253169421
 31
0.0
  0
ARC
  5
459D
  8
240
 10
114.2999999999975
 20
-15.960050506338829
 30
0.0
 40
0.7000000000000137
 50
315.0
 51
0.0
  0
LINE
  5
459E
  8
240
 10
98.999999999997627
 20
-14.49999999999997
 30
0.0
 11
98.999999999997627
 21
-13.0
 31
0.0
  0
LINE
  5
459F
  8
240
 10
98.999999999997627
 20
14.5
 30
0.0
 11
98.999999999997627
 21
13.00000000000003
 31
0.0
  0
LINE
  5
45A0
  8
241
 10
99.499999999997499
 20
14.99999999999997
 30
0.0
 11
99.499999999997613
 21
0.0
 31
0.0
  0
LINE
  5
45A1
  8
241
 10
99.499999999997499
 20
-14.99999999999994
 30
0.0
 11
99.499999999997613
 21
0.0000000000000284
 31
0.0
  0
LINE
  5
45A2
  8
241
 10
96.499999999997627
 20
12.50000000000003
 30
0.0
 11
96.499999999997627
 21
0.0000000000000284
 31
0.0
  0
LINE
  5
45A3
  8
241
 10
96.499999999997627
 20
-12.5
 30
0.0
 11
96.499999999997627
 21
0.0
 31
0.0
  0
LINE
  5
45A4
  8
241
 10
100.2999999999975
 20
17.5
 30
0.0
 11
100.2999999999975
 21
16.056144924913578
 31
0.0
  0
LINE
  5
45A5
  8
241
 10
100.2999999999975
 20
14.05614492491361
 30
0.0
 11
100.2999999999975
 21
2.0
 31
0.0
  0
LINE
  5
45A6
  8
241
 10
100.2999999999975
 20
-1.9999999999999709
 30
0.0
 11
100.2999999999975
 21
-14.05614492491355
 31
0.0
  0
LINE
  5
45A7
  8
241
 10
100.2999999999975
 20
-16.05614492491355
 30
0.0
 11
100.2999999999975
 21
-17.499999999999972
 31
0.0
  0
LINE
  5
45A8
  8
241
 10
113.41862915009899
 20
17.000946073793749
 30
0.0
 11
113.41862915009899
 21
-17.152317880794701
 31
0.0
  0
LINE
  5
45A9
  8
241
 10
94.499999999997613
 20
14.00000000000003
 30
0.0
 11
94.499999999997613
 21
0.0000000000000284
 31
0.0
  0
LINE
  5
45AA
  8
241
 10
94.499999999997613
 20
-14.0
 30
0.0
 11
94.499999999997613
 21
0.0
 31
0.0
  0
LINE
  5
45AB
  8
241
 10
98.999999999997627
 20
-13.0
 30
0.0
 11
98.999999999997627
 21
0.0000000000000284
 31
0.0
  0
LINE
  5
45AC
  8
241
 10
98.999999999997627
 20
13.00000000000003
 30
0.0
 11
98.999999999997627
 21
0.0
 31
0.0
  0
LINE
  5
45AD
  8
241
 10
108.4999999999976
 20
2.0
 30
0.0
 11
99.499999999997499
 21
2.0
 31
0.0
  0
LINE
  5
45AE
  8
241
 10
108.4999999999976
 20
-1.9999999999999709
 30
0.0
 11
99.499999999997499
 21
-1.9999999999999709
 31
0.0
  0
LINE
  5
45AF
  8
241
 10
108.4999999999976
 20
2.0
 30
0.0
 11
108.4999999999976
 21
0.0
 31
0.0
  0
LINE
  5
45B0
  8
241
 10
108.4999999999976
 20
-1.9999999999999709
 30
0.0
 11
108.4999999999976
 21
0.0000000000000284
 31
0.0
  0
LINE
  5
45B1
  8
241
 10
108.4999999999976
 20
-14.05614492491355
 30
0.0
 11
99.499999999997499
 21
-14.05614492491355
 31
0.0
  0
LINE
  5
45B2
  8
241
 10
108.4999999999976
 20
-16.05614492491355
 30
0.0
 11
99.499999999997499
 21
-16.05614492491355
 31
0.0
  0
LINE
  5
45B3
  8
241
 10
108.4999999999976
 20
-16.05614492491355
 30
0.0
 11
108.4999999999976
 21
-14.05614492491355
 31
0.0
  0
LINE
  5
45B4
  8
241
 10
108.4999999999976
 20
16.056144924913578
 30
0.0
 11
99.499999999997499
 21
16.056144924913578
 31
0.0
  0
LINE
  5
45B5
  8
241
 10
108.4999999999976
 20
14.05614492491361
 30
0.0
 11
99.499999999997499
 21
14.05614492491361
 31
0.0
  0
LINE
  5
45B6
  8
241
 10
108.4999999999976
 20
16.056144924913578
 30
0.0
 11
108.4999999999976
 21
14.05614492491361
 31
0.0
  0
LINE
  5
45B7
  8
242
 10
96.499999999997627
 20
12.50000000000003
 30
0.0
 11
95.999999999997613
 21
13.00000000000003
 31
0.0
  0
LINE
  5
45B8
  8
242
 10
96.499999999997627
 20
-12.5
 30
0.0
 11
95.999999999997613
 21
-13.0
 31
0.0
  0
LINE
  5
45B9
  8
242
 10
98.999999999997627
 20
12.50000000000003
 30
0.0
 11
96.499999999997627
 21
12.50000000000003
 31
0.0
  0
LINE
  5
45BA
  8
242
 10
98.999999999997627
 20
-12.49999999999997
 30
0.0
 11
96.499999999997627
 21
-12.49999999999997
 31
0.0
  0
LINE
  5
45BB
  8
246
 10
111.7999999999975
 20
10.25000000000003
 30
0.0
 11
111.9999999999976
 21
10.25000000000003
 31
0.0
  0
LINE
  5
45BC
  8
246
 10
111.9999999999976
 20
10.25000000000003
 30
0.0
 11
114.9999999999976
 21
8.5179491924311606
 31
0.0
  0
LINE
  5
45BD
  8
246
 10
109.3999999999976
 20
8.7500000000000284
 30
0.0
 11
111.7999999999975
 21
8.7500000000000284
 31
0.0
  0
LINE
  5
45BE
  8
246
 10
111.7999999999975
 20
8.7500000000000284
 30
0.0
 11
111.7999999999975
 21
10.25000000000003
 31
0.0
  0
LINE
  5
45BF
  8
246
 10
109.3999999999976
 20
10.25000000000003
 30
0.0
 11
109.3999999999976
 21
8.7500000000000284
 31
0.0
  0
LINE
  5
45C0
  8
246
 10
109.3999999999976
 20
10.25000000000003
 30
0.0
 11
83.999999999997556
 21
7.5803524242518563
 31
0.0
  0
LINE
  5
45C1
  8
246
 10
83.999999999997556
 20
6.5000000000000284
 30
0.0
 11
114.9999999999976
 21
6.5000000000000284
 31
0.0
  0
LINE
  5
45C2
  8
246
 10
111.7999999999975
 20
-10.25
 30
0.0
 11
111.9999999999976
 21
-10.25
 31
0.0
  0
LINE
  5
45C3
  8
246
 10
109.3999999999976
 20
-10.25
 30
0.0
 11
83.999999999997556
 21
-7.5803524242517986
 31
0.0
  0
LINE
  5
45C4
  8
246
 10
109.3999999999976
 20
-10.25
 30
0.0
 11
109.3999999999976
 21
-8.75
 31
0.0
  0
LINE
  5
45C5
  8
246
 10
109.3999999999976
 20
-8.75
 30
0.0
 11
111.7999999999975
 21
-8.75
 31
0.0
  0
LINE
  5
45C6
  8
246
 10
111.7999999999975
 20
-8.75
 30
0.0
 11
111.7999999999975
 21
-10.25
 31
0.0
  0
LINE
  5
45C7
  8
246
 10
111.9999999999976
 20
-10.25
 30
0.0
 11
114.9999999999976
 21
-8.5179491924311037
 31
0.0
  0
LINE
  5
45C8
  8
246
 10
83.999999999997556
 20
-6.5
 30
0.0
 11
114.9999999999976
 21
-6.5
 31
0.0
  0
LINE
  5
45C9
  8
243
 10
98.999999999997627
 20
-13.0
 30
0.0
 11
106.4999999999976
 21
-12.99999999999997
 31
0.0
  0
LINE
  5
45CA
  8
243
 10
106.9999999999976
 20
-12.49999999999997
 30
0.0
 11
106.4999999999976
 21
-12.99999999999997
 31
0.0
  0
LINE
  5
45CB
  8
243
 10
98.999999999997627
 20
13.00000000000003
 30
0.0
 11
106.4999999999976
 21
13.00000000000003
 31
0.0
  0
LINE
  5
45CC
  8
243
 10
106.9999999999976
 20
12.50000000000003
 30
0.0
 11
106.4999999999976
 21
13.00000000000003
 31
0.0
  0
LINE
  5
45D2
  8
246
 10
69.486942516870215
 20
6.0000000000000284
 30
0.0
 11
65.796343593628706
 21
2.3094010767585469
 31
0.0
  0
LINE
  5
45D3
  8
246
 10
69.486942516870215
 20
-6.0
 30
0.0
 11
65.796343593628706
 21
-2.309401076758518
 31
0.0
  0
LINE
  5
45D4
  8
246
 10
61.88565999110569
 20
-2.309401076758518
 30
0.0
 11
65.796343593628706
 21
-2.309401076758518
 31
0.0
  0
LINE
  5
45D5
  8
246
 10
61.88565999110569
 20
-1.154700538379273
 30
0.0
 11
65.796343593628706
 21
-1.154700538379273
 31
0.0
  0
LINE
  5
45D6
  8
246
 10
61.88565999110569
 20
1.1547005383793021
 30
0.0
 11
65.796343593628706
 21
1.1547005383793021
 31
0.0
  0
LINE
  5
45D7
  8
246
 10
61.486942516870222
 20
3.000000000000028
 30
0.0
 11
61.486942516870222
 21
1.772515030365923
 31
0.0
  0
LINE
  5
45D8
  8
246
 10
61.88565999110569
 20
2.3094010767585469
 30
0.0
 11
61.486942516870151
 21
3.000000000000028
 31
0.0
  0
LINE
  5
45D9
  8
246
 10
61.88565999110569
 20
-2.309401076758518
 30
0.0
 11
61.486942516870151
 21
-3.0
 31
0.0
  0
LINE
  5
45DA
  8
246
 10
61.486942516870222
 20
-3.0
 30
0.0
 11
61.486942516870222
 21
-1.7725150303658941
 31
0.0
  0
LINE
  5
45DB
  8
246
 10
50.486942516870208
 20
-6.25
 30
0.0
 11
54.486942516870222
 21
-6.25
 31
0.0
  0
LINE
  5
45DC
  8
246
 10
54.486942516870222
 20
-6.25
 30
0.0
 11
55.236942516870222
 21
-7.0
 31
0.0
  0
ARC
  5
45DD
  8
246
 10
50.486942516870208
 20
5.2500000000000284
 30
0.0
 40
1.0
 50
90.0
 51
180.0
  0
LINE
  5
45DE
  8
246
 10
50.486942516870208
 20
6.2500000000000284
 30
0.0
 11
54.486942516870222
 21
6.2500000000000284
 31
0.0
  0
LINE
  5
45DF
  8
246
 10
54.486942516870222
 20
6.2500000000000284
 30
0.0
 11
55.236942516870222
 21
7.0000000000000284
 31
0.0
  0
LINE
  5
45E3
  8
246
 10
61.88565999110569
 20
-2.309401076758518
 30
0.0
 11
61.88565999110569
 21
2.3094010767585469
 31
0.0
  0
LINE
  5
45E4
  8
246
 10
61.88565999110569
 20
2.3094010767585469
 30
0.0
 11
65.796343593628706
 21
2.3094010767585469
 31
0.0
  0
LINE
  5
45E5
  8
246
 10
65.796343593628706
 20
-2.309401076758518
 30
0.0
 11
65.796343593628706
 21
2.3094010767585469
 31
0.0
  0
LINE
  5
45E7
  8
246
 10
83.999999999997556
 20
7.5803524242518563
 30
0.0
 11
83.999999999997556
 21
-7.5803524242517986
 31
0.0
  0
LINE
  5
45EA
  8
246
 10
68.78694251687017
 20
-7.0
 30
0.0
 11
69.486942516870144
 21
-6.2999999999999821
 31
0.0
  0
LINE
  5
45EB
  8
246
 10
69.486942516870144
 20
6.3000000000000389
 30
0.0
 11
69.486942516870144
 21
-6.2999999999999821
 31
0.0
  0
LINE
  5
45EC
  8
246
 10
69.486942516870144
 20
6.3000000000000389
 30
0.0
 11
68.78694251687017
 21
7.0000000000000284
 31
0.0
  0
LINE
  5
45ED
  8
246
 10
49.486942516870222
 20
-5.25
 30
0.0
 11
49.486942516870222
 21
5.2500000000000284
 31
0.0
  0
ARC
  5
45EE
  8
246
 10
50.486942516870208
 20
-5.25
 30
0.0
 40
1.0
 50
180.0
 51
270.0
  0
LINE
  5
45EF
  8
246
 10
61.486942516870222
 20
3.000000000000028
 30
0.0
 11
49.486942516870222
 21
3.000000000000028
 31
0.0
  0
LINE
  5
45F0
  8
246
 10
61.486942516870222
 20
-3.0
 30
0.0
 11
49.486942516870222
 21
-3.0
 31
0.0
  0
LINE
  5
45F1
  8
246
 10
55.236942516870222
 20
7.0000000000000284
 30
0.0
 11
68.78694251687017
 21
7.0000000000000284
 31
0.0
  0
LINE
  5
45F3
  8
246
 10
55.236942516870222
 20
-7.0
 30
0.0
 11
68.78694251687017
 21
-7.0
 31
0.0
  0
LINE
  5
45F5
  8
243
 10
106.9999999999976
 20
-12.49999999999997
 30
0.0
 11
106.9999999999976
 21
-9.9977498353623844
 31
0.0
  0
LINE
  5
45F6
  8
243
 10
106.9999999999976
 20
12.50000000000003
 30
0.0
 11
106.9999999999976
 21
9.9977498353624128
 31
0.0
  0
LINE
  5
45F7
  8
244
 10
98.999999999997627
 20
12.50000000000003
 30
0.0
 11
106.9999999999976
 21
12.50000000000003
 31
0.0
  0
LINE
  5
45F8
  8
244
 10
98.999999999997627
 20
-12.49999999999997
 30
0.0
 11
106.9999999999976
 21
-12.49999999999997
 31
0.0
  0
LINE
  5
45FD
  8
246
 10
54.886942516870192
 20
6.6500000000000341
 30
0.0
 11
69.136942516870192
 21
6.6500000000000341
 31
0.0
  0
LINE
  5
45FF
  8
246
 10
54.886942516870192
 20
-6.6500000000000048
 30
0.0
 11
69.136942516870192
 21
-6.6500000000000048
 31
0.0
  0
LINE
  5
4601
  8
240
 10
94.499999999997655
 20
14.250000000000281
 30
0.0
 11
94.499999999997655
 21
14.000000000000281
 31
0.0
  0
ARC
  5
4602
  8
240
 10
93.499999999997655
 20
14.250000000000281
 30
0.0
 40
1.0
 50
0.0
 51
90.0
1001
GENIUS_GENODEF_13
1002
{
1000
HIER
1070
     0
1002
}
1002
{
1000
MANEDIT
1070
     0
1002
}
1002
{
1000
NOSEL
1070
     0
1002
}
1002
{
1000
BEHIND
1070
     0
1002
}
1002
{
1000
OTHER
1070
     0
1002
}
1002
{
1000
REACTOR
1002
}
1001
GENIUS_GENOBJ-N-FIL_13
1002
{
1000
OWNER
1000
GEN
1002
}
  0
LINE
  5
4603
  8
240
 10
94.499999999997655
 20
-14.24999999999971
 30
0.0
 11
94.499999999997655
 21
-13.999999999999741
 31
0.0
  0
ARC
  5
4604
  8
240
 10
93.499999999997655
 20
-14.24999999999971
 30
0.0
 40
1.0
 50
270.0
 51
0.0
1001
GENIUS_GENODEF_13
1002
{
1000
HIER
1070
     0
1002
}
1002
{
1000
MANEDIT
1070
     0
1002
}
1002
{
1000
NOSEL
1070
     0
1002
}
1002
{
1000
BEHIND
1070
     0
1002
}
1002
{
1000
OTHER
1070
     0
1002
}
1002
{
1000
REACTOR
1002
}
1001
GENIUS_GENOBJ-N-FIL_13
1002
{
1000
OWNER
1000
GEN
1002
}
  0
LINE
  5
4605
  8
241
 10
93.499999999997655
 20
15.250000000000281
 30
0.0
 11
93.499999999997655
 21
11.79823369687608
 31
0.0
  0
LINE
  5
4606
  8
241
 10
93.499999999997655
 20
-12.02341248627291
 30
0.0
 11
93.499999999997655
 21
-15.24999999999971
 31
0.0
  0
LINE
  5
460A
  8
241
 10
80.999999999995225
 20
-15.249999999999741
 30
0.0
 11
80.999999999995225
 21
15.250000000000171
 31
0.0
  0
LINE
  5
460B
  8
240
  6
CONTINUOUS
 10
80.499999999996817
 20
-15.499999999999799
 30
0.0
 11
80.749999999995097
 21
-15.499999999999771
 31
0.0
  0
LINE
  5
460C
  8
240
 10
80.999999999995225
 20
-15.249999999999741
 30
0.0
 11
80.749999999995225
 21
-15.499999999999741
 31
0.0
  0
ARC
  5
460D
  8
240
 10
62.999999999996618
 20
-28.49999999999989
 30
0.0
 40
0.5
 50
270.0
 51
0.0
1001
GENIUS_GENODEF_13
1002
{
1000
HIER
1070
     0
1002
}
1002
{
1000
MANEDIT
1070
     0
1002
}
1002
{
1000
NOSEL
1070
     0
1002
}
1002
{
1000
BEHIND
1070
     0
1002
}
1002
{
1000
OTHER
1070
     0
1002
}
1002
{
1000
REACTOR
1002
}
1001
GENIUS_GENOBJ-N-FIL_13
1002
{
1000
OWNER
1000
GEN
1002
}
  0
LINE
  5
460E
  8
240
 10
62.999999999997243
 20
29.000000000000089
 30
0.0
 11
63.499999999997243
 21
28.500000000000082
 31
0.0
1001
GENIUS_GENFIL_13
1070
     0
1040
0.5
1040
0.5
1040
0.2500000000000284
1040
45.00000000000162
1002
{
1002
}
1001
GENIUS_GENODEF_13
1002
{
1000
HIER
1070
     0
1002
}
1002
{
1000
MANEDIT
1070
     0
1002
}
1002
{
1000
NOSEL
1070
     0
1002
}
1002
{
1000
BEHIND
1070
     0
1002
}
1002
{
1000
OTHER
1070
     0
1002
}
1002
{
1000
REACTOR
1002
}
1001
GENIUS_GENOBJ-N-CHA_13
1002
{
1000
OWNER
1000
GEN
1002
}
  0
LINE
  5
460F
  8
240
 10
52.999999999997243
 20
29.000000000000089
 30
0.0
 11
62.499999999997243
 21
29.000000000000089
 31
0.0
  0
LINE
  5
4610
  8
240
 10
52.999999999997243
 20
29.000000000000089
 30
0.0
 11
62.999999999997243
 21
29.000000000000089
 31
0.0
  0
LINE
  5
4611
  8
240
 10
52.499999999997129
 20
28.499999999999972
 30
0.0
 11
52.999999999997243
 21
29.000000000000089
 31
0.0
1001
GENIUS_GENFIL_13
1070
     0
1040
0.5
1040
0.5
1040
0.2500000000000284
1040
45.00000000000162
1002
{
1002
}
1001
GENIUS_GENOBJ-N-CHA_13
1002
{
1000
OWNER
1000
GEN
1002
}
1001
GENIUS_GENODEF_13
1002
{
1000
HIER
1070
     0
1002
}
1002
{
1000
MANEDIT
1070
     0
1002
}
1002
{
1000
NOSEL
1070
     0
1002
}
1002
{
1000
BEHIND
1070
     0
1002
}
1002
{
1000
OTHER
1070
     0
1002
}
1002
{
1000
REACTOR
1002
}
  0
LINE
  5
4612
  8
241
  6
CONTINUOUS
 10
52.499999999997051
 20
28.499999999999918
 30
0.0
 11
52.499999999997293
 21
-28.499999999999918
 31
0.0
  0
LINE
  5
4613
  8
240
 10
52.999999999997243
 20
-28.99999999999989
 30
0.0
 11
62.499999999997243
 21
-28.99999999999989
 31
0.0
  0
LINE
  5
4614
  8
240
 10
52.999999999997243
 20
-28.99999999999989
 30
0.0
 11
62.999999999996618
 21
-28.99999999999989
 31
0.0
  0
LINE
  5
4615
  8
240
 10
52.499999999997129
 20
-28.499999999999769
 30
0.0
 11
52.999999999997243
 21
-28.99999999999989
 31
0.0
1001
GENIUS_GENFIL_13
1070
     0
1040
0.4999999999999858
1040
0.5000000000000285
1040
0.4999999999999858
1040
45.00000000000081
1002
{
1002
}
1001
GENIUS_GENOREF_13
1005
0
  0
LINE
  5
4616
  8
241
 10
63.499999999996867
 20
-4.471678146993014
 30
0.0
 11
52.499999999997193
 21
-4.471678146993014
 31
0.0
  0
LINE
  5
4617
  8
241
 10
52.499999999997243
 20
-10.45399763419894
 30
0.0
 11
63.499999999996788
 21
-10.45399763419894
 31
0.0
  0
LINE
  5
4618
  8
241
 10
63.499999999996732
 20
-18.199171379886732
 30
0.0
 11
52.499999999997243
 21
-18.199171379886732
 31
0.0
  0
LINE
  5
4619
  8
241
 10
52.499999999997243
 20
-22.57853319162939
 30
0.0
 11
63.499999999996618
 21
-22.57853319162939
 31
0.0
  0
LINE
  5
461A
  8
241
 10
63.499999999996618
 20
-27.050211338623122
 30
0.0
 11
52.499999999997293
 21
-27.050211338623122
 31
0.0
  0
LINE
  5
461B
  8
241
 10
55.899999999997164
 20
24.366025403784281
 30
0.0
 11
55.899999999997107
 21
22.63397459621541
 31
0.0
  0
LINE
  5
461C
  8
241
 10
55.899999999997107
 20
22.63397459621541
 30
0.0
 11
57.399999999997164
 21
21.767949192430962
 31
0.0
  0
LINE
  5
461D
  8
241
 10
57.399999999997164
 20
21.767949192430962
 30
0.0
 11
58.899999999997107
 21
22.63397459621541
 31
0.0
  0
LINE
  5
461E
  8
241
 10
58.899999999997107
 20
22.63397459621541
 30
0.0
 11
58.899999999997164
 21
24.366025403784281
 31
0.0
  0
LINE
  5
461F
  8
241
 10
58.899999999997164
 20
24.366025403784281
 30
0.0
 11
57.3999999999971
 21
25.232050807568761
 31
0.0
  0
LINE
  5
4620
  8
241
 10
57.3999999999971
 20
25.232050807568761
 30
0.0
 11
55.899999999997164
 21
24.366025403784281
 31
0.0
  0
LINE
  5
4621
  8
247
 10
63.999999999996852
 20
-2.4839386683082969
 30
0.0
 11
65.999999999996845
 21
-2.4839386683082969
 31
0.0
  0
LINE
  5
4622
  8
241
 10
63.999999999996852
 20
-4.9489730635075651
 30
0.0
 11
66.999999999996845
 21
-4.9489730635075651
 31
0.0
  0
LINE
  5
4623
  8
241
 10
63.999999999996852
 20
-7.3763427854219401
 30
0.0
 11
65.999999999996845
 21
-7.3763427854219401
 31
0.0
  0
LINE
  5
4624
  8
241
 10
63.999999999996852
 20
-9.7475740847816326
 30
0.0
 11
66.999999999996845
 21
-9.7475740847816326
 31
0.0
  0
LINE
  5
4625
  8
241
 10
63.999999999996852
 20
-11.9987870423908
 30
0.0
 11
65.999999999996845
 21
-11.9987870423908
 31
0.0
  0
LINE
  5
4626
  8
241
 10
63.999999999996852
 20
-14.25000000000006
 30
0.0
 11
66.999999999996845
 21
-14.25000000000006
 31
0.0
  0
LINE
  5
4627
  8
241
 10
63.999999999996852
 20
-16.284723438033211
 30
0.0
 11
65.999999999996845
 21
-16.284723438033211
 31
0.0
  0
LINE
  5
4628
  8
241
 10
63.999999999996852
 20
-18.180290095256002
 30
0.0
 11
66.999999999996788
 21
-18.180290095256002
 31
0.0
  0
LINE
  5
4629
  8
241
 10
63.999999999996781
 20
-19.92335806534112
 30
0.0
 11
65.999999999996788
 21
-19.92335806534112
 31
0.0
  0
LINE
  5
462A
  8
241
 10
63.999999999996781
 20
-21.832266628890871
 30
0.0
 11
66.999999999996788
 21
-21.832266628890871
 31
0.0
  0
LINE
  5
462B
  8
241
 10
63.999999999996732
 20
-23.34583326223628
 30
0.0
 11
65.999999999996788
 21
-23.34583326223628
 31
0.0
  0
LINE
  5
462C
  8
241
 10
63.999999999996732
 20
-24.681724007856531
 30
0.0
 11
66.999999999996732
 21
-24.681724007856531
 31
0.0
  0
LINE
  5
462D
  8
241
 10
63.999999999996732
 20
-25.82977193054456
 30
0.0
 11
65.999999999996732
 21
-25.82977193054456
 31
0.0
  0
LINE
  5
462E
  8
241
 10
63.999999999996732
 20
-26.67932898989153
 30
0.0
 11
66.999999999996732
 21
-26.67932898989153
 31
0.0
  0
LINE
  5
462F
  8
241
 10
63.999999999996732
 20
-27.319773231159051
 30
0.0
 11
65.999999999996732
 21
-27.319773231159051
 31
0.0
  0
LINE
  5
4630
  8
241
 10
63.999999999996732
 20
-28.067020960847969
 30
0.0
 11
66.999999999996732
 21
-28.067020960847969
 31
0.0
  0
LINE
  5
4631
  8
241
 10
63.999999999996852
 20
-0.0000000000000284
 30
0.0
 11
66.999999999996845
 21
0.0000000000000853
 31
0.0
  0
LINE
  5
4632
  8
241
  6
CONTINUOUS
 10
63.499999999996902
 20
28.500000000000369
 30
0.0
 11
63.49999999999671
 21
-28.49999999999989
 31
0.0
  0
LINE
  5
4633
  8
240
 10
63.749999999996959
 20
28.499999999999972
 30
0.0
 11
63.499999999996952
 21
28.249999999999972
 31
0.0
1001
GENIUS_GENFIL_13
1070
     0
1040
0.25
1040
0.25
1040
0.2500000000000284
1040
45.00000000000162
1002
{
1002
}
1001
GENIUS_GENODEF_13
1002
{
1000
HIER
1070
     0
1002
}
1002
{
1000
MANEDIT
1070
     0
1002
}
1002
{
1000
NOSEL
1070
     0
1002
}
1002
{
1000
BEHIND
1070
     0
1002
}
1002
{
1000
OTHER
1070
     0
1002
}
1002
{
1000
REACTOR
1002
}
1001
GENIUS_GENOBJ-N-CHA_13
1002
{
1000
OWNER
1000
GEN
1002
}
  0
LINE
  5
4634
  8
240
 10
80.499999999996817
 20
22.67157287525399
 30
0.0
 11
80.499999999996817
 21
15.5
 31
0.0
  0
LINE
  5
4635
  8
241
 10
80.499999999996874
 20
15.5
 30
0.0
 11
80.499999999996817
 21
-15.499999999999829
 31
0.0
  0
ARC
  5
4636
  8
240
 10
78.499999999996817
 20
22.67157287525399
 30
0.0
 40
2.0
 50
0.0
 51
45.0
1001
GENIUS_GENOBJ-N-FIL_13
1002
{
1000
OWNER
1000
GEN
1002
}
1001
GENIUS_GENODEF_13
1002
{
1000
HIER
1070
     0
1002
}
1002
{
1000
MANEDIT
1070
     0
1002
}
1002
{
1000
NOSEL
1070
     0
1002
}
1002
{
1000
BEHIND
1070
     0
1002
}
1002
{
1000
OTHER
1070
     0
1002
}
1002
{
1000
REACTOR
1002
}
  0
LINE
  5
4637
  8
240
 10
76.08578643762371
 20
27.914213562373309
 30
0.0
 11
79.914213562369923
 21
24.085786437627089
 31
0.0
1001
GENIUS_GENFIL_13
1070
     0
1040
5.0
1040
5.0
1040
0.2500000000000284
1040
45.00000000000162
1002
{
1002
}
1001
GENIUS_GENOBJ-N-CHA_13
1002
{
1000
OWNER
1000
GEN
1002
}
1001
GENIUS_GENODEF_13
1002
{
1000
HIER
1070
     0
1002
}
1002
{
1000
MANEDIT
1070
     0
1002
}
1002
{
1000
NOSEL
1070
     0
1002
}
1002
{
1000
BEHIND
1070
     0
1002
}
1002
{
1000
OTHER
1070
     0
1002
}
1002
{
1000
REACTOR
1002
}
  0
ARC
  5
4638
  8
240
 10
74.671572875250604
 20
26.500000000000199
 30
0.0
 40
2.0
 50
45.0
 51
90.000000000001606
1001
GENIUS_GENFIL_13
1070
     0
1040
5.0
1040
5.0
1040
0.2500000000000284
1040
45.00000000000162
1002
{
1002
}
1001
GENIUS_GENOBJ-N-CHA_13
1002
{
1000
OWNER
1000
GEN
1002
}
1001
GENIUS_GENODEF_13
1002
{
1000
HIER
1070
     0
1002
}
1002
{
1000
MANEDIT
1070
     0
1002
}
1002
{
1000
NOSEL
1070
     0
1002
}
1002
{
1000
BEHIND
1070
     0
1002
}
1002
{
1000
OTHER
1070
     0
1002
}
1002
{
1000
REACTOR
1002
}
1001
GENIUS_GENOBJ-N-FIL_13
1002
{
1000
OWNER
1000
GEN
1002
}
  0
LINE
  5
4639
  8
240
 10
63.749999999996959
 20
28.499999999999972
 30
0.0
 11
74.671572875250604
 21
28.500000000000199
 31
0.0
  0
LINE
  5
463A
  8
240
 10
63.749999999996959
 20
-28.499999999999719
 30
0.0
 11
63.499999999996952
 21
-28.249999999999719
 31
0.0
1001
GENIUS_GENFIL_13
1070
     0
1040
0.25
1040
0.25
1040
0.2500000000000284
1040
45.00000000000162
1002
{
1002
}
1001
GENIUS_GENODEF_13
1002
{
1000
HIER
1070
     0
1002
}
1002
{
1000
MANEDIT
1070
     0
1002
}
1002
{
1000
NOSEL
1070
     0
1002
}
1002
{
1000
BEHIND
1070
     0
1002
}
1002
{
1000
OTHER
1070
     0
1002
}
1002
{
1000
REACTOR
1002
}
1001
GENIUS_GENOBJ-N-CHA_13
1002
{
1000
OWNER
1000
GEN
1002
}
  0
LINE
  5
463B
  8
240
 10
80.499999999996817
 20
-22.671572875253819
 30
0.0
 11
80.49999999999693
 21
-15.499999999999799
 31
0.0
  0
ARC
  5
463C
  8
240
 10
78.499999999996817
 20
-22.671572875253819
 30
0.0
 40
2.0
 50
315.0
 51
0.0
1001
GENIUS_GENODEF_13
1002
{
1000
HIER
1070
     0
1002
}
1002
{
1000
MANEDIT
1070
     0
1002
}
1002
{
1000
NOSEL
1070
     0
1002
}
1002
{
1000
BEHIND
1070
     0
1002
}
1002
{
1000
OTHER
1070
     0
1002
}
1002
{
1000
REACTOR
1002
}
1001
GENIUS_GENOBJ-N-FIL_13
1002
{
1000
OWNER
1000
GEN
1002
}
  0
LINE
  5
463D
  8
240
 10
76.08578643762371
 20
-27.914213562372989
 30
0.0
 11
79.914213562369923
 21
-24.085786437626918
 31
0.0
1001
GENIUS_GENFIL_13
1070
     0
1040
5.0
1040
5.0
1040
0.2500000000000284
1040
45.00000000000162
1002
{
1002
}
1001
GENIUS_GENOBJ-N-CHA_13
1002
{
1000
OWNER
1000
GEN
1002
}
1001
GENIUS_GENODEF_13
1002
{
1000
HIER
1070
     0
1002
}
1002
{
1000
MANEDIT
1070
     0
1002
}
1002
{
1000
NOSEL
1070
     0
1002
}
1002
{
1000
BEHIND
1070
     0
1002
}
1002
{
1000
OTHER
1070
     0
1002
}
1002
{
1000
REACTOR
1002
}
  0
ARC
  5
463E
  8
240
 10
74.671572875250718
 20
-26.49999999999989
 30
0.0
 40
2.0
 50
269.99999999999841
 51
315.0
1001
GENIUS_GENFIL_13
1070
     0
1040
5.0
1040
5.0
1040
0.2500000000000284
1040
45.00000000000162
1002
{
1002
}
1001
GENIUS_GENOBJ-N-CHA_13
1002
{
1000
OWNER
1000
GEN
1002
}
1001
GENIUS_GENOBJ-N-FIL_13
1002
{
1000
OWNER
1000
GEN
1002
}
1001
GENIUS_GENODEF_13
1002
{
1000
HIER
1070
     0
1002
}
1002
{
1000
MANEDIT
1070
     0
1002
}
1002
{
1000
NOSEL
1070
     0
1002
}
1002
{
1000
BEHIND
1070
     0
1002
}
1002
{
1000
OTHER
1070
     0
1002
}
1002
{
1000
REACTOR
1002
}
  0
LINE
  5
463F
  8
240
 10
63.749999999996959
 20
-28.499999999999719
 30
0.0
 11
74.671572875250604
 21
-28.49999999999989
 31
0.0
  0
LINE
  5
4640
  8
241
 10
75.499999999996817
 20
-28.32035944224879
 30
0.0
 11
75.499999999996817
 21
28.320359442249099
 31
0.0
  0
LINE
  5
4641
  8
240
 10
93.499999999997272
 20
15.250000000000201
 30
0.0
 11
80.999999999995225
 21
15.25000000000014
 31
0.0
  0
LINE
  5
4642
  8
240
 10
93.499999999997272
 20
-15.249999999999799
 30
0.0
 11
80.999999999995225
 21
-15.249999999999799
 31
0.0
  0
CIRCLE
  5
4643
  8
241
 10
57.3999999999971
 20
23.499999999999861
 30
0.0
 40
3.5
  0
ARC
  5
4645
  8
241
 10
57.3999999999971
 20
23.499999999999801
 30
0.0
 40
3.75
 50
180.0
 51
0.0
  0
LINE
  5
4646
  8
241
 10
53.6499999999971
 20
27.249999999999801
 30
0.0
 11
53.6499999999971
 21
23.499999999999801
 31
0.0
  0
LINE
  5
4647
  8
241
 10
61.1499999999971
 20
27.249999999999801
 30
0.0
 11
61.1499999999971
 21
23.499999999999801
 31
0.0
  0
LINE
  5
4648
  8
241
 10
53.6499999999971
 20
27.249999999999801
 30
0.0
 11
61.1499999999971
 21
27.249999999999801
 31
0.0
  0
LINE
  5
4649
  8
240
  6
CONTINUOUS
 10
80.499999999996817
 20
15.5
 30
0.0
 11
80.749999999995097
 21
15.49999999999997
 31
0.0
  0
LINE
  5
464A
  8
240
 10
80.999999999995225
 20
15.24999999999994
 30
0.0
 11
80.749999999995225
 21
15.49999999999994
 31
0.0
  0
LINE
  5
464B
  8
241
 10
63.499999999996867
 20
4.4716781469931837
 30
0.0
 11
52.499999999997193
 21
4.4716781469931837
 31
0.0
  0
LINE
  5
464C
  8
241
 10
63.999999999996852
 20
2.4839386683084679
 30
0.0
 11
65.999999999996845
 21
2.4839386683084679
 31
0.0
  0
LINE
  5
464D
  8
241
 10
63.999999999996852
 20
4.9489730635077356
 30
0.0
 11
66.999999999996845
 21
4.9489730635077356
 31
0.0
  0
LINE
  5
464E
  8
241
 10
63.999999999996852
 20
7.3763427854221097
 30
0.0
 11
65.999999999996845
 21
7.3763427854221097
 31
0.0
  0
LINE
  5
464F
  8
241
 10
63.999999999996852
 20
9.7475740847818031
 30
0.0
 11
66.999999999996845
 21
9.7475740847818031
 31
0.0
  0
LINE
  5
4650
  8
241
 10
63.999999999996852
 20
11.998787042390971
 30
0.0
 11
65.999999999996845
 21
11.998787042390971
 31
0.0
  0
LINE
  5
4651
  8
241
 10
63.999999999996852
 20
14.250000000000229
 30
0.0
 11
66.999999999996845
 21
14.250000000000229
 31
0.0
  0
LINE
  5
4652
  8
241
 10
63.999999999996852
 20
16.284723438033382
 30
0.0
 11
65.999999999996845
 21
16.284723438033382
 31
0.0
  0
LINE
  5
4653
  8
241
 10
63.999999999996852
 20
18.180290095256169
 30
0.0
 11
66.999999999996788
 21
18.180290095256169
 31
0.0
  0
LINE
  5
4654
  8
241
 10
63.999999999996781
 20
19.92335806534129
 30
0.0
 11
65.999999999996788
 21
19.92335806534129
 31
0.0
  0
LINE
  5
4655
  8
241
 10
63.999999999996781
 20
21.832266628891031
 30
0.0
 11
66.999999999996788
 21
21.832266628891031
 31
0.0
  0
LINE
  5
4656
  8
241
 10
63.999999999996732
 20
23.34583326223645
 30
0.0
 11
65.999999999996788
 21
23.34583326223645
 31
0.0
  0
LINE
  5
4657
  8
241
 10
63.999999999996732
 20
24.681724007856701
 30
0.0
 11
66.999999999996732
 21
24.681724007856701
 31
0.0
  0
LINE
  5
4658
  8
241
 10
63.999999999996732
 20
25.82977193054472
 30
0.0
 11
65.999999999996732
 21
25.82977193054472
 31
0.0
  0
LINE
  5
4659
  8
241
 10
63.999999999996732
 20
26.679328989891701
 30
0.0
 11
66.999999999996732
 21
26.679328989891701
 31
0.0
  0
LINE
  5
465A
  8
241
 10
63.999999999996732
 20
27.319773231159221
 30
0.0
 11
65.999999999996732
 21
27.319773231159221
 31
0.0
  0
LINE
  5
465B
  8
241
 10
63.999999999996732
 20
28.06702096084814
 30
0.0
 11
66.999999999996732
 21
28.06702096084814
 31
0.0
  0
LINE
  5
4663
  8
246
 10
114.9999999999976
 20
-6.5
 30
0.0
 11
124.4746264481105
 21
-6.5
 31
0.0
  0
LINE
  5
4664
  8
246
 10
114.9999999999976
 20
6.5
 30
0.0
 11
124.4746264481105
 21
6.5
 31
0.0
  0
TEXT
  5
475A
  8
241
 10
-32.0
 20
63.0
 30
0.0
 40
5.0
  1
HSK-A63-NBS13-115NRA
  7
YOKO
 11
-32.0
 21
63.0
 31
0.0
 73
     1
1001
GRPNAME
1000
PASTMD0I
  0
LINE
  5
475D
  8
250
 10
-23.037048729999999
 20
-31.833453089999999
 30
0.0
 11
-47.303715400000002
 21
-31.833453089999999
 31
0.0
1001
ITEMNAME
1000
LNSP2
  0
LINE
  5
475E
  8
240
 10
0.0
 20
-24.215
 30
0.0
 11
0.0
 21
-31.5
 31
0.0
1001
GRPNAME
1000
PASTMD0X
  0
LINE
  5
475F
  8
241
 10
21.377499069999999
 20
-31.5
 30
0.0
 11
21.377499069999999
 21
0.0
 31
0.0
1001
GRPNAME
1000
PASTMD0X
  0
LINE
  5
4760
  8
241
 10
14.622500929999999
 20
-31.5
 30
0.0
 11
14.622500929999999
 21
0.0
 31
0.0
1001
GRPNAME
1000
PASTMD0X
  0
LINE
  5
4761
  8
241
 10
16.125
 20
-27.5
 30
0.0
 11
16.125
 21
0.0
 31
0.0
1001
GRPNAME
1000
PASTMD0X
  0
LINE
  5
4762
  8
241
 10
19.875
 20
-27.5
 30
0.0
 11
19.875
 21
0.0
 31
0.0
1001
GRPNAME
1000
PASTMD0X
  0
LINE
  5
4763
  8
241
 10
26.0
 20
-26.29999999999999
 30
0.0
 11
26.0
 21
0.0
 31
0.0
1001
GRPNAME
1000
PASTMD0X
  0
LINE
  5
4764
  8
245
  6
CENTER2
 10
18.0
 20
-31.5
 30
0.0
 11
18.0
 21
31.5
 31
0.0
  0
LINE
  5
4765
  8
240
 10
14.622500929999999
 20
-31.5
 30
0.0
 11
0.0
 21
-31.5
 31
0.0
1001
GRPNAME
1000
PASTMD0X
  0
LINE
  5
4766
  8
243
 10
26.0
 20
-26.5
 30
0.0
 11
5.0
 21
-26.5
 31
0.0
1001
GRPNAME
1000
PASTMD0X
  0
LINE
  5
4767
  8
243
 10
5.0
 20
-31.5
 30
0.0
 11
5.0
 21
-26.5
 31
0.0
1001
GRPNAME
1000
PASTMD0X
  0
LINE
  5
4768
  8
240
 10
19.875
 20
-28.897595259999999
 30
0.0
 11
21.377499069999999
 21
-31.5
 31
0.0
1001
GRPNAME
1000
PASTMD0X
  0
LINE
  5
4769
  8
240
 10
16.125
 20
-28.897595259999999
 30
0.0
 11
14.622500929999999
 21
-31.5
 31
0.0
1001
GRPNAME
1000
PASTMD0X
  0
LINE
  5
476A
  8
240
 10
19.875
 20
-27.5
 30
0.0
 11
16.125
 21
-27.5
 31
0.0
1001
GRPNAME
1000
PASTMD0X
  0
LINE
  5
476B
  8
240
 10
16.125
 20
-27.5
 30
0.0
 11
16.125
 21
-28.897595259999999
 31
0.0
1001
GRPNAME
1000
PASTMD0X
  0
LINE
  5
476C
  8
240
 10
19.875
 20
-27.5
 30
0.0
 11
19.875
 21
-28.897595259999999
 31
0.0
1001
GRPNAME
1000
PASTMD0X
  0
LINE
  5
476D
  8
240
 10
26.0
 20
-31.5
 30
0.0
 11
26.0
 21
-26.29999999999999
 31
0.0
1001
GRPNAME
1000
PASTMD0X
  0
LINE
  5
476E
  8
240
 10
26.0
 20
-31.5
 30
0.0
 11
21.377499069999999
 21
-31.5
 31
0.0
1001
GRPNAME
1000
PASTMD0X
  0
LINE
  5
476F
  8
240
 10
14.622500929999999
 20
31.5
 30
0.0
 11
0.0
 21
31.5
 31
0.0
1001
GRPNAME
1000
PASTMD0X
  0
LINE
  5
4770
  8
243
 10
26.0
 20
26.5
 30
0.0
 11
5.0
 21
26.5
 31
0.0
1001
GRPNAME
1000
PASTMD0X
  0
LINE
  5
4771
  8
241
 10
16.125
 20
20.0
 30
0.0
 11
5.0
 21
20.0
 31
0.0
1001
GRPNAME
1000
PASTMD0X
  0
ARC
  5
4772
  8
241
 10
12.1117139
 20
16.336187049999999
 30
0.0
 40
8.0
 50
89.999999990000006
 51
152.74338068
1001
GRPNAME
1000
PASTMD0X
  0
LINE
  5
4773
  8
241
 10
0.0
 20
24.215
 30
0.0
 11
0.0
 21
0.0
 31
0.0
1001
GRPNAME
1000
PASTMD0X
  0
LINE
  5
4774
  8
241
 10
-2.0
 20
24.215
 30
0.0
 11
-2.0
 21
0.0
 31
0.0
1001
GRPNAME
1000
PASTMD0X
  0
LINE
  5
4775
  8
240
 10
-32.0
 20
21.573500939999999
 30
0.0
 11
-32.0
 21
0.0
 31
0.0
1001
GRPNAME
1000
PASTMD0X
  0
LINE
  5
4776
  8
240
 10
-2.0
 20
-24.215
 30
0.0
 11
-30.859925140000001
 21
-22.772003739999999
 31
0.0
1001
GRPNAME
1000
PASTMD0X
  0
LINE
  5
4777
  8
240
 10
-32.0
 20
-21.573500939999999
 30
0.0
 11
-32.0
 21
0.0
 31
0.0
1001
GRPNAME
1000
PASTMD0X
  0
ARC
  5
4778
  8
240
 10
-30.800000000000001
 20
-21.573500939999999
 30
0.0
 40
1.200000000000041
 50
180.00000007999989
 51
267.13759485000003
1001
GRPNAME
1000
PASTMD0X
  0
LINE
  5
4779
  8
241
 10
-2.0
 20
-24.215
 30
0.0
 11
-2.0
 21
0.0
 31
0.0
1001
GRPNAME
1000
PASTMD0X
  0
LINE
  5
477A
  8
241
 10
0.0
 20
-24.215
 30
0.0
 11
0.0
 21
0.0
 31
0.0
1001
GRPNAME
1000
PASTMD0X
  0
LINE
  5
477B
  8
240
 10
-2.0
 20
-24.215
 30
0.0
 11
0.0
 21
-24.215
 31
0.0
  0
LINE
  5
477C
  8
243
 10
-6.2449979999999998
 20
20.0
 30
0.0
 11
-16.917564429999999
 21
20.0
 31
0.0
1001
GRPNAME
1000
PASTMD0X
  0
LINE
  5
477D
  8
240
 10
-2.0
 20
24.215
 30
0.0
 11
-30.859925140000001
 21
22.772003739999999
 31
0.0
1001
GRPNAME
1000
PASTMD0X
  0
LINE
  5
477E
  8
243
 10
-26.0
 20
23.015000000000001
 30
0.0
 11
-26.0
 21
17.0
 31
0.0
1001
GRPNAME
1000
PASTMD0X
  0
ARC
  5
477F
  8
240
 10
-30.800000000000001
 20
21.573500939999999
 30
0.0
 40
1.1999999999999891
 50
92.862405229999979
 51
180.0
1001
GRPNAME
1000
PASTMD0X
  0
LINE
  5
4780
  8
243
 10
-18.996025400000001
 20
17.0
 30
0.0
 11
-32.0
 21
17.0
 31
0.0
1001
GRPNAME
1000
PASTMD0X
  0
LINE
  5
4781
  8
243
 10
-18.996025400000001
 20
17.0
 30
0.0
 11
-17.43717968
 21
19.699999999999999
 31
0.0
1001
GRPNAME
1000
PASTMD0X
  0
ARC
  5
4782
  8
243
 10
-16.917564429999999
 20
19.399999999999999
 30
0.0
 40
0.6000000000003638
 50
89.999999990000006
 51
149.99999998999999
1001
GRPNAME
1000
PASTMD0X
  0
LINE
  5
4783
  8
243
 10
-5.25
 20
24.052499999999998
 30
0.0
 11
-5.25
 21
20.0
 31
0.0
1001
GRPNAME
1000
PASTMD1W
  0
LINE
  5
4784
  8
243
 10
-12.75
 20
23.677499999999998
 30
0.0
 11
-12.75
 21
20.0
 31
0.0
1001
GRPNAME
1000
PASTMD1W
  0
ARC
  5
4785
  8
243
 10
-6.2449979999999998
 20
12.0
 30
0.0
 40
7.9999999999997771
 50
38.682187259999999
 51
89.999999810000006
1001
GRPNAME
1000
PASTMD0X
  0
LINE
  5
4786
  8
243
 10
5.0
 20
31.5
 30
0.0
 11
5.0
 21
26.5
 31
0.0
1001
GRPNAME
1000
PASTMD0X
  0
LINE
  5
4787
  8
240
 10
0.0
 20
31.5
 30
0.0
 11
0.0
 21
24.215
 31
0.0
1001
GRPNAME
1000
PASTMD0X
  0
LINE
  5
4788
  8
240
 10
-2.0
 20
24.215
 30
0.0
 11
0.0
 21
24.215
 31
0.0
  0
LINE
  5
4789
  8
241
 10
21.377499069999999
 20
20.0
 30
0.0
 11
21.377499069999999
 21
0.0
 31
0.0
1001
GRPNAME
1000
PASTMD0X
  0
LINE
  5
478A
  8
241
 10
14.622500929999999
 20
20.0
 30
0.0
 11
14.622500929999999
 21
0.0
 31
0.0
1001
GRPNAME
1000
PASTMD0X
  0
LINE
  5
478B
  8
241
 10
16.125
 20
27.5
 30
0.0
 11
16.125
 21
0.0
 31
0.0
1001
GRPNAME
1000
PASTMD0X
  0
LINE
  5
478C
  8
241
 10
19.875
 20
27.5
 30
0.0
 11
19.875
 21
0.0
 31
0.0
1001
GRPNAME
1000
PASTMD0X
  0
LINE
  5
478D
  8
241
 10
25.999999999999989
 20
26.29999999999999
 30
0.0
 11
26.0
 21
0.0
 31
0.0
1001
GRPNAME
1000
PASTMD0X
  0
LINE
  5
478E
  8
241
 10
21.377499069999999
 20
24.336187049999999
 30
0.0
 11
19.875
 21
20.858355929999998
 31
0.0
1001
GRPNAME
1000
PASTMD0X
  0
LINE
  5
478F
  8
241
 10
14.622500929999999
 20
24.336187049999999
 30
0.0
 11
16.125
 21
20.858355929999998
 31
0.0
1001
GRPNAME
1000
PASTMD0X
  0
LINE
  5
4790
  8
241
 10
26.0
 20
20.0
 30
0.0
 11
19.875
 21
20.0
 31
0.0
1001
GRPNAME
1000
PASTMD0X
  0
LINE
  5
4791
  8
240
 10
19.875
 20
28.897595259999999
 30
0.0
 11
21.377499069999999
 21
31.5
 31
0.0
1001
GRPNAME
1000
PASTMD0X
  0
LINE
  5
4792
  8
240
 10
16.125
 20
28.897595259999999
 30
0.0
 11
14.622500929999999
 21
31.5
 31
0.0
1001
GRPNAME
1000
PASTMD0X
  0
LINE
  5
4793
  8
241
 10
14.622500929999999
 20
31.5
 30
0.0
 11
14.622500929999999
 21
24.336187049999999
 31
0.0
1001
GRPNAME
1000
PASTMD0X
  0
LINE
  5
4794
  8
241
 10
14.622500929999999
 20
24.336187049999999
 30
0.0
 11
12.1117139
 21
24.336187049999999
 31
0.0
1001
GRPNAME
1000
PASTMD0X
  0
LINE
  5
4795
  8
240
 10
19.875
 20
27.5
 30
0.0
 11
16.125
 21
27.5
 31
0.0
1001
GRPNAME
1000
PASTMD0X
  0
LINE
  5
4796
  8
240
 10
16.125
 20
27.5
 30
0.0
 11
16.125
 21
28.897595259999999
 31
0.0
1001
GRPNAME
1000
PASTMD0X
  0
LINE
  5
4797
  8
240
 10
19.875
 20
27.5
 30
0.0
 11
19.875
 21
28.897595259999999
 31
0.0
1001
GRPNAME
1000
PASTMD0X
  0
ARC
  5
4798
  8
240
 10
25.5
 20
31.0
 30
0.0
 40
0.5
 50
0.0
 51
90.0
1001
GRPNAME
1000
PASTMD0X
  0
LINE
  5
4799
  8
241
 10
21.377499069999999
 20
31.5
 30
0.0
 11
21.377499069999999
 21
24.336187049999999
 31
0.0
1001
GRPNAME
1000
PASTMD0X
  0
LINE
  5
479A
  8
240
 10
26.0
 20
31.0
 30
0.0
 11
25.999999999999989
 21
26.29999999999999
 31
0.0
1001
GRPNAME
1000
PASTMD0X
  0
LINE
  5
479B
  8
241
 10
26.0
 20
24.336187049999999
 30
0.0
 11
21.377499069999999
 21
24.336187049999999
 31
0.0
1001
GRPNAME
1000
PASTMD0X
  0
LINE
  5
479C
  8
240
 10
25.5
 20
31.5
 30
0.0
 11
21.377499069999999
 21
31.5
 31
0.0
1001
GRPNAME
1000
PASTMD0X
  0
LINE
  5
4806
  8
250
 10
115.4999999999976
 20
-6.5
 30
0.0
 11
129.99999999999761
 21
-6.5000000000000027
 31
0.0
  0
LINE
  5
4807
  8
250
 10
115.4999999999976
 20
6.5000000000000284
 30
0.0
 11
129.99999999999761
 21
6.500000000000024
 31
0.0
  0
LINE
  5
4808
  8
250
 10
128.99999999999761
 20
-4.2700000000000031
 30
0.0
 11
128.99999999999761
 21
4.2700000000000244
 31
0.0
  0
LINE
  5
480D
  8
250
 10
113.91862915009899
 20
-17.5
 30
0.0
 11
136.99999999999761
 21
-17.500000000000011
 31
0.0
  0
LINE
  5
480E
  8
250
 10
113.91862915009899
 20
17.5
 30
0.0
 11
136.99999999999761
 21
17.499999999999989
 31
0.0
  0
LINE
  5
480F
  8
250
 10
135.99999999999761
 20
-15.27
 30
0.0
 11
135.99999999999761
 21
15.269999999999991
 31
0.0
  0
LINE
  5
4813
  8
250
 10
69.486942516870215
 20
-6.5000000000000231
 30
0.0
 11
69.486942516870215
 21
-43.000000000000028
 31
0.0
  0
LINE
  5
4814
  8
250
 10
114.9999999999976
 20
-16.46005050633886
 30
0.0
 11
114.9999999999976
 21
-43.000000000000028
 31
0.0
  0
LINE
  5
4815
  8
250
 10
71.716942516870205
 20
-42.000000000000021
 30
0.0
 11
112.76999999999759
 21
-42.000000000000021
 31
0.0
  0
LINE
  5
4819
  8
250
 10
0.0
 20
32.0
 30
0.0
 11
0.0000000000000011
 21
50.000000000000028
 31
0.0
  0
LINE
  5
481A
  8
250
 10
114.9999999999976
 20
16.460050506338799
 30
0.0
 11
114.9999999999976
 21
50.000000000000028
 31
0.0
  0
LINE
  5
481B
  8
250
 10
2.23
 20
49.000000000000028
 30
0.0
 11
112.76999999999759
 21
49.000000000000028
 31
0.0
  0
LINE
  5
481F
  8
250
 10
0.0
 20
32.0
 30
0.0
 11
0.0000000000000007
 21
43.0
 31
0.0
  0
LINE
  5
4820
  8
250
 10
42.0
 20
26.799999999999962
 30
0.0
 11
42.0
 21
43.0
 31
0.0
  0
LINE
  5
4821
  8
250
 10
2.23
 20
42.0
 30
0.0
 11
39.770000000000003
 21
42.0
 31
0.0
  0
LINE
  5
4825
  8
250
 10
41.99999999999968
 20
26.80000000000015
 30
0.0
 11
41.99999999999968
 21
43.0
 31
0.0
  0
LINE
  5
4826
  8
250
 10
114.9999999999976
 20
16.460050506338799
 30
0.0
 11
114.9999999999976
 21
43.0
 31
0.0
  0
LINE
  5
4827
  8
250
 10
44.229999999999677
 20
42.0
 30
0.0
 11
112.76999999999759
 21
42.0
 31
0.0
  0
TEXT
  5
482B
  8
250
 10
-45.037048733333322
 20
-30.833453089999999
 30
0.0
 40
2.799999999999998
  1
HSK-A63
  7
YOKO
1001
ITEMNAME
1000
LNSP3
  0
POLYLINE
  5
482D
  8
250
 66
     1
 10
0.0
 20
0.0
 30
0.0
1001
ACAD
1000
DSTYLE
1002
{
1070
     6
1000
OPEN
1070
   343
1005
594
1002
}
  0
VERTEX
  5
4B4B
  8
250
 10
-19.286696129993778
 20
-25.337651840442891
 30
0.0
  0
VERTEX
  5
4B4C
  8
250
 10
-23.037048729999999
 20
-31.833453089999999
 30
0.0
  0
SEQEND
  5
4B4D
  8
250
  0
TEXT
  5
482E
  8
250
 10
53.299999999998811
 20
50.000000000000028
 30
0.0
 40
2.7999999999999989
  1
115
  0
LINE
  5
482F
  8
250
 10
112.76999999999759
 20
49.371666666666691
 30
0.0
 11
114.9999999999976
 21
49.000000000000028
 31
0.0
  0
LINE
  5
4830
  8
250
 10
112.76999999999759
 20
48.628333333333359
 30
0.0
 11
114.9999999999976
 21
49.000000000000028
 31
0.0
  0
LINE
  5
4831
  8
250
 10
114.9999999999976
 20
49.000000000000028
 30
0.0
 11
112.76999999999759
 21
49.000000000000028
 31
0.0
  0
LINE
  5
4832
  8
250
 10
2.23
 20
48.628333333333359
 30
0.0
 11
0.0000000000000011
 21
49.000000000000028
 31
0.0
  0
LINE
  5
4833
  8
250
 10
2.23
 20
49.371666666666691
 30
0.0
 11
0.0000000000000011
 21
49.000000000000028
 31
0.0
  0
LINE
  5
4834
  8
250
 10
0.0000000000000011
 20
49.000000000000028
 30
0.0
 11
2.23
 21
49.000000000000028
 31
0.0
  0
TEXT
  5
4835
  8
250
 10
18.333333333333329
 20
43.0
 30
0.0
 40
2.7999999999999989
  1
42
  0
LINE
  5
4836
  8
250
 10
39.770000000000003
 20
42.371666666666663
 30
0.0
 11
42.0
 21
42.0
 31
0.0
  0
LINE
  5
4837
  8
250
 10
39.770000000000003
 20
41.62833333333333
 30
0.0
 11
42.0
 21
42.0
 31
0.0
  0
LINE
  5
4838
  8
250
 10
42.0
 20
42.0
 30
0.0
 11
39.770000000000003
 21
42.0
 31
0.0
  0
LINE
  5
4839
  8
250
 10
2.23
 20
41.62833333333333
 30
0.0
 11
0.0000000000000006
 21
42.0
 31
0.0
  0
LINE
  5
483A
  8
250
 10
2.23
 20
42.371666666666663
 30
0.0
 11
0.0000000000000006
 21
42.0
 31
0.0
  0
LINE
  5
483B
  8
250
 10
0.0000000000000006
 20
42.0
 30
0.0
 11
2.23
 21
42.0
 31
0.0
  0
TEXT
  5
483C
  8
250
 10
75.833333333331979
 20
43.0
 30
0.0
 40
2.7999999999999989
  1
73
  0
LINE
  5
483D
  8
250
 10
112.76999999999759
 20
42.371666666666663
 30
0.0
 11
114.9999999999976
 21
42.0
 31
0.0
  0
LINE
  5
483E
  8
250
 10
112.76999999999759
 20
41.62833333333333
 30
0.0
 11
114.9999999999976
 21
42.0
 31
0.0
  0
LINE
  5
483F
  8
250
 10
114.9999999999976
 20
42.0
 30
0.0
 11
112.76999999999759
 21
42.0
 31
0.0
  0
LINE
  5
4840
  8
250
 10
44.229999999999677
 20
41.62833333333333
 30
0.0
 11
41.99999999999968
 21
42.0
 31
0.0
  0
LINE
  5
4841
  8
250
 10
44.229999999999677
 20
42.371666666666663
 30
0.0
 11
41.99999999999968
 21
42.0
 31
0.0
  0
LINE
  5
4842
  8
250
 10
41.99999999999968
 20
42.0
 30
0.0
 11
44.229999999999677
 21
42.0
 31
0.0
  0
TEXT
  5
4843
  8
250
 10
127.9999999999976
 20
-9.4285714285713915
 30
0.0
 40
3.0
  1
MAX.\U+220513
 50
90.0
  0
LINE
  5
4844
  8
250
 10
128.62833333333089
 20
4.2700000000000244
 30
0.0
 11
128.99999999999761
 21
6.500000000000024
 31
0.0
  0
LINE
  5
4845
  8
250
 10
129.37166666666431
 20
4.2700000000000244
 30
0.0
 11
128.99999999999761
 21
6.500000000000024
 31
0.0
  0
LINE
  5
4846
  8
250
 10
128.99999999999761
 20
6.500000000000024
 30
0.0
 11
128.99999999999761
 21
4.2700000000000244
 31
0.0
  0
LINE
  5
4847
  8
250
 10
129.37166666666431
 20
-4.2700000000000031
 30
0.0
 11
128.99999999999761
 21
-6.5000000000000027
 31
0.0
  0
LINE
  5
4848
  8
250
 10
128.62833333333089
 20
-4.2700000000000031
 30
0.0
 11
128.99999999999761
 21
-6.5000000000000027
 31
0.0
  0
LINE
  5
4849
  8
250
 10
128.99999999999761
 20
-6.5000000000000027
 30
0.0
 11
128.99999999999761
 21
-4.2700000000000031
 31
0.0
  0
TEXT
  5
484A
  8
250
 10
134.99999999999761
 20
-4.2142857142856984
 30
0.0
 40
3.0
  1
\U+220535
 50
90.0
  0
LINE
  5
484B
  8
250
 10
135.62833333333089
 20
15.269999999999991
 30
0.0
 11
135.99999999999761
 21
17.5
 31
0.0
  0
LINE
  5
484C
  8
250
 10
136.37166666666431
 20
15.269999999999991
 30
0.0
 11
135.99999999999761
 21
17.5
 31
0.0
  0
LINE
  5
484D
  8
250
 10
135.99999999999761
 20
17.5
 30
0.0
 11
135.99999999999761
 21
15.269999999999991
 31
0.0
  0
LINE
  5
484E
  8
250
 10
136.37166666666431
 20
-15.27
 30
0.0
 11
135.99999999999761
 21
-17.5
 31
0.0
  0
LINE
  5
484F
  8
250
 10
135.62833333333089
 20
-15.27
 30
0.0
 11
135.99999999999761
 21
-17.5
 31
0.0
  0
LINE
  5
4850
  8
250
 10
135.99999999999761
 20
-17.5
 30
0.0
 11
135.99999999999761
 21
-15.27
 31
0.0
  0
TEXT
  5
4851
  8
250
 10
84.729185544148194
 20
-41.000000000000028
 30
0.0
 40
3.0
  1
41ü`60
  0
LINE
  5
4852
  8
250
 10
112.76999999999759
 20
-41.628333333333359
 30
0.0
 11
114.9999999999976
 21
-42.000000000000021
 31
0.0
  0
LINE
  5
4853
  8
250
 10
112.76999999999759
 20
-42.371666666666691
 30
0.0
 11
114.9999999999976
 21
-42.000000000000021
 31
0.0
  0
LINE
  5
4854
  8
250
 10
114.9999999999976
 20
-42.000000000000021
 30
0.0
 11
112.76999999999759
 21
-42.000000000000021
 31
0.0
  0
LINE
  5
4855
  8
250
 10
71.716942516870205
 20
-42.371666666666691
 30
0.0
 11
69.486942516870215
 21
-42.000000000000021
 31
0.0
  0
LINE
  5
4856
  8
250
 10
71.716942516870205
 20
-41.628333333333359
 30
0.0
 11
69.486942516870215
 21
-42.000000000000021
 31
0.0
  0
LINE
  5
4857
  8
250
 10
69.486942516870215
 20
-42.000000000000021
 30
0.0
 11
71.716942516870205
 21
-42.000000000000021
 31
0.0
  0
LINE
  5
4858
  8
250
 10
-19.608568905067589
 20
-25.15181850711059
 30
0.0
 11
-18.171696130000001
 21
-23.406415190000001
 31
0.0
  0
LINE
  5
4859
  8
250
 10
-18.964823354919972
 20
-25.523485173775189
 30
0.0
 11
-18.171696130000001
 21
-23.406415190000001
 31
0.0
  0
LINE
  5
485A
  8
250
 10
-18.171696130000001
 20
-23.406415190000001
 30
0.0
 11
-19.286696129993778
 21
-25.337651840442891
 31
0.0
  0
VIEWPORT
  5
22
 67
     1
  8
0
 10
261.51769911504419
 20
148.5
 30
0.0
 40
523.0353982300885
 41
297.0
 68
     1
 69
     1
1001
ACAD
1000
MVIEW
1002
{
1070
    16
1010
0.0
1020
0.0
1030
0.0
1010
0.0
1020
0.0
1030
1.0
1040
0.0
1040
297.0
1040
261.51769911504419
1040
148.5
1040
50.0
1040
0.0
1040
0.0
1070
     0
1070
   100
1070
     1
1070
     1
1070
     0
1070
     0
1070
     0
1070
     0
1040
0.0
1040
0.0
1040
0.0
1040
1.0
1040
1.0
1040
10.0
1040
10.0
1070
     0
1002
{
1002
}
1002
}
1001
GENIUS_GENODEF_13
1002
{
1000
HIER
1070
     0
1002
}
1002
{
1000
MANEDIT
1070
     0
1002
}
1002
{
1000
NOSEL
1070
     0
1002
}
1002
{
1000
BEHIND
1070
     0
1002
}
1002
{
1000
OTHER
1070
     0
1002
}
1002
{
1000
REACTOR
1002
}
1001
GENIUS_GENOBJ-N-SDF_13
1002
{
1000
OWNER
1000
GEN
1002
}
1001
GENIUS_GENSCREG_15
1000
PF
1040
1.0
1000
DF
1040
1.0
1000
MIN
1011
0.0
1021
0.0
1031
0.0
1021
0.0
1031
0.0
1000
MAX
1011
523.0353982300885
1021
0.0
1031
0.0
1021
297.0
1031
0.0
1000
FLAGS
1070
     4
  0
ENDSEC
  0
EOF
