  0
SECTION
  2
HEADER
  9
$ACADVER
  1
AC1009
  9
$INSBASE
 10
0.0
 20
0.0
 30
0.0
  9
$EXTMIN
 10
-47.303715400000002
 20
-42.996450703978148
 30
0.0
  9
$EXTMAX
 10
177.249199940594
 20
89.000000000000057
 30
0.0
  9
$LIMMIN
 10
0.0
 20
0.0
  9
$LIMMAX
 10
297.0
 20
210.0
  9
$ORTHOMODE
 70
     0
  9
$REGENMODE
 70
     1
  9
$FILLMODE
 70
     1
  9
$QTEXTMODE
 70
     0
  9
$MIRRTEXT
 70
     1
  9
$DRAGMODE
 70
     2
  9
$LTSCALE
 40
10.0
  9
$OSMODE
 70
    63
  9
$ATTMODE
 70
     1
  9
$TEXTSIZE
 40
3.0
  9
$TRACEWID
 40
1.0
  9
$TEXTSTYLE
  7
YOKO
  9
$CLAYER
  8
240
  9
$CELTYPE
  6
BYLAYER
  9
$CECOLOR
 62
   256
  9
$DIMSCALE
 40
1.0
  9
$DIMASZ
 40
2.2299999999999991
  9
$DIMEXO
 40
0.5
  9
$DIMDLI
 40
7.0
  9
$DIMRND
 40
0.0
  9
$DIMDLE
 40
0.0
  9
$DIMEXE
 40
1.0
  9
$DIMTP
 40
0.0
  9
$DIMTM
 40
0.01
  9
$DIMTXT
 40
2.7999999999999989
  9
$DIMCEN
 40
0.0
  9
$DIMTSZ
 40
0.0
  9
$DIMTOL
 70
     0
  9
$DIMLIM
 70
     0
  9
$DIMTIH
 70
     0
  9
$DIMTOH
 70
     0
  9
$DIMSE1
 70
     0
  9
$DIMSE2
 70
     0
  9
$DIMTAD
 70
     3
  9
$DIMZIN
 70
     9
  9
$DIMBLK
  1
OPEN
  9
$DIMASO
 70
     1
  9
$DIMSHO
 70
     1
  9
$DIMPOST
  1

  9
$DIMAPOST
  1

  9
$DIMALT
 70
     0
  9
$DIMALTD
 70
     2
  9
$DIMALTF
 40
25.399999999999999
  9
$DIMLFAC
 40
1.0
  9
$DIMTOFL
 70
     1
  9
$DIMTVP
 40
0.0
  9
$DIMTIX
 70
     1
  9
$DIMSOXD
 70
     0
  9
$DIMSAH
 70
     0
  9
$DIMBLK1
  1

  9
$DIMBLK2
  1

  9
$DIMSTYLE
  2
BIGT
  9
$DIMCLRD
 70
   256
  9
$DIMCLRE
 70
   256
  9
$DIMCLRT
 70
    40
  9
$DIMTFAC
 40
1.0
  9
$DIMGAP
 40
1.0
  9
$LUNITS
 70
     2
  9
$LUPREC
 70
     6
  9
$SKETCHINC
 40
1.0
  9
$FILLETRAD
 40
0.0
  9
$AUNITS
 70
     0
  9
$AUPREC
 70
     6
  9
$MENU
  1
.
  9
$ELEVATION
 40
0.0
  9
$PELEVATION
 40
0.0
  9
$THICKNESS
 40
0.0
  9
$LIMCHECK
 70
     0
  9
$BLIPMODE
 70
     0
  9
$CHAMFERA
 40
0.2
  9
$CHAMFERB
 40
0.2
  9
$SKPOLY
 70
     0
  9
$TDCREATE
 40
2457241.8201514469
  9
$TDUPDATE
 40
2457242.384572905
  9
$TDINDWG
 40
0.0052428704
  9
$TDUSRTIMER
 40
0.0052428356
  9
$USRTIMER
 70
     1
  9
$ANGBASE
 50
0.0
  9
$ANGDIR
 70
     0
  9
$PDMODE
 70
     1
  9
$PDSIZE
 40
0.0
  9
$PLINEWID
 40
0.0
  9
$COORDS
 70
     1
  9
$SPLFRAME
 70
     0
  9
$SPLINETYPE
 70
     6
  9
$SPLINESEGS
 70
     4
  9
$ATTDIA
 70
     1
  9
$ATTREQ
 70
     1
  9
$HANDLING
 70
     1
  9
$HANDSEED
  5
4C02
  9
$SURFTAB1
 70
     6
  9
$SURFTAB2
 70
     6
  9
$SURFTYPE
 70
     6
  9
$SURFU
 70
     6
  9
$SURFV
 70
     6
  9
$UCSNAME
  2

  9
$UCSORG
 10
0.0
 20
0.0
 30
0.0
  9
$UCSXDIR
 10
1.0
 20
0.0
 30
0.0
  9
$UCSYDIR
 10
0.0
 20
1.0
 30
0.0
  9
$PUCSNAME
  2

  9
$PUCSORG
 10
0.0
 20
0.0
 30
0.0
  9
$PUCSXDIR
 10
1.0
 20
0.0
 30
0.0
  9
$PUCSYDIR
 10
0.0
 20
1.0
 30
0.0
  9
$USERI1
 70
     1
  9
$USERI2
 70
     0
  9
$USERI3
 70
     0
  9
$USERI4
 70
     0
  9
$USERI5
 70
     0
  9
$USERR1
 40
0.0
  9
$USERR2
 40
0.0
  9
$USERR3
 40
0.0
  9
$USERR4
 40
0.0
  9
$USERR5
 40
0.0
  9
$WORLDVIEW
 70
     1
  9
$SHADEDGE
 70
     3
  9
$SHADEDIF
 70
    70
  9
$TILEMODE
 70
     1
  9
$MAXACTVP
 70
    16
  9
$PLIMCHECK
 70
     0
  9
$PEXTMIN
 10
1.0000000000000000E+020
 20
1.0000000000000000E+020
 30
1.0000000000000000E+020
  9
$PEXTMAX
 10
-1.0000000000000000E+020
 20
-1.0000000000000000E+020
 30
-1.0000000000000000E+020
  9
$PLIMMIN
 10
0.0
 20
0.0
  9
$PLIMMAX
 10
420.0
 20
297.0
  9
$UNITMODE
 70
     0
  9
$VISRETAIN
 70
     1
  9
$PLINEGEN
 70
     0
  9
$PSLTSCALE
 70
     1
  0
ENDSEC
  0
SECTION
  2
TABLES
  0
TABLE
  2
VPORT
 70
     1
  0
VPORT
  2
*ACTIVE
 70
     0
 10
0.0
 20
0.0
 11
1.0
 21
1.0
 12
64.966484664085428
 22
25.51334888211413
 13
0.0
 23
0.0
 14
7.0
 24
7.0
 15
7.0
 25
7.0
 16
0.0
 26
0.0
 36
1.0
 17
0.0
 27
0.0
 37
0.0
 40
157.2341750005925
 41
1.4355016538037479
 42
50.0
 43
0.0
 44
0.0
 50
0.0
 51
0.0
 71
     0
 72
  2000
 73
     1
 74
     0
 75
     0
 76
     1
 77
     0
 78
     0
  0
ENDTAB
  0
TABLE
  2
LTYPE
 70
    13
  0
LTYPE
  2
CONTINUOUS
 70
     0
  3
Solid line
 72
    65
 73
     0
 40
0.0
  0
LTYPE
  2
CENTER2
 70
     0
  3
___ _ ___ _ ___ _ ___ _ ___ _ ___ _ ___ _ ___ _
 72
    65
 73
     4
 40
1.125
 49
0.75
 49
-0.125
 49
0.125
 49
-0.125
  0
LTYPE
  2
HIDDEN2
 70
     0
  3
_ _ _ _ _ _ _ _ _ _ _ _ _ _ _ _ _ _ _ _ _ _ _ _
 72
    65
 73
     2
 40
0.1875
 49
0.125
 49
-0.0625
  0
LTYPE
  2
PHANTOM2
 70
     0
  3
___ _ _ ___ _ _ ___ _ _ ___ _ _ ___ _ _ ___ _ _
 72
    65
 73
     6
 40
1.25
 49
0.625
 49
-0.125
 49
0.125
 49
-0.125
 49
0.125
 49
-0.125
  0
LTYPE
  2
AM_ISO02W050
 70
     0
  3
__ __ __ __ __ __ __ __ __ __ __ __ __ __ __
 72
    65
 73
     2
 40
7.5
 49
6.0
 49
-1.5
  0
LTYPE
  2
AMCONSTR
 70
     0
  3
_______________________
 72
    65
 73
     2
 40
9999.0
 49
9999.0
 49
0.0
  0
LTYPE
  2
ACISOWELD
 70
     0
  3
_ _ _ _ _
 72
    65
 73
     2
 40
2.0
 49
2.0
 49
-1.0
  0
LTYPE
  2
ACISOTGB
 70
     0
  3
__ . . __ . .
 72
    65
 73
     6
 40
9.0
 49
4.0
 49
-1.0
 49
1.0
 49
-1.0
 49
1.0
 49
-1.0
  0
LTYPE
  2
ACISOTGL
 70
     0
  3
_ _ _ _ _
 72
    65
 73
     2
 40
3.0
 49
2.0
 49
-1.0
  0
LTYPE
  2
ACJISTGB
 70
     0
  3
__ . . __ . .
 72
    65
 73
     6
 40
9.0
 49
4.0
 49
-1.0
 49
1.0
 49
-1.0
 49
1.0
 49
-1.0
  0
LTYPE
  2
ACJISTGL
 70
     0
  3
_ _ _ _ _
 72
    65
 73
     2
 40
3.0
 49
2.0
 49
-1.0
  0
ENDTAB
  0
TABLE
  2
LAYER
 70
     8
  0
LAYER
  2
0
 70
     0
 62
     7
  6
CONTINUOUS
  0
LAYER
  2
DEFPOINTS
 70
     0
 62
     7
  6
CONTINUOUS
  0
LAYER
  2
245
 70
     0
 62
     2
  6
CENTER2
  0
LAYER
  2
240
 70
     0
 62
     4
  6
CONTINUOUS
  0
LAYER
  2
241
 70
     0
 62
   211
  6
CONTINUOUS
  0
LAYER
  2
242
 70
     0
 62
     3
  6
CONTINUOUS
  0
LAYER
  2
243
 70
     0
 62
   211
  6
HIDDEN2
  0
LAYER
  2
250
 70
     0
 62
     3
  6
CONTINUOUS
  0
ENDTAB
  0
TABLE
  2
STYLE
 70
     6
  0
STYLE
  2
STANDARD
 70
     0
 40
0.0
 41
1.0
 50
0.0
 71
     0
 42
3.0
  3
romans.shx
  4
extfont.shx
  0
STYLE
  2
ACISOTS
 70
     0
 40
1.0
 41
1.0
 50
0.0
 71
     0
 42
3.0
  3
amgdt.shx
  4
extfont.shx
  0
STYLE
  2
ACISOGDT
 70
     0
 40
0.0
 41
1.0
 50
0.0
 71
     0
 42
3.0
  3
amgdt.shx
  4
extfont.shx
  0
STYLE
  2
ACJISTS
 70
     0
 40
1.0
 41
1.0
 50
0.0
 71
     0
 42
3.0
  3
amgdt.shx
  4
extfont.shx
  0
STYLE
  2
ACJISGDT
 70
     0
 40
0.0
 41
1.0
 50
0.0
 71
     0
 42
3.0
  3
amgdt.shx
  4
extfont.shx
  0
STYLE
  2
YOKO
 70
     0
 40
0.0
 41
1.0
 50
0.0
 71
     0
 42
3.0
  3
romans.shx
  4
extfont.shx
  0
ENDTAB
  0
TABLE
  2
VIEW
 70
     0
  0
ENDTAB
  0
TABLE
  2
UCS
 70
     0
  0
ENDTAB
  0
TABLE
  2
APPID
 70
    36
  0
APPID
  2
ACAD
 70
     0
  0
APPID
  2
GLOBAL
 70
     0
  0
APPID
  2
DETAIL
 70
     0
  0
APPID
  2
GRPNAME
 70
     0
  0
APPID
  2
GPARA
 70
     0
  0
APPID
  2
MCAD_NO_VIS
 70
     0
  0
APPID
  2
ACAD_TEMP_GRAPHIC
 70
     0
  0
APPID
  2
ACATTRIBSERVICES
 70
     0
  0
APPID
  2
GENIUS_GENSCREG_15
 70
     0
  0
APPID
  2
GENIUS_GENODEF_13
 70
     0
  0
APPID
  2
GENIUS_GENOBJ-N-SDF_13
 70
     0
  0
APPID
  2
GENIUS_GENREC_14
 70
     0
  0
APPID
  2
GENIUS_GENOBJ-N-REC_13
 70
     0
  0
APPID
  2
GENIUS_GENDIMSH_14
 70
     0
  0
APPID
  2
GENIUS_GENOBJ-N-DIM_13
 70
     0
  0
APPID
  2
GENIUS_GENDIM_13
 70
     0
  0
APPID
  2
GENIUS_GENDTOL_13
 70
     0
  0
APPID
  2
GENIUS_GENOLIS_13
 70
     0
  0
APPID
  2
GENIUS_GENOENT_13
 70
     0
  0
APPID
  2
GENIUS_GENOBJ-F-FEM_13
 70
     0
  0
APPID
  2
GENIUS_GENOREF_13
 70
     0
  0
APPID
  2
GENIUS_GEFFEM_13
 70
     0
  0
APPID
  2
GENIUS_GEFFEMP_13
 70
     0
  0
APPID
  2
AD_DRAW
 70
     0
  0
APPID
  2
DESIGNERASSEMBLIES
 70
     0
  0
APPID
  2
ACADM_DIM_EDIT
 70
     0
  0
APPID
  2
AMDT_DM_ADJ
 70
     0
  0
APPID
  2
ITEMNAME
 70
     0
  0
APPID
  2
GENIUS_GENOBJ-N-FIL_13
 70
     0
  0
APPID
  2
GENIUS_GENFIL_13
 70
     0
  0
APPID
  2
GENIUS_GENOBJ-N-CHA_13
 70
     0
  0
APPID
  2
ACAD_NAV_VCDISPLAY
 70
     0
  0
APPID
  2
ASK_MEN_XD
 70
     0
  0
APPID
  2
ACAD_EXEMPT_FROM_CAD_STANDARDS
 70
     0
  0
APPID
  2
ACAD_DSTYLE_DIMINSPECT
 70
     0
  0
APPID
  2
ACAD_MLEADERVER
 70
     0
  0
ENDTAB
  0
TABLE
  2
DIMSTYLE
 70
    23
  0
DIMSTYLE
  2
BIGT
 70
     0
  3

  4

  5
OPEN
  6

  7

 40
1.0
 41
2.2299999999999991
 42
0.5
 43
7.0
 44
1.0
 45
0.0
 46
0.0
 47
0.0
 48
0.01
140
2.7999999999999989
141
0.0
142
0.0
143
25.399999999999999
144
1.0
145
0.0
146
1.0
147
1.0
 71
     0
 72
     0
 73
     0
 74
     0
 75
     0
 76
     0
 77
     3
 78
     9
170
     0
171
     2
172
     1
173
     0
174
     1
175
     0
176
   256
177
   256
178
    40
  0
DIMSTYLE
  2
AM_ISO
 70
     0
  3

  4
"
  5

  6

  7

 40
1.0
 41
2.5
 42
1.0
 43
10.0
 44
1.0
 45
0.0
 46
0.0
 47
0.1
 48
0.1
140
3.5
141
0.0
142
0.0
143
0.0393701
144
1.0
145
0.0
146
0.71
147
1.5
 71
     0
 72
     0
 73
     0
 74
     0
 75
     0
 76
     0
 77
     1
 78
     8
170
     0
171
     2
172
     1
173
     0
174
     0
175
     0
176
   256
177
   256
178
     2
  0
DIMSTYLE
  2
AM_ISO$3
 70
     0
  3

  4
"
  5

  6

  7

 40
1.0
 41
2.5
 42
1.0
 43
10.0
 44
1.0
 45
0.0
 46
0.0
 47
0.1
 48
0.1
140
3.5
141
0.0
142
0.0
143
0.0393701
144
1.0
145
0.0
146
0.71
147
1.5
 71
     0
 72
     0
 73
     0
 74
     1
 75
     0
 76
     0
 77
     1
 78
     8
170
     0
171
     2
172
     0
173
     0
174
     0
175
     0
176
   256
177
   256
178
     2
  0
DIMSTYLE
  2
AM_ISO$4
 70
     0
  3

  4
"
  5

  6

  7

 40
1.0
 41
2.5
 42
1.0
 43
10.0
 44
1.0
 45
0.0
 46
0.0
 47
0.1
 48
0.1
140
3.5
141
0.0
142
0.0
143
0.0393701
144
1.0
145
0.0
146
0.71
147
1.5
 71
     0
 72
     0
 73
     0
 74
     1
 75
     0
 76
     0
 77
     1
 78
     8
170
     0
171
     2
172
     0
173
     0
174
     0
175
     0
176
   256
177
   256
178
     2
  0
DIMSTYLE
  2
AM_ISO$6
 70
     0
  3

  4
"
  5

  6

  7

 40
1.0
 41
2.5
 42
1.0
 43
10.0
 44
1.0
 45
0.0
 46
0.0
 47
0.1
 48
0.1
140
3.5
141
0.0
142
0.0
143
0.0393701
144
1.0
145
0.0
146
0.71
147
1.5
 71
     0
 72
     0
 73
     0
 74
     0
 75
     0
 76
     0
 77
     0
 78
     8
170
     0
171
     2
172
     1
173
     0
174
     0
175
     0
176
   256
177
   256
178
     2
  0
DIMSTYLE
  2
AM_ISO$7
 70
     0
  3

  4
"
  5

  6

  7

 40
1.0
 41
2.5
 42
1.0
 43
10.0
 44
1.0
 45
0.0
 46
0.0
 47
0.1
 48
0.1
140
5.0
141
0.0
142
0.0
143
0.0393701
144
1.0
145
0.0
146
0.71
147
1.5
 71
     0
 72
     0
 73
     0
 74
     0
 75
     0
 76
     0
 77
     1
 78
     8
170
     0
171
     2
172
     1
173
     0
174
     0
175
     0
176
   256
177
   256
178
     2
  0
DIMSTYLE
  2
AM_ISO$SF
 70
     0
  3

  4
"
  5

  6

  7

 40
1.0
 41
2.5
 42
1.0
 43
10.0
 44
1.0
 45
0.0
 46
0.0
 47
0.1
 48
0.1
140
3.5
141
0.0
142
0.0
143
0.0393701
144
1.0
145
0.0
146
0.71
147
1.5
 71
     0
 72
     0
 73
     0
 74
     0
 75
     1
 76
     1
 77
     1
 78
     8
170
     0
171
     2
172
     1
173
     0
174
     0
175
     0
176
   256
177
   256
178
     2
  0
DIMSTYLE
  2
AM_ISO$SH
 70
     0
  3

  4
"
  5

  6
GENAXEH
  7

 40
1.0
 41
2.5
 42
1.0
 43
10.0
 44
1.0
 45
0.0
 46
0.0
 47
0.1
 48
0.1
140
3.5
141
0.0
142
0.0
143
0.0393701
144
2.0
145
0.0
146
0.71
147
1.5
 71
     0
 72
     0
 73
     0
 74
     0
 75
     1
 76
     1
 77
     1
 78
     8
170
     0
171
     2
172
     1
173
     1
174
     0
175
     0
176
   256
177
   256
178
     2
  0
DIMSTYLE
  2
BIGT$2
 70
     0
  3

  4

  5
OPEN
  6

  7

 40
1.0
 41
2.2299999999999991
 42
0.5
 43
7.0
 44
1.0
 45
0.0
 46
0.0
 47
0.0
 48
0.01
140
2.7999999999999989
141
0.0
142
0.0
143
25.399999999999999
144
1.0
145
0.0
146
1.0
147
1.0
 71
     0
 72
     0
 73
     0
 74
     0
 75
     0
 76
     0
 77
     3
 78
     9
170
     0
171
     2
172
     1
173
     0
174
     0
175
     0
176
   256
177
   256
178
    40
  0
DIMSTYLE
  2
BIGT$3
 70
     0
  3

  4

  5
OPEN
  6

  7

 40
1.0
 41
2.2299999999999991
 42
0.5
 43
2.5
 44
1.0
 45
0.0
 46
0.0
 47
0.0
 48
0.01
140
2.7999999999999989
141
0.0
142
0.0
143
25.399999999999999
144
1.0
145
0.0
146
1.0
147
1.0
 71
     0
 72
     0
 73
     0
 74
     0
 75
     0
 76
     0
 77
     3
 78
     9
170
     0
171
     2
172
     1
173
     0
174
     0
175
     0
176
   256
177
   256
178
    40
  0
DIMSTYLE
  2
BIGT$7
 70
     0
  3

  4

  5
OPEN
  6

  7

 40
0.0
 41
2.2299999999999991
 42
0.5
 43
7.0
 44
1.0
 45
0.0
 46
0.0
 47
0.0
 48
0.01
140
2.7999999999999989
141
0.0
142
0.0
143
25.399999999999999
144
1.0
145
0.0
146
1.0
147
1.0
 71
     0
 72
     0
 73
     0
 74
     0
 75
     0
 76
     0
 77
     3
 78
     9
170
     0
171
     2
172
     0
173
     0
174
     0
175
     0
176
   256
177
   256
178
    40
  0
DIMSTYLE
  2
BIGT$6
 70
     0
  3

  4

  5
OPEN
  6

  7

 40
1.0
 41
2.2299999999999991
 42
0.5
 43
2.5
 44
1.0
 45
0.0
 46
0.0
 47
0.0
 48
0.01
140
2.7999999999999989
141
0.0
142
0.0
143
25.399999999999999
144
1.0
145
0.0
146
1.0
147
1.0
 71
     0
 72
     0
 73
     0
 74
     0
 75
     0
 76
     0
 77
     3
 78
     9
170
     0
171
     2
172
     1
173
     0
174
     0
175
     0
176
   256
177
   256
178
    40
  0
DIMSTYLE
  2
BIGT$0
 70
     0
  3

  4

  5
OPEN
  6

  7

 40
1.0
 41
2.2299999999999991
 42
0.5
 43
7.0
 44
1.0
 45
0.0
 46
0.0
 47
0.0
 48
0.01
140
2.7999999999999989
141
0.0
142
0.0
143
25.399999999999999
144
1.0
145
0.0
146
1.0
147
1.0
 71
     0
 72
     0
 73
     0
 74
     0
 75
     0
 76
     0
 77
     3
 78
     9
170
     0
171
     2
172
     1
173
     0
174
     1
175
     0
176
   256
177
   256
178
    40
  0
DIMSTYLE
  2
BIGT$4
 70
     0
  3

  4

  5
OPEN
  6

  7

 40
1.0
 41
2.2299999999999991
 42
0.5
 43
2.5
 44
1.0
 45
0.0
 46
0.0
 47
0.0
 48
0.01
140
2.7999999999999989
141
0.0
142
0.0
143
25.399999999999999
144
1.0
145
0.0
146
1.0
147
1.0
 71
     0
 72
     0
 73
     0
 74
     0
 75
     0
 76
     0
 77
     3
 78
     9
170
     0
171
     2
172
     1
173
     0
174
     0
175
     0
176
   256
177
   256
178
    40
  0
DIMSTYLE
  2
BIGT$SH
 70
     0
  3

  4

  5
OPEN
  6

  7

 40
1.0
 41
2.2299999999999991
 42
0.5
 43
7.0
 44
1.0
 45
0.0
 46
0.0
 47
0.0
 48
0.0
140
2.7999999999999989
141
0.0
142
0.0
143
25.399999999999999
144
1.0
145
0.0
146
1.0
147
1.0
 71
     0
 72
     0
 73
     0
 74
     0
 75
     0
 76
     0
 77
     3
 78
     9
170
     0
171
     2
172
     1
173
     0
174
     0
175
     0
176
   256
177
   256
178
    40
  0
DIMSTYLE
  2
BIGT$SF
 70
     0
  3

  4

  5
OPEN
  6

  7

 40
1.0
 41
2.2299999999999991
 42
0.5
 43
7.0
 44
1.0
 45
0.0
 46
0.0
 47
0.0
 48
0.0
140
2.7999999999999989
141
0.0
142
0.0
143
25.399999999999999
144
1.0
145
0.0
146
1.0
147
1.0
 71
     0
 72
     0
 73
     0
 74
     0
 75
     0
 76
     0
 77
     3
 78
     9
170
     0
171
     2
172
     1
173
     0
174
     0
175
     0
176
   256
177
   256
178
    40
  0
DIMSTYLE
  2
TECHNICAL_OSAKA
 70
     0
  3

  4
"
  5
OPEN30
  6

  7

 40
1.0
 41
2.5
 42
1.0
 43
10.0
 44
1.0
 45
0.0
 46
0.0
 47
0.1
 48
0.1
140
2.7999999999999989
141
0.0
142
0.0
143
0.0393701
144
1.0
145
0.0
146
0.71
147
1.5
 71
     0
 72
     0
 73
     0
 74
     0
 75
     0
 76
     0
 77
     3
 78
     8
170
     0
171
     2
172
     1
173
     0
174
     0
175
     0
176
   256
177
   256
178
    40
  0
DIMSTYLE
  2
TECHNICAL_OSAKA$3
 70
     0
  3

  4
"
  5
OPEN30
  6

  7

 40
1.0
 41
2.5
 42
1.0
 43
10.0
 44
1.0
 45
0.0
 46
0.0
 47
0.1
 48
0.1
140
2.7999999999999989
141
0.0
142
0.0
143
0.0393701
144
1.0
145
0.0
146
0.71
147
1.5
 71
     0
 72
     0
 73
     0
 74
     1
 75
     0
 76
     0
 77
     3
 78
     8
170
     0
171
     2
172
     0
173
     0
174
     0
175
     0
176
   256
177
   256
178
    40
  0
DIMSTYLE
  2
TECHNICAL_OSAKA$4
 70
     0
  3

  4
"
  5
OPEN30
  6

  7

 40
1.0
 41
2.5
 42
1.0
 43
10.0
 44
1.0
 45
0.0
 46
0.0
 47
0.1
 48
0.1
140
2.7999999999999989
141
0.0
142
0.0
143
0.0393701
144
1.0
145
0.0
146
0.71
147
1.5
 71
     0
 72
     0
 73
     0
 74
     1
 75
     0
 76
     0
 77
     3
 78
     8
170
     0
171
     2
172
     0
173
     0
174
     0
175
     0
176
   256
177
   256
178
    40
  0
DIMSTYLE
  2
TECHNICAL_OSAKA$6
 70
     0
  3

  4
"
  5
OPEN30
  6

  7

 40
1.0
 41
2.5
 42
1.0
 43
10.0
 44
1.0
 45
0.0
 46
0.0
 47
0.1
 48
0.1
140
2.7999999999999989
141
0.0
142
0.0
143
0.0393701
144
1.0
145
0.0
146
0.71
147
1.5
 71
     0
 72
     0
 73
     0
 74
     0
 75
     0
 76
     0
 77
     0
 78
     8
170
     0
171
     2
172
     1
173
     0
174
     0
175
     0
176
   256
177
   256
178
    40
  0
DIMSTYLE
  2
TECHNICAL_OSAKA$7
 70
     0
  3

  4
"
  5
OPEN30
  6

  7

 40
1.0
 41
2.5
 42
1.0
 43
10.0
 44
1.0
 45
0.0
 46
0.0
 47
0.1
 48
0.1
140
2.7999999999999989
141
0.0
142
0.0
143
0.0393701
144
1.0
145
0.0
146
0.71
147
1.5
 71
     0
 72
     0
 73
     0
 74
     0
 75
     0
 76
     0
 77
     3
 78
     8
170
     0
171
     2
172
     1
173
     0
174
     0
175
     0
176
   256
177
   256
178
    40
  0
DIMSTYLE
  2
TECHNICAL_OSAKA$SF
 70
     0
  3

  4
"
  5
OPEN30
  6
OPEN30
  7
OPEN30
 40
1.0
 41
2.5
 42
1.0
 43
10.0
 44
1.0
 45
0.0
 46
0.0
 47
0.1
 48
0.1
140
3.5
141
0.0
142
0.0
143
0.0393701
144
1.0
145
0.0
146
0.71
147
1.5
 71
     0
 72
     0
 73
     0
 74
     0
 75
     1
 76
     1
 77
     3
 78
     8
170
     0
171
     2
172
     1
173
     0
174
     0
175
     0
176
   256
177
   256
178
    40
  0
DIMSTYLE
  2
TECHNICAL_OSAKA$SH
 70
     0
  3

  4
"
  5
OPEN30
  6
GENAXEH
  7
OPEN30
 40
1.0
 41
2.5
 42
1.0
 43
10.0
 44
1.0
 45
0.0
 46
0.0
 47
0.1
 48
0.1
140
3.5
141
0.0
142
0.0
143
0.0393701
144
2.0
145
0.0
146
0.71
147
1.5
 71
     0
 72
     0
 73
     0
 74
     0
 75
     1
 76
     1
 77
     3
 78
     8
170
     0
171
     2
172
     1
173
     1
174
     0
175
     0
176
   256
177
   256
178
    40
  0
ENDTAB
  0
ENDSEC
  0
SECTION
  2
BLOCKS
  0
BLOCK
  8
0
  2
$MODEL_SPACE
 70
     0
 10
0.0
 20
0.0
 30
0.0
  3
$MODEL_SPACE
  1

  0
ENDBLK
  5
1C
  8
0
  0
BLOCK
 67
     1
  8
0
  2
$PAPER_SPACE
 70
     0
 10
0.0
 20
0.0
 30
0.0
  3
$PAPER_SPACE
  1

  0
ENDBLK
  5
19
 67
     1
  8
0
  0
BLOCK
  8
0
  2
_OPEN
 70
     0
 10
0.0
 20
0.0
 30
0.0
  3
_OPEN
  1

  0
LINE
  5
4B0B
  8
0
  6
BYBLOCK
 62
     0
 10
-1.0
 20
0.1666666666666666
 30
0.0
 11
0.0
 21
0.0
 31
0.0
  0
LINE
  5
4B0C
  8
0
  6
BYBLOCK
 62
     0
 10
-1.0
 20
-0.1666666666666666
 30
0.0
 11
0.0
 21
0.0
 31
0.0
  0
LINE
  5
4B0D
  8
0
  6
BYBLOCK
 62
     0
 10
0.0
 20
0.0
 30
0.0
 11
-1.0
 21
0.0
 31
0.0
  0
ENDBLK
  5
4B0E
  8
0
  0
BLOCK
  8
0
  2
GENAXEH
 70
     0
 10
0.0
 20
0.0
 30
0.0
  3
GENAXEH
  1

  0
LINE
  5
4B46
  8
0
 10
-1.0
 20
0.0
 30
0.0
 11
1.0
 21
0.0
 31
0.0
  0
ENDBLK
  5
4B47
  8
0
  0
BLOCK
  8
0
  2
_OPEN30
 70
     0
 10
0.0
 20
0.0
 30
0.0
  3
_OPEN30
  1

  0
LINE
  5
4B82
  8
0
  6
BYBLOCK
 62
     0
 10
-1.0
 20
0.26794919
 30
0.0
 11
0.0
 21
0.0
 31
0.0
  0
LINE
  5
4B83
  8
0
  6
BYBLOCK
 62
     0
 10
0.0
 20
0.0
 30
0.0
 11
-1.0
 21
-0.26794919
 31
0.0
  0
LINE
  5
4B84
  8
0
  6
BYBLOCK
 62
     0
 10
0.0
 20
0.0
 30
0.0
 11
-1.0
 21
0.0
 31
0.0
  0
ENDBLK
  5
4B85
  8
0
  0
ENDSEC
  0
SECTION
  2
ENTITIES
  0
ARC
  5
4492
  8
240
 10
41.232673012020882
 20
-27.296450703979499
 30
0.0
 40
1.0
 50
15.00000000000116
 51
90.0
1001
GENIUS_GENOREF_13
1005
46E7
  0
LINE
  5
4493
  8
240
 10
61.750000000001137
 20
42.503549296020267
 30
0.0
 11
47.875430893341097
 21
42.503549296020388
 31
0.0
  0
LINE
  5
4494
  8
240
 10
61.749999999999659
 20
-42.496450703979718
 30
0.0
 11
47.875430893341949
 21
-42.496450703979953
 31
0.0
  0
ARC
  5
4495
  8
240
 10
47.8754308933419
 20
-40.496450703979939
 30
0.0
 40
2.0
 50
194.99999999999949
 51
270.0
1001
GENIUS_GENOREF_13
1005
0
  0
LINE
  5
4496
  8
240
 10
42.198598838309913
 20
-27.03763165887699
 30
0.0
 11
45.943579240763817
 21
-41.014088794184971
 31
0.0
  0
LINE
  5
4497
  8
241
 10
46.340776917383998
 20
-41.778962760093492
 30
0.0
 11
46.340776917383998
 21
41.786061352135128
 31
0.0
  0
ARC
  5
4498
  8
240
 10
41.232673012020882
 20
27.30354929602041
 30
0.0
 40
1.0
 50
270.0
 51
344.99999999999892
  0
LINE
  5
4499
  8
240
 10
42.198598838309913
 20
27.044730250917901
 30
0.0
 11
45.943579240763711
 21
41.021187386225392
 31
0.0
  0
LINE
  5
449A
  8
240
 10
61.749999999999659
 20
42.50354929602176
 30
0.0
 11
61.999999999999659
 21
42.253549296021752
 31
0.0
1001
GENIUS_GENFIL_13
1070
     0
1040
0.25
1040
0.25
1040
0.2500000000000284
1040
45.00000000000162
1002
{
1002
}
1001
GENIUS_GENODEF_13
1002
{
1000
HIER
1070
     0
1002
}
1002
{
1000
MANEDIT
1070
     0
1002
}
1002
{
1000
NOSEL
1070
     0
1002
}
1002
{
1000
BEHIND
1070
     0
1002
}
1002
{
1000
OTHER
1070
     0
1002
}
1002
{
1000
REACTOR
1002
}
1001
GENIUS_GENOBJ-N-CHA_13
1002
{
1000
OWNER
1000
GEN
1002
}
  0
LINE
  5
449B
  8
240
 10
61.749999999999659
 20
-42.496450703980848
 30
0.0
 11
61.999999999999659
 21
-42.246450703980848
 31
0.0
1001
GENIUS_GENFIL_13
1070
     0
1040
0.25
1040
0.25
1040
0.2500000000000284
1040
45.00000000000162
1002
{
1002
}
1001
GENIUS_GENODEF_13
1002
{
1000
HIER
1070
     0
1002
}
1002
{
1000
MANEDIT
1070
     0
1002
}
1002
{
1000
NOSEL
1070
     0
1002
}
1002
{
1000
BEHIND
1070
     0
1002
}
1002
{
1000
OTHER
1070
     0
1002
}
1002
{
1000
REACTOR
1002
}
1001
GENIUS_GENOBJ-N-CHA_13
1002
{
1000
OWNER
1000
GEN
1002
}
  0
LINE
  5
449C
  8
241
  6
CONTINUOUS
 10
61.999999999999773
 20
-42.246450703980742
 30
0.0
 11
61.999999999999801
 21
42.25354929602161
 31
0.0
  0
ARC
  5
449D
  8
240
 10
47.87543089334104
 20
40.503549296020573
 30
0.0
 40
2.0
 50
90.0
 51
165.00000000000219
  0
LINE
  5
44C6
  8
240
 10
25.999999999999989
 20
26.30354929602078
 30
0.0
 11
41.232673012020882
 21
26.30354929602078
 31
0.0
1001
GRPNAME
1000
PASTMD06
  0
LINE
  5
44C7
  8
240
 10
26.0
 20
-26.29645070397919
 30
0.0
 11
41.232673012020882
 21
-26.29645070397919
 31
0.0
1001
GRPNAME
1000
PASTMD06
  0
LINE
  5
44DD
  8
241
 10
26.5
 20
24.87346019664588
 30
0.0
 11
26.5
 21
10.440719475274131
 31
0.0
1001
GRPNAME
1000
PASTMD06
  0
LINE
  5
44DE
  8
241
 10
26.5
 20
10.440719475274131
 30
0.0
 11
41.483124503702072
 21
10.440719475274131
 31
0.0
1001
GRPNAME
1000
PASTMD06
  0
LINE
  5
44DF
  8
241
 10
26.5
 20
24.87346019664588
 30
0.0
 11
41.5
 21
24.87346019664588
 31
0.0
1001
GRPNAME
1000
PASTMD06
  0
LINE
  5
44E0
  8
241
 10
41.5
 20
10.440719475274131
 30
0.0
 11
41.5
 21
24.87346019664588
 31
0.0
  0
LINE
  5
44E1
  8
241
 10
42.0
 20
26.662293267963829
 30
0.0
 11
42.0
 21
-26.655194675922939
 31
0.0
1001
GRPNAME
1000
PASTMD06
  0
LINE
  5
44E2
  8
242
 10
26.5
 20
10.440719475274131
 30
0.0
 11
41.5
 21
24.87346019664588
 31
0.0
1001
GRPNAME
1000
PASTMD06
  0
LINE
  5
44E3
  8
242
 10
26.5
 20
24.87346019664588
 30
0.0
 11
41.483124503702072
 21
10.440719475274131
 31
0.0
1001
GRPNAME
1000
PASTMD06
  0
LINE
  5
4532
  8
245
 10
-34.336912935692283
 20
0.0035492960207932
 30
0.0
 11
50.441088624794297
 21
-0.0052139327573002
 31
0.0
1001
GRPNAME
1000
PASTMD0P
  0
LINE
  5
4533
  8
245
 10
56.741174812052833
 20
-0.0058651523609967
 30
0.0
 11
74.40441109773738
 21
-0.0076909441664554
 31
0.0
1001
GRPNAME
1000
PASTMD0P
  0
LINE
  5
4534
  8
245
 10
81.530205039788655
 20
-0.0084275145194965
 30
0.0
 11
160.15385390380101
 21
-0.016554587695083
 31
0.0
1001
GRPNAME
1000
PASTMD0P
  0
LINE
  5
45E2
  8
243
 10
102.3660254037835
 20
16.003549296023461
 30
0.0
 11
154.99999999999901
 21
16.003549296023689
 31
0.0
1001
GRPNAME
1000
PASTMD64
  0
LINE
  5
45E7
  8
240
  6
CONTINUOUS
 10
111.899999999999
 20
-34.346450703976558
 30
0.0
 11
113.8999999999989
 21
-34.346450703976558
 31
0.0
  0
LINE
  5
45E8
  8
240
  6
CONTINUOUS
 10
114.44999999999899
 20
-33.796450703976546
 30
0.0
 11
113.8999999999989
 21
-34.346450703976558
 31
0.0
  0
LINE
  5
45E9
  8
240
  6
CONTINUOUS
 10
115.69999999999899
 20
-33.796450703976546
 30
0.0
 11
115.899999999999
 21
-33.996450703976528
 31
0.0
  0
LINE
  5
45EA
  8
240
  6
CONTINUOUS
 10
114.44999999999899
 20
-33.796450703976546
 30
0.0
 11
115.69999999999899
 21
-33.796450703976546
 31
0.0
  0
LINE
  5
45EB
  8
240
  6
CONTINUOUS
 10
115.899999999999
 20
-33.996450703976528
 30
0.0
 11
126.8999999999991
 21
-33.996450703976478
 31
0.0
  0
LINE
  5
45EC
  8
240
  6
CONTINUOUS
 10
127.8499999999991
 20
-33.046450703976546
 30
0.0
 11
126.8999999999991
 21
-33.996450703976528
 31
0.0
  0
LINE
  5
45ED
  8
240
  6
CONTINUOUS
 10
129.19999999999899
 20
-33.046450703976546
 30
0.0
 11
129.89999999999901
 21
-33.746450703976542
 31
0.0
  0
LINE
  5
45EE
  8
240
  6
CONTINUOUS
 10
127.8499999999991
 20
-33.046450703976546
 30
0.0
 11
129.19999999999899
 21
-33.046450703976546
 31
0.0
  0
LINE
  5
45EF
  8
240
  6
CONTINUOUS
 10
129.89999999999901
 20
-33.746450703976542
 30
0.0
 11
140.3999999999991
 21
-33.746450703976542
 31
0.0
  0
LINE
  5
45F0
  8
240
  6
CONTINUOUS
 10
142.26602540378329
 20
-33.246450703976542
 30
0.0
 11
140.3999999999991
 21
-33.746450703976542
 31
0.0
  0
LINE
  5
45F1
  8
241
  6
CONTINUOUS
 10
110.8999999999989
 20
32.903549296019349
 30
0.0
 11
110.899999999999
 21
-32.896450703976512
 31
0.0
  0
LINE
  5
45F2
  8
240
  6
CONTINUOUS
 10
110.899999999999
 20
-32.896450703976512
 30
0.0
 11
110.899999999999
 21
-33.346450703976558
 31
0.0
  0
ARC
  5
45F3
  8
240
  6
CONTINUOUS
 10
111.899999999999
 20
-33.346450703976558
 30
0.0
 40
1.0
 50
180.0
 51
270.0
1001
ASK_MEN_XD
1005
0
1070
     1
1005
0
1070
     1
  0
LINE
  5
45F4
  8
241
  6
CONTINUOUS
 10
127.8499999999991
 20
-33.04645070397649
 30
0.0
 11
127.849999999999
 21
33.053549296019497
 31
0.0
  0
LINE
  5
45F5
  8
241
  6
CONTINUOUS
 10
126.8999999999991
 20
-33.996450703976478
 30
0.0
 11
126.8999999999991
 21
34.003549296019287
 31
0.0
  0
LINE
  5
45F6
  8
241
  6
CONTINUOUS
 10
115.899999999999
 20
-33.996450703976528
 30
0.0
 11
115.8999999999991
 21
34.003549296019401
 31
0.0
  0
LINE
  5
45F7
  8
241
  6
CONTINUOUS
 10
115.69999999999899
 20
-33.796450703976546
 30
0.0
 11
115.69999999999899
 21
-31.05124306750017
 31
0.0
  0
LINE
  5
45F8
  8
241
  6
CONTINUOUS
 10
114.44999999999899
 20
-33.796450703976546
 30
0.0
 11
114.44999999999899
 21
33.803549296019348
 31
0.0
  0
LINE
  5
45F9
  8
241
  6
CONTINUOUS
 10
113.8999999999989
 20
-34.346450703976558
 30
0.0
 11
113.8999999999988
 21
34.353549296019402
 31
0.0
  0
LINE
  5
45FA
  8
241
  6
CONTINUOUS
 10
140.3999999999991
 20
-33.746450703976542
 30
0.0
 11
140.3999999999991
 21
-23.733101410067629
 31
0.0
  0
LINE
  5
45FB
  8
241
  6
CONTINUOUS
 10
129.19999999999899
 20
-33.046450703976546
 30
0.0
 11
129.19999999999899
 21
-23.43699114815692
 31
0.0
  0
LINE
  5
45FC
  8
241
  6
CONTINUOUS
 10
129.19999999999899
 20
-19.835524398556601
 30
0.0
 11
129.19999999999899
 21
-2.6213316536577902
 31
0.0
  0
LINE
  5
45FD
  8
241
  6
CONTINUOUS
 10
129.89999999999901
 20
-33.746450703976542
 30
0.0
 11
129.89999999999901
 21
-23.715317456988458
 31
0.0
  0
LINE
  5
45FE
  8
241
  6
CONTINUOUS
 10
129.89999999999901
 20
-19.557198089725059
 30
0.0
 11
129.89999999999901
 21
-3.0296008815970761
 31
0.0
  0
LINE
  5
45FF
  8
241
  6
CONTINUOUS
 10
140.3999999999991
 20
-19.539414136645942
 30
0.0
 11
140.3999999999991
 21
-3.0705359337643752
 31
0.0
  0
LINE
  5
4600
  8
241
  6
CONTINUOUS
 10
142.2660254037832
 20
-33.246450703976542
 30
0.0
 11
142.26602540378329
 21
-1.2168966156617951
 31
0.0
  0
LINE
  5
4601
  8
241
  6
CONTINUOUS
 10
131.19999999999899
 20
-2.9964507039765351
 30
0.0
 11
139.19999999999899
 21
-2.9964507039765351
 31
0.0
  0
ARC
  5
4602
  8
241
  6
CONTINUOUS
 10
131.19999999999899
 20
0.0035492960234649
 30
0.0
 40
3.0
 50
180.0
 51
270.0
  0
ARC
  5
4603
  8
241
  6
CONTINUOUS
 10
139.19999999999899
 20
0.0035492960234649
 30
0.0
 40
3.0
 50
270.0
 51
0.0
  0
ARC
  5
4604
  8
241
  6
CONTINUOUS
 10
131.19999999999899
 20
0.0035492960234649
 30
0.0
 40
3.2999999999999972
 50
180.0
 51
270.00000231405153
  0
LINE
  5
4605
  8
241
  6
CONTINUOUS
 10
131.2000001332791
 20
-3.2964507039764892
 30
0.0
 11
139.19999999999899
 21
-3.2964507039764892
 31
0.0
  0
ARC
  5
4606
  8
241
  6
CONTINUOUS
 10
139.19999999999899
 20
0.0035492960234649
 30
0.0
 40
3.300000000000014
 50
269.99999768594199
 51
0.0
  0
LINE
  5
4607
  8
241
  6
CONTINUOUS
 10
139.199999866719
 20
-3.2964507039764892
 30
0.0
 11
131.199999866719
 21
-3.2964507039764892
 31
0.0
  0
ARC
  5
4608
  8
241
  6
CONTINUOUS
 10
131.19999999999899
 20
0.0035492960234649
 30
0.0
 40
3.2999999999999972
 50
180.0
 51
269.99999768594199
  0
ARC
  5
4609
  8
241
  6
CONTINUOUS
 10
130.3213203435588
 20
-21.636257773356789
 30
0.0
 40
2.121320343559645
 50
90.0
 51
270.0
  0
ARC
  5
460A
  8
241
  6
CONTINUOUS
 10
140.07867965643939
 20
-21.636257773356789
 30
0.0
 40
2.121320343559645
 50
270.0
 51
90.0
  0
ARC
  5
460B
  8
241
  6
CONTINUOUS
 10
130.3213203435586
 20
-19.760085238137179
 30
0.0
 40
2.121320343559618
 50
206.24549098049391
 51
270.0
  0
ARC
  5
460C
  8
241
  6
CONTINUOUS
 10
140.07867965643939
 20
-19.760085238137179
 30
0.0
 40
2.121320343559602
 50
270.0
 51
333.75450901950597
  0
LINE
  5
460D
  8
241
  6
CONTINUOUS
 10
130.3213203435588
 20
-19.514937429797129
 30
0.0
 11
140.07867965643939
 21
-19.514937429797129
 31
0.0
  0
LINE
  5
460E
  8
241
  6
CONTINUOUS
 10
130.3213203435588
 20
-23.757578116916392
 30
0.0
 11
140.07867965643939
 21
-23.757578116916392
 31
0.0
  0
LINE
  5
460F
  8
241
  6
CONTINUOUS
 10
130.3213203435586
 20
-21.881405581696779
 30
0.0
 11
140.07867965643939
 21
-21.881405581696779
 31
0.0
  0
LINE
  5
462A
  8
240
 10
154.99999999999901
 20
-27.582237141603429
 30
0.0
 11
154.99999999999901
 21
0.0035492960234649
 31
0.0
  0
LINE
  5
4631
  8
241
  6
CONTINUOUS
 10
101.6999999999984
 20
0.0035492960234649
 30
0.0
 11
101.6999999999984
 21
-29.14643936388612
 31
0.0
  0
LINE
  5
4632
  8
240
  6
CONTINUOUS
 10
101.6999999999984
 20
-29.146439363661639
 30
0.0
 11
101.6999999999984
 21
-30.896450703976569
 31
0.0
  0
ARC
  5
4633
  8
240
 10
102.1999999999984
 20
-30.896450703976569
 30
0.0
 40
0.5
 50
180.0
 51
270.0
1001
ASK_MEN_XD
1005
0
1070
     1
1005
0
1070
     1
  0
ARC
  5
4634
  8
240
 10
109.3999999999985
 20
-32.896450703976512
 30
0.0
 40
1.5
 50
0.0
 51
90.0
1001
ASK_MEN_XD
1005
0
1070
     1
1005
0
1070
     1
  0
LINE
  5
4635
  8
240
 10
109.3999999999985
 20
-31.396450703976509
 30
0.0
 11
102.1999999999984
 21
-31.396450703976569
 31
0.0
  0
LINE
  5
4636
  8
240
 10
154.70710678118559
 20
-28.289343922789978
 30
0.0
 11
151.10580584659311
 21
-31.890644857382402
 31
0.0
  0
ARC
  5
4637
  8
240
 10
148.98448550303351
 20
-29.769324513822799
 30
0.0
 40
3.0
 50
273.99999999999648
 51
315.0
1001
ASK_MEN_XD
1005
0
1070
     1
1005
0
1070
     1
  0
ARC
  5
4638
  8
240
 10
153.99999999999901
 20
-27.582237141603429
 30
0.0
 40
1.0
 50
315.0
 51
0.0
1001
ASK_MEN_XD
1005
0
1070
     1
1005
0
1070
     1
  0
LINE
  5
4639
  8
240
 10
142.26602540378329
 20
-33.246450703976542
 30
0.0
 11
149.19375492426579
 21
-32.762016664602271
 31
0.0
  0
LINE
  5
463A
  8
241
 10
150.31267666985681
 20
-32.459288867559188
 30
0.0
 11
150.31267666985681
 21
0.0035492960234649
 31
0.0
  0
ARC
  5
463B
  8
240
  6
CONTINUOUS
 10
100.6999999999976
 20
-29.14643936388612
 30
0.0
 40
1.0
 50
270.00000001286469
 51
0.0000000128614507
1001
GENIUS_GENODEF_13
1002
{
1000
HIER
1070
     0
1002
}
1002
{
1000
MANEDIT
1070
     0
1002
}
1002
{
1000
NOSEL
1070
     0
1002
}
1002
{
1000
BEHIND
1070
     0
1002
}
1002
{
1000
OTHER
1070
     0
1002
}
1002
{
1000
REACTOR
1002
}
1001
GENIUS_GENOBJ-N-FIL_13
1002
{
1000
OWNER
1000
GEN
1002
}
  0
LINE
  5
463C
  8
240
  6
CONTINUOUS
 10
100.6999999999976
 20
-30.14643936388612
 30
0.0
 11
99.699999999997786
 21
-30.14643936388612
 31
0.0
  0
LINE
  5
463D
  8
241
  6
CONTINUOUS
 10
99.699999999997658
 20
-30.14643936388612
 30
0.0
 11
99.699999999997658
 21
0.0035492960219301
 31
0.0
  0
LINE
  5
463E
  8
240
 10
75.499999999999318
 20
43.003549296020573
 30
0.0
 11
62.499999999999432
 21
43.003549296020502
 31
0.0
  0
LINE
  5
463F
  8
240
 10
61.999999999999432
 20
42.503549296020509
 30
0.0
 11
62.499999999999432
 21
43.003549296020502
 31
0.0
1001
GENIUS_GENFIL_13
1070
     0
1040
0.5
1040
0.5
1040
0.4999999999999716
1040
45.000000000004889
1000
~T
  0
LINE
  5
4640
  8
241
  6
CONTINUOUS
 10
61.999999999999311
 20
42.503549296020452
 30
0.0
 11
62.000000000000227
 21
-42.496450703978837
 31
0.0
  0
LINE
  5
4641
  8
241
  6
CONTINUOUS
 10
75.999999999999318
 20
42.503549296020559
 30
0.0
 11
76.000000000000171
 21
-42.496450703978148
 31
0.0
  0
ARC
  5
4642
  8
240
 10
75.499999999999318
 20
42.503549296020559
 30
0.0
 40
0.5
 50
0.0
 51
90.0
1001
GENIUS_GENOBJ-N-FIL_13
1002
{
1000
OWNER
1000
GEN
1002
}
1001
GENIUS_GENODEF_13
1002
{
1000
HIER
1070
     0
1002
}
1002
{
1000
MANEDIT
1070
     0
1002
}
1002
{
1000
NOSEL
1070
     0
1002
}
1002
{
1000
BEHIND
1070
     0
1002
}
1002
{
1000
OTHER
1070
     0
1002
}
1002
{
1000
REACTOR
1002
}
  0
ARC
  5
4643
  8
240
 10
75.500000000000171
 20
-42.496450703978148
 30
0.0
 40
0.5
 50
270.0
 51
0.0
1001
GENIUS_GENOBJ-N-FIL_13
1002
{
1000
OWNER
1000
GEN
1002
}
1001
GENIUS_GENODEF_13
1002
{
1000
HIER
1070
     0
1002
}
1002
{
1000
MANEDIT
1070
     0
1002
}
1002
{
1000
NOSEL
1070
     0
1002
}
1002
{
1000
BEHIND
1070
     0
1002
}
1002
{
1000
OTHER
1070
     0
1002
}
1002
{
1000
REACTOR
1002
}
  0
LINE
  5
4644
  8
240
 10
75.500000000000171
 20
-42.996450703978148
 30
0.0
 11
62.499999999999432
 21
-42.996450703978113
 31
0.0
  0
LINE
  5
4645
  8
240
 10
61.999999999999432
 20
-42.496450703978113
 30
0.0
 11
62.499999999999432
 21
-42.996450703978113
 31
0.0
1001
GENIUS_GENFIL_13
1070
     0
1040
0.4999999999992753
1040
0.4999999999992611
1040
0.4999999999992753
1040
44.999999999999183
1002
{
1002
}
1001
GENIUS_GENOREF_13
1005
0
  0
POLYLINE
  5
4646
  8
241
 66
     1
 10
0.0
 20
0.0
 30
0.0
 70
     1
  0
VERTEX
  5
4BF8
  8
241
 10
66.499999999999432
 20
36.658249834399243
 30
0.0
  0
VERTEX
  5
4BF9
  8
241
 10
66.499999999999432
 20
34.348848757640752
 30
0.0
  0
VERTEX
  5
4BFA
  8
241
 10
68.499999999999432
 20
33.194148219261557
 30
0.0
  0
VERTEX
  5
4BFB
  8
241
 10
70.499999999999432
 20
34.348848757640752
 30
0.0
  0
VERTEX
  5
4BFC
  8
241
 10
70.499999999999432
 20
36.658249834399243
 30
0.0
  0
VERTEX
  5
4BFD
  8
241
 10
68.499999999999432
 20
37.812950372778552
 30
0.0
  0
SEQEND
  5
4BFE
  8
241
  0
LINE
  5
4647
  8
241
 10
75.999999999999773
 20
-5.873046513195419
 30
0.0
 11
61.999999999999829
 21
-5.873046513195419
 31
0.0
  0
LINE
  5
4648
  8
241
 10
75.999999999999886
 20
-16.205441803148091
 30
0.0
 11
61.999999999999943
 21
-16.205441803148091
 31
0.0
  0
LINE
  5
4649
  8
241
 10
76.0
 20
-26.384004320258111
 30
0.0
 11
62.0
 21
-26.384004320258111
 31
0.0
  0
LINE
  5
464A
  8
241
 10
76.000000000000114
 20
-33.947842636386937
 30
0.0
 11
62.000000000000107
 21
-33.947842636386937
 31
0.0
  0
LINE
  5
464B
  8
241
 10
76.000000000000114
 20
-39.824438445605139
 30
0.0
 11
62.000000000000171
 21
-39.824438445605139
 31
0.0
  0
LINE
  5
464C
  8
240
 10
99.699999999996976
 20
-36.668000899052373
 30
0.0
 11
99.699999999997146
 21
-30.14643936388612
 31
0.0
  0
LINE
  5
464D
  8
240
 10
99.699999999998283
 20
30.153537955928961
 30
0.0
 11
99.699999999998354
 21
36.675099491094187
 31
0.0
  0
ARC
  5
464E
  8
240
  6
CONTINUOUS
 10
97.69999999999834
 20
36.675099491094187
 30
0.0
 40
2.0
 50
0.0
 51
45.0
1001
GENIUS_GENOBJ-N-FIL_13
1002
{
1000
OWNER
1000
GEN
1002
}
1001
GENIUS_GENODEF_13
1002
{
1000
HIER
1070
     0
1002
}
1002
{
1000
MANEDIT
1070
     0
1002
}
1002
{
1000
NOSEL
1070
     0
1002
}
1002
{
1000
BEHIND
1070
     0
1002
}
1002
{
1000
OTHER
1070
     0
1002
}
1002
{
1000
REACTOR
1002
}
  0
LINE
  5
464F
  8
240
  6
CONTINUOUS
 10
95.285786437625134
 20
41.917740178213442
 30
0.0
 11
99.114213562371333
 21
38.089313053467237
 31
0.0
1001
GENIUS_GENFIL_13
1070
     0
1040
5.0
1040
5.0
1040
0.2500000000000284
1040
45.00000000000162
1002
{
1002
}
1001
GENIUS_GENODEF_13
1002
{
1000
HIER
1070
     0
1002
}
1002
{
1000
MANEDIT
1070
     0
1002
}
1002
{
1000
NOSEL
1070
     0
1002
}
1002
{
1000
BEHIND
1070
     0
1002
}
1002
{
1000
OTHER
1070
     0
1002
}
1002
{
1000
REACTOR
1002
}
1001
GENIUS_GENOBJ-N-CHA_13
1002
{
1000
OWNER
1000
GEN
1002
}
  0
ARC
  5
4650
  8
240
  6
CONTINUOUS
 10
93.871572875252113
 20
40.503526615840343
 30
0.0
 40
2.0
 50
45.0
 51
90.0
1001
GENIUS_GENFIL_13
1070
     0
1040
5.0
1040
5.0
1040
0.2500000000000284
1040
45.00000000000162
1002
{
1002
}
1001
GENIUS_GENOBJ-N-CHA_13
1002
{
1000
OWNER
1000
GEN
1002
}
1001
GENIUS_GENOBJ-N-FIL_13
1002
{
1000
OWNER
1000
GEN
1002
}
1001
GENIUS_GENODEF_13
1002
{
1000
HIER
1070
     0
1002
}
1002
{
1000
MANEDIT
1070
     0
1002
}
1002
{
1000
NOSEL
1070
     0
1002
}
1002
{
1000
BEHIND
1070
     0
1002
}
1002
{
1000
OTHER
1070
     0
1002
}
1002
{
1000
REACTOR
1002
}
  0
LINE
  5
4651
  8
240
  6
CONTINUOUS
 10
76.249999999999432
 20
42.503526615840229
 30
0.0
 11
93.871572875252014
 21
42.503526615840343
 31
0.0
  0
LINE
  5
4652
  8
241
 10
75.999999999999375
 20
42.253526615840173
 30
0.0
 11
76.000000000000114
 21
-42.246428023799147
 31
0.0
  0
LINE
  5
4653
  8
240
  6
CONTINUOUS
 10
76.249999999999432
 20
42.503526615840229
 30
0.0
 11
75.999999999999432
 21
42.253526615840229
 31
0.0
1001
GENIUS_GENFIL_13
1070
     0
1040
0.25
1040
0.25
1040
0.2500000000000284
1040
45.00000000000162
1002
{
1002
}
1001
GENIUS_GENODEF_13
1002
{
1000
HIER
1070
     0
1002
}
1002
{
1000
MANEDIT
1070
     0
1002
}
1002
{
1000
NOSEL
1070
     0
1002
}
1002
{
1000
BEHIND
1070
     0
1002
}
1002
{
1000
OTHER
1070
     0
1002
}
1002
{
1000
REACTOR
1002
}
1001
GENIUS_GENOBJ-N-CHA_13
1002
{
1000
OWNER
1000
GEN
1002
}
  0
ARC
  5
4654
  8
240
  6
CONTINUOUS
 10
97.69999999999834
 20
-36.668000899052323
 30
0.0
 40
2.0
 50
315.0
 51
0.0
1001
GENIUS_GENOBJ-N-FIL_13
1002
{
1000
OWNER
1000
GEN
1002
}
1001
GENIUS_GENODEF_13
1002
{
1000
HIER
1070
     0
1002
}
1002
{
1000
MANEDIT
1070
     0
1002
}
1002
{
1000
NOSEL
1070
     0
1002
}
1002
{
1000
BEHIND
1070
     0
1002
}
1002
{
1000
OTHER
1070
     0
1002
}
1002
{
1000
REACTOR
1002
}
  0
ARC
  5
4655
  8
240
  6
CONTINUOUS
 10
93.871572875252113
 20
-40.496428023798522
 30
0.0
 40
2.0
 50
270.0
 51
315.0
1001
GENIUS_GENFIL_13
1070
     0
1040
5.0
1040
5.0
1040
0.2500000000000284
1040
45.00000000000162
1002
{
1002
}
1001
GENIUS_GENOBJ-N-CHA_13
1002
{
1000
OWNER
1000
GEN
1002
}
1001
GENIUS_GENOBJ-N-FIL_13
1002
{
1000
OWNER
1000
GEN
1002
}
1001
GENIUS_GENODEF_13
1002
{
1000
HIER
1070
     0
1002
}
1002
{
1000
MANEDIT
1070
     0
1002
}
1002
{
1000
NOSEL
1070
     0
1002
}
1002
{
1000
BEHIND
1070
     0
1002
}
1002
{
1000
OTHER
1070
     0
1002
}
1002
{
1000
REACTOR
1002
}
  0
LINE
  5
4656
  8
240
  6
CONTINUOUS
 10
76.249999999999432
 20
-42.496428023798408
 30
0.0
 11
93.871572875252113
 21
-42.496428023798522
 31
0.0
  0
LINE
  5
4657
  8
240
  6
CONTINUOUS
 10
76.249999999999432
 20
-42.496428023798408
 30
0.0
 11
75.999999999999432
 21
-42.246428023798408
 31
0.0
1001
GENIUS_GENFIL_13
1070
     0
1040
0.25
1040
0.25
1040
0.2500000000000284
1040
45.00000000000162
1002
{
1002
}
1001
GENIUS_GENODEF_13
1002
{
1000
HIER
1070
     0
1002
}
1002
{
1000
MANEDIT
1070
     0
1002
}
1002
{
1000
NOSEL
1070
     0
1002
}
1002
{
1000
BEHIND
1070
     0
1002
}
1002
{
1000
OTHER
1070
     0
1002
}
1002
{
1000
REACTOR
1002
}
1001
GENIUS_GENOBJ-N-CHA_13
1002
{
1000
OWNER
1000
GEN
1002
}
  0
LINE
  5
4658
  8
240
  6
CONTINUOUS
 10
95.285786437625234
 20
-41.910641586174712
 30
0.0
 11
99.114213562371447
 21
-38.082214461428492
 31
0.0
1001
GENIUS_GENFIL_13
1070
     0
1040
5.0
1040
5.0
1040
0.2500000000000284
1040
45.00000000000162
1002
{
1002
}
1001
GENIUS_GENODEF_13
1002
{
1000
HIER
1070
     0
1002
}
1002
{
1000
MANEDIT
1070
     0
1002
}
1002
{
1000
NOSEL
1070
     0
1002
}
1002
{
1000
BEHIND
1070
     0
1002
}
1002
{
1000
OTHER
1070
     0
1002
}
1002
{
1000
REACTOR
1002
}
1001
GENIUS_GENOBJ-N-CHA_13
1002
{
1000
OWNER
1000
GEN
1002
}
  0
LINE
  5
4659
  8
241
 10
94.700000000001396
 20
-42.316787466046073
 30
0.0
 11
94.700000000001353
 21
42.323886058087879
 31
0.0
  0
LINE
  5
465A
  8
241
 10
76.499999999999773
 20
-3.7005677940487369
 30
0.0
 11
78.499999999999773
 21
-3.7005677940487369
 31
0.0
  0
LINE
  5
465B
  8
241
 10
79.499999999999773
 20
-7.376494316453857
 30
0.0
 11
76.499999999999773
 21
-7.376494316453857
 31
0.0
  0
LINE
  5
465C
  8
241
 10
76.499999999999886
 20
-10.99625425077593
 30
0.0
 11
78.499999999999829
 21
-10.99625425077593
 31
0.0
  0
LINE
  5
465D
  8
241
 10
76.499999999999886
 20
-14.532299038243901
 30
0.0
 11
79.499999999999886
 21
-14.532299038243901
 31
0.0
  0
LINE
  5
465E
  8
241
 10
76.499999999999886
 20
-17.95771724290293
 30
0.0
 11
78.499999999999886
 21
-17.95771724290293
 31
0.0
  0
LINE
  5
465F
  8
241
 10
76.499999999999886
 20
-21.24643936389154
 30
0.0
 11
79.499999999999943
 21
-21.24643936389154
 31
0.0
  0
LINE
  5
4660
  8
241
 10
76.5
 20
-24.37343624008426
 30
0.0
 11
78.5
 21
-24.37343624008426
 31
0.0
  0
LINE
  5
4661
  8
241
 10
76.5
 20
-27.314909537120879
 30
0.0
 11
79.5
 21
-27.314909537120879
 31
0.0
  0
LINE
  5
4662
  8
241
 10
76.5
 20
-30.048472867100909
 30
0.0
 11
78.5
 21
-30.048472867100909
 31
0.0
  0
LINE
  5
4663
  8
241
 10
76.5
 20
-32.553322162512501
 30
0.0
 11
79.5
 21
-32.553322162512501
 31
0.0
  0
LINE
  5
4664
  8
241
 10
76.5
 20
-34.810394007748158
 30
0.0
 11
78.500000000000057
 21
-34.810394007748158
 31
0.0
  0
LINE
  5
4665
  8
241
 10
76.500000000000114
 20
-36.802510723208492
 30
0.0
 11
79.500000000000057
 21
-36.802510723208492
 31
0.0
  0
LINE
  5
4666
  8
241
 10
76.500000000000114
 20
-38.514511097815763
 30
0.0
 11
78.500000000000114
 21
-38.514511097815763
 31
0.0
  0
LINE
  5
4667
  8
241
 10
76.500000000000114
 20
-39.933365774985283
 30
0.0
 11
79.500000000000114
 21
-39.933365774985283
 31
0.0
  0
LINE
  5
4668
  8
241
 10
76.500000000000114
 20
-41.048276413895763
 30
0.0
 11
78.500000000000114
 21
-41.048276413895763
 31
0.0
  0
LINE
  5
4669
  8
241
 10
76.500000000000114
 20
-41.850757871383763
 30
0.0
 11
79.500000000000114
 21
-41.850757871383763
 31
0.0
  0
LINE
  5
466A
  8
241
 10
76.499999999999773
 20
0.0035492960189174
 30
0.0
 11
79.499999999999773
 21
0.0035492960189174
 31
0.0
  0
LINE
  5
466B
  8
243
 10
102.3660254037835
 20
-15.99645070398063
 30
0.0
 11
154.99999999999901
 21
-15.99645070398085
 31
0.0
1001
GRPNAME
1000
PASTMD64
  0
LINE
  5
4671
  8
240
  6
CONTINUOUS
 10
111.899999999999
 20
34.353549296019402
 30
0.0
 11
113.8999999999989
 21
34.353549296019402
 31
0.0
  0
LINE
  5
4672
  8
240
  6
CONTINUOUS
 10
114.44999999999899
 20
33.803549296019391
 30
0.0
 11
113.8999999999989
 21
34.353549296019402
 31
0.0
  0
LINE
  5
4673
  8
240
  6
CONTINUOUS
 10
115.69999999999899
 20
33.803549296019391
 30
0.0
 11
115.899999999999
 21
34.003549296019372
 31
0.0
  0
LINE
  5
4674
  8
240
  6
CONTINUOUS
 10
114.44999999999899
 20
33.803549296019391
 30
0.0
 11
115.69999999999899
 21
33.803549296019391
 31
0.0
  0
LINE
  5
4675
  8
240
  6
CONTINUOUS
 10
115.899999999999
 20
34.003549296019372
 30
0.0
 11
126.8999999999991
 21
34.003549296019308
 31
0.0
  0
LINE
  5
4676
  8
240
  6
CONTINUOUS
 10
127.8499999999991
 20
33.053549296019384
 30
0.0
 11
126.8999999999991
 21
34.003549296019372
 31
0.0
  0
LINE
  5
4677
  8
240
  6
CONTINUOUS
 10
129.19999999999899
 20
33.053549296019384
 30
0.0
 11
129.89999999999901
 21
33.753549296019372
 31
0.0
  0
LINE
  5
4678
  8
240
  6
CONTINUOUS
 10
127.8499999999991
 20
33.053549296019384
 30
0.0
 11
129.19999999999899
 21
33.053549296019384
 31
0.0
  0
LINE
  5
4679
  8
240
  6
CONTINUOUS
 10
129.89999999999901
 20
33.753549296019372
 30
0.0
 11
140.3999999999991
 21
33.753549296019372
 31
0.0
  0
LINE
  5
467A
  8
240
  6
CONTINUOUS
 10
142.26602540378329
 20
33.253549296019379
 30
0.0
 11
140.3999999999991
 21
33.753549296019372
 31
0.0
  0
LINE
  5
467B
  8
240
  6
CONTINUOUS
 10
110.899999999999
 20
32.903549296019349
 30
0.0
 11
110.899999999999
 21
33.353549296019402
 31
0.0
  0
ARC
  5
467C
  8
240
  6
CONTINUOUS
 10
111.899999999999
 20
33.353549296019402
 30
0.0
 40
1.0
 50
90.0
 51
180.0
1001
ASK_MEN_XD
1005
0
1070
     1
1005
0
1070
     1
  0
LINE
  5
467D
  8
241
  6
CONTINUOUS
 10
115.69999999999899
 20
33.803549296019391
 30
0.0
 11
115.69999999999899
 21
31.058341659543011
 31
0.0
  0
LINE
  5
467E
  8
241
  6
CONTINUOUS
 10
140.3999999999991
 20
33.753549296019372
 30
0.0
 11
140.3999999999991
 21
23.74020000211047
 31
0.0
  0
LINE
  5
467F
  8
241
  6
CONTINUOUS
 10
129.19999999999899
 20
33.053549296019384
 30
0.0
 11
129.19999999999899
 21
23.444089740199761
 31
0.0
  0
LINE
  5
4680
  8
241
  6
CONTINUOUS
 10
129.19999999999899
 20
19.842622990599441
 30
0.0
 11
129.19999999999899
 21
2.6284302457006272
 31
0.0
  0
LINE
  5
4681
  8
241
  6
CONTINUOUS
 10
129.89999999999901
 20
33.753549296019372
 30
0.0
 11
129.89999999999901
 21
23.722416049031299
 31
0.0
  0
LINE
  5
4682
  8
241
  6
CONTINUOUS
 10
129.89999999999901
 20
19.5642966817679
 30
0.0
 11
129.89999999999901
 21
3.0366994736399131
 31
0.0
  0
LINE
  5
4683
  8
241
  6
CONTINUOUS
 10
140.3999999999991
 20
19.546512728688779
 30
0.0
 11
140.3999999999991
 21
3.0776345258072122
 31
0.0
  0
LINE
  5
4684
  8
241
  6
CONTINUOUS
 10
142.2660254037832
 20
33.253549296019379
 30
0.0
 11
142.26602540378329
 21
1.2239952077046321
 31
0.0
  0
LINE
  5
4685
  8
241
  6
CONTINUOUS
 10
131.19999999999899
 20
3.0035492960193722
 30
0.0
 11
139.19999999999899
 21
3.0035492960193722
 31
0.0
  0
ARC
  5
4686
  8
241
  6
CONTINUOUS
 10
131.19999999999899
 20
0.0035492960193722
 30
0.0
 40
3.0
 50
90.0
 51
180.0
  0
ARC
  5
4687
  8
241
  6
CONTINUOUS
 10
139.19999999999899
 20
0.0035492960193722
 30
0.0
 40
3.0
 50
0.0
 51
90.0
  0
ARC
  5
4688
  8
241
  6
CONTINUOUS
 10
131.19999999999899
 20
0.0035492960193722
 30
0.0
 40
3.2999999999999972
 50
89.999997685948514
 51
180.0
  0
LINE
  5
4689
  8
241
  6
CONTINUOUS
 10
131.2000001332791
 20
3.3035492960193258
 30
0.0
 11
139.19999999999899
 21
3.3035492960193258
 31
0.0
  0
ARC
  5
468A
  8
241
  6
CONTINUOUS
 10
139.19999999999899
 20
0.0035492960193722
 30
0.0
 40
3.300000000000014
 50
0.0
 51
90.000002314058008
  0
LINE
  5
468B
  8
241
  6
CONTINUOUS
 10
139.199999866719
 20
3.3035492960193258
 30
0.0
 11
131.199999866719
 21
3.3035492960193258
 31
0.0
  0
ARC
  5
468C
  8
241
  6
CONTINUOUS
 10
131.19999999999899
 20
0.0035492960193722
 30
0.0
 40
3.2999999999999972
 50
90.000002314058008
 51
180.0
  0
ARC
  5
468D
  8
241
  6
CONTINUOUS
 10
130.3213203435588
 20
21.643356365399629
 30
0.0
 40
2.121320343559645
 50
90.0
 51
270.0
  0
ARC
  5
468E
  8
241
  6
CONTINUOUS
 10
140.07867965643939
 20
21.643356365399629
 30
0.0
 40
2.121320343559645
 50
270.0
 51
90.0
  0
ARC
  5
468F
  8
241
  6
CONTINUOUS
 10
130.3213203435586
 20
19.76718383018002
 30
0.0
 40
2.121320343559618
 50
90.0
 51
153.754509019506
  0
ARC
  5
4690
  8
241
  6
CONTINUOUS
 10
140.07867965643939
 20
19.76718383018002
 30
0.0
 40
2.121320343559602
 50
26.24549098049394
 51
90.0
  0
LINE
  5
4691
  8
241
  6
CONTINUOUS
 10
130.3213203435588
 20
19.522036021839959
 30
0.0
 11
140.07867965643939
 21
19.522036021839959
 31
0.0
  0
LINE
  5
4692
  8
241
  6
CONTINUOUS
 10
130.3213203435588
 20
23.764676708959229
 30
0.0
 11
140.07867965643939
 21
23.764676708959229
 31
0.0
  0
LINE
  5
4693
  8
241
  6
CONTINUOUS
 10
130.3213203435586
 20
21.888504173739619
 30
0.0
 11
140.07867965643939
 21
21.888504173739619
 31
0.0
  0
LINE
  5
4694
  8
242
  6
CONTINUOUS
 10
136.26848788460799
 20
33.753549296019372
 30
0.0
 11
140.3999999999991
 21
29.62203700003468
 31
0.0
1001
GRPNAME
1000
0000000F
  0
LINE
  5
4695
  8
242
  6
CONTINUOUS
 10
135.13711705943689
 20
33.753549296019372
 30
0.0
 11
140.3999999999989
 21
28.490666125409319
 31
0.0
1001
GRPNAME
1000
0000000F
  0
LINE
  5
4696
  8
242
  6
CONTINUOUS
 10
134.00574623426519
 20
33.753549296019372
 30
0.0
 11
140.3999999999991
 21
27.359295250783902
 31
0.0
1001
GRPNAME
1000
0000000F
  0
LINE
  5
4697
  8
242
  6
CONTINUOUS
 10
132.8743754090936
 20
33.753549296019372
 30
0.0
 11
140.3999999999991
 21
26.227924376158541
 31
0.0
1001
GRPNAME
1000
0000000F
  0
LINE
  5
4698
  8
242
  6
CONTINUOUS
 10
131.74300458392219
 20
33.753549296019372
 30
0.0
 11
139.7318768217776
 21
25.764676708959229
 31
0.0
1001
GRPNAME
1000
0000000F
  0
LINE
  5
4699
  8
242
  6
CONTINUOUS
 10
130.61163375875049
 20
33.753549296019372
 30
0.0
 11
138.60050599660599
 21
25.764676708959229
 31
0.0
1001
GRPNAME
1000
0000000F
  0
LINE
  5
469A
  8
242
  6
CONTINUOUS
 10
129.8999999999989
 20
33.333812211252081
 30
0.0
 11
137.46913517143429
 21
25.764676708959229
 31
0.0
1001
GRPNAME
1000
0000000F
  0
LINE
  5
469B
  8
242
  6
CONTINUOUS
 10
129.89999999999901
 20
32.202441336626663
 30
0.0
 11
136.33776434626279
 21
25.764676708959229
 31
0.0
1001
GRPNAME
1000
0000000F
  0
LINE
  5
469C
  8
242
  6
CONTINUOUS
 10
129.89999999999901
 20
31.071070462001298
 30
0.0
 11
135.20639352109129
 21
25.764676708959229
 31
0.0
1001
GRPNAME
1000
0000000F
  0
LINE
  5
469D
  8
242
  6
CONTINUOUS
 10
129.89999999999901
 20
29.939699587375891
 30
0.0
 11
134.07502269591961
 21
25.764676708959229
 31
0.0
1001
GRPNAME
1000
0000000F
  0
LINE
  5
469E
  8
242
  6
CONTINUOUS
 10
129.89999999999901
 20
28.808328712750519
 30
0.0
 11
132.943651870748
 21
25.764676708959229
 31
0.0
1001
GRPNAME
1000
0000000F
  0
LINE
  5
469F
  8
242
  6
CONTINUOUS
 10
129.89999999999901
 20
27.676957838125158
 30
0.0
 11
131.81228104557641
 21
25.764676708959229
 31
0.0
1001
GRPNAME
1000
0000000F
  0
LINE
  5
46A0
  8
242
  6
CONTINUOUS
 10
129.89999999999901
 20
26.545586963499801
 30
0.0
 11
130.68091022040491
 21
25.764676708959229
 31
0.0
1001
GRPNAME
1000
0000000F
  0
LINE
  5
46A1
  8
242
  6
CONTINUOUS
 10
129.89999999999901
 20
29.62203700003468
 30
0.0
 11
134.03151211538969
 21
33.753549296019372
 31
0.0
1001
GRPNAME
1000
0000000I
  0
LINE
  5
46A2
  8
242
  6
CONTINUOUS
 10
129.89999999999901
 20
28.490666125409259
 30
0.0
 11
135.16288294056119
 21
33.753549296019372
 31
0.0
1001
GRPNAME
1000
0000000I
  0
LINE
  5
46A3
  8
242
  6
CONTINUOUS
 10
129.89999999999901
 20
27.359295250783848
 30
0.0
 11
136.2942537657328
 21
33.753549296019372
 31
0.0
1001
GRPNAME
1000
0000000I
  0
LINE
  5
46A4
  8
242
  6
CONTINUOUS
 10
129.89999999999901
 20
26.22792437615848
 30
0.0
 11
137.42562459090431
 21
33.753549296019372
 31
0.0
1001
GRPNAME
1000
0000000I
  0
LINE
  5
46A5
  8
242
  6
CONTINUOUS
 10
130.5681231782205
 20
25.764676708959229
 30
0.0
 11
138.55699541607589
 21
33.753549296019372
 31
0.0
1001
GRPNAME
1000
0000000I
  0
LINE
  5
46A6
  8
242
  6
CONTINUOUS
 10
131.6994940033922
 20
25.764676708959229
 30
0.0
 11
139.68836624124751
 21
33.753549296019372
 31
0.0
1001
GRPNAME
1000
0000000I
  0
LINE
  5
46A7
  8
242
  6
CONTINUOUS
 10
132.83086482856379
 20
25.764676708959229
 30
0.0
 11
140.3999999999991
 21
33.333812211252031
 31
0.0
1001
GRPNAME
1000
0000000I
  0
LINE
  5
46A8
  8
242
  6
CONTINUOUS
 10
133.96223565373529
 20
25.764676708959229
 30
0.0
 11
140.3999999999991
 21
32.202441336626613
 31
0.0
1001
GRPNAME
1000
0000000I
  0
LINE
  5
46A9
  8
242
  6
CONTINUOUS
 10
135.09360647890691
 20
25.764676708959229
 30
0.0
 11
140.3999999999991
 21
31.071070462001249
 31
0.0
1001
GRPNAME
1000
0000000I
  0
LINE
  5
46AA
  8
242
  6
CONTINUOUS
 10
136.22497730407849
 20
25.764676708959229
 30
0.0
 11
140.3999999999991
 21
29.93969958737571
 31
0.0
1001
GRPNAME
1000
0000000I
  0
LINE
  5
46AB
  8
242
  6
CONTINUOUS
 10
137.35634812925011
 20
25.764676708959229
 30
0.0
 11
140.3999999999991
 21
28.808328712750349
 31
0.0
1001
GRPNAME
1000
0000000I
  0
LINE
  5
46AC
  8
242
  6
CONTINUOUS
 10
138.48771895442181
 20
25.764676708959229
 30
0.0
 11
140.3999999999991
 21
27.676957838124942
 31
0.0
1001
GRPNAME
1000
0000000I
  0
LINE
  5
46AD
  8
242
  6
CONTINUOUS
 10
139.61908977959339
 20
25.764676708959229
 30
0.0
 11
140.3999999999991
 21
26.54558696349957
 31
0.0
1001
GRPNAME
1000
0000000I
  0
LINE
  5
46AE
  8
240
 10
154.99999999999901
 20
27.589335733646269
 30
0.0
 11
154.99999999999901
 21
0.0035492960193722
 31
0.0
  0
LINE
  5
46B1
  8
242
  6
CONTINUOUS
 10
129.89999999999901
 20
30.753407874659992
 30
0.0
 11
132.9001412902181
 21
33.753549296019372
 31
0.0
1001
GRPNAME
1000
0000000I
  0
LINE
  5
46B2
  8
242
  6
CONTINUOUS
 10
137.39985870977929
 20
33.753549296019372
 30
0.0
 11
140.3999999999991
 21
30.753407874659811
 31
0.0
1001
GRPNAME
1000
0000000F
  0
LINE
  5
46B3
  8
242
 10
140.3999999999991
 20
31.884778749285118
 30
0.0
 11
138.53122953495091
 21
33.753549296019372
 31
0.0
  0
LINE
  5
46B4
  8
242
 10
140.3999999999991
 20
33.016149623910422
 30
0.0
 11
139.6626003601227
 21
33.753549296019372
 31
0.0
  0
LINE
  5
46B5
  8
242
 10
129.89999999999901
 20
31.884778749285289
 30
0.0
 11
131.76877046504649
 21
33.753549296019372
 31
0.0
  0
LINE
  5
46B6
  8
242
 10
129.89999999999901
 20
33.01614962391065
 30
0.0
 11
130.62225321891941
 21
33.738402874401828
 31
0.0
  0
LINE
  5
46B7
  8
241
  6
CONTINUOUS
 10
101.6999999999984
 20
0.0035492960193722
 30
0.0
 11
101.6999999999984
 21
29.153537955704479
 31
0.0
  0
LINE
  5
46B8
  8
240
 10
101.6999999999984
 20
29.153537955928961
 30
0.0
 11
101.6999999999984
 21
30.90354929601941
 31
0.0
  0
ARC
  5
46B9
  8
240
 10
102.1999999999984
 20
30.90354929601941
 30
0.0
 40
0.5
 50
90.0
 51
180.0
1001
ASK_MEN_XD
1005
0
1070
     1
1005
0
1070
     1
  0
ARC
  5
46BA
  8
240
 10
109.3999999999985
 20
32.903549296019349
 30
0.0
 40
1.5
 50
270.0
 51
0.0
1001
ASK_MEN_XD
1005
0
1070
     1
1005
0
1070
     1
  0
LINE
  5
46BB
  8
240
 10
109.3999999999985
 20
31.403549296019349
 30
0.0
 11
102.1999999999984
 21
31.40354929601941
 31
0.0
  0
LINE
  5
46BC
  8
240
 10
154.70710678118559
 20
28.296442514832819
 30
0.0
 11
151.10580584659311
 21
31.897743449425239
 31
0.0
  0
ARC
  5
46BD
  8
240
 10
148.98448550303351
 20
29.776423105865629
 30
0.0
 40
3.0
 50
45.0
 51
86.000000000003496
1001
ASK_MEN_XD
1005
0
1070
     1
1005
0
1070
     1
  0
ARC
  5
46BE
  8
240
 10
153.99999999999901
 20
27.589335733646269
 30
0.0
 40
1.0
 50
0.0
 51
45.0
1001
ASK_MEN_XD
1005
0
1070
     1
1005
0
1070
     1
  0
LINE
  5
46BF
  8
240
 10
142.26602540378329
 20
33.253549296019379
 30
0.0
 11
149.19375492426579
 21
32.769115256645108
 31
0.0
  0
LINE
  5
46C0
  8
241
 10
150.31267666985681
 20
32.466387459602032
 30
0.0
 11
150.31267666985681
 21
0.0035492960193722
 31
0.0
  0
ARC
  5
46C1
  8
240
  6
CONTINUOUS
 10
100.6999999999976
 20
29.153537955928961
 30
0.0
 40
1.0
 50
359.99999998713861
 51
89.999999987135297
1001
GENIUS_GENODEF_13
1002
{
1000
HIER
1070
     0
1002
}
1002
{
1000
MANEDIT
1070
     0
1002
}
1002
{
1000
NOSEL
1070
     0
1002
}
1002
{
1000
BEHIND
1070
     0
1002
}
1002
{
1000
OTHER
1070
     0
1002
}
1002
{
1000
REACTOR
1002
}
1001
GENIUS_GENOBJ-N-FIL_13
1002
{
1000
OWNER
1000
GEN
1002
}
  0
LINE
  5
46C2
  8
240
  6
CONTINUOUS
 10
100.6999999999976
 20
30.153537955928961
 30
0.0
 11
99.699999999997786
 21
30.153537955928961
 31
0.0
  0
LINE
  5
46C3
  8
241
  6
CONTINUOUS
 10
99.699999999997601
 20
30.153537955928929
 30
0.0
 11
99.699999999997658
 21
0.0035492960209069
 31
0.0
  0
CIRCLE
  5
46C5
  8
241
 10
68.499999999999432
 20
35.503549296020061
 30
0.0
 40
3.9999999999999969
  0
ARC
  5
46C6
  8
241
 10
68.499999999999432
 20
35.503549296020061
 30
0.0
 40
4.25
 50
180.0
 51
0.0
  0
LINE
  5
46C7
  8
241
 10
64.249999999999432
 20
40.253549296020047
 30
0.0
 11
64.249999999999432
 21
35.503549296020061
 31
0.0
  0
LINE
  5
46C8
  8
241
 10
72.749999999999432
 20
40.253549296020047
 30
0.0
 11
72.749999999999432
 21
35.503549296020061
 31
0.0
  0
LINE
  5
46C9
  8
241
 10
64.249999999999432
 20
40.253549296020047
 30
0.0
 11
72.749999999999432
 21
40.253549296020047
 31
0.0
  0
LINE
  5
46CA
  8
241
 10
75.999999999999773
 20
5.8801451052347309
 30
0.0
 11
61.999999999999829
 21
5.8801451052347309
 31
0.0
  0
LINE
  5
46CB
  8
241
 10
76.499999999999773
 20
3.7076663860874808
 30
0.0
 11
78.499999999999773
 21
3.7076663860874808
 31
0.0
  0
LINE
  5
46CC
  8
241
 10
79.499999999999773
 20
7.3835929084926022
 30
0.0
 11
76.499999999999773
 21
7.3835929084926022
 31
0.0
  0
LINE
  5
46CD
  8
241
 10
76.499999999999886
 20
11.003352842814669
 30
0.0
 11
78.499999999999829
 21
11.003352842814669
 31
0.0
  0
LINE
  5
46CE
  8
241
 10
76.499999999999886
 20
14.53939763028265
 30
0.0
 11
79.499999999999886
 21
14.53939763028265
 31
0.0
  0
LINE
  5
46CF
  8
241
 10
76.499999999999886
 20
17.964815834941671
 30
0.0
 11
78.499999999999886
 21
17.964815834941671
 31
0.0
  0
LINE
  5
46D0
  8
241
 10
76.499999999999886
 20
21.25353795593028
 30
0.0
 11
79.499999999999943
 21
21.25353795593028
 31
0.0
  0
LINE
  5
46D1
  8
241
 10
76.5
 20
24.380534832123001
 30
0.0
 11
78.5
 21
24.380534832123001
 31
0.0
  0
LINE
  5
46D2
  8
241
 10
76.5
 20
27.322008129159631
 30
0.0
 11
79.5
 21
27.322008129159631
 31
0.0
  0
LINE
  5
46D3
  8
241
 10
76.5
 20
30.05557145913966
 30
0.0
 11
78.5
 21
30.05557145913966
 31
0.0
  0
LINE
  5
46D4
  8
241
 10
76.5
 20
32.560420754551252
 30
0.0
 11
79.5
 21
32.560420754551252
 31
0.0
  0
LINE
  5
46D5
  8
241
 10
76.5
 20
34.817492599786902
 30
0.0
 11
78.500000000000057
 21
34.817492599786902
 31
0.0
  0
LINE
  5
46D6
  8
241
 10
76.500000000000114
 20
36.809609315247229
 30
0.0
 11
79.500000000000057
 21
36.809609315247229
 31
0.0
  0
LINE
  5
46D7
  8
241
 10
76.500000000000114
 20
38.5216096898545
 30
0.0
 11
78.500000000000114
 21
38.5216096898545
 31
0.0
  0
LINE
  5
46D8
  8
241
 10
76.500000000000114
 20
39.94046436702402
 30
0.0
 11
79.500000000000114
 21
39.94046436702402
 31
0.0
  0
LINE
  5
46D9
  8
241
 10
76.500000000000114
 20
41.055375005934508
 30
0.0
 11
78.500000000000114
 21
41.055375005934508
 31
0.0
  0
LINE
  5
46DA
  8
241
 10
76.500000000000114
 20
41.8578564634225
 30
0.0
 11
79.500000000000114
 21
41.8578564634225
 31
0.0
  0
POINT
  5
46E7
  8
0
 10
-119.0
 20
-139.99645070397949
 30
0.0
1001
GENIUS_GENOBJ-N-FIL_13
1002
{
1000
OWNER
1000
GEN
1002
}
1001
GENIUS_GENOLIS_13
1002
{
1000
ENT
1005
0
1005
4492
1002
}
1001
GENIUS_GENOENT_13
1002
{
1000
MYREF
1005
46E7
1002
}
1002
{
1000
GRP
1005
0
1002
}
1001
GENIUS_GENODEF_13
1002
{
1000
HIER
1070
     1
1002
}
1002
{
1000
MANEDIT
1070
     1
1002
}
1002
{
1000
NOSEL
1070
     0
1002
}
1002
{
1000
BEHIND
1070
     0
1002
}
1002
{
1000
OTHER
1070
     0
1002
}
1002
{
1000
REACTOR
1002
}
  0
TEXT
  5
4865
  8
241
 10
-32.0
 20
84.0
 30
0.0
 40
5.0
  1
HSK-A63-HMC32S-155NRA
  7
YOKO
 11
-32.0
 21
84.0
 31
0.0
 73
     1
1001
GRPNAME
1000
PASTMD0I
  0
LINE
  5
4868
  8
250
 10
-23.037048729999999
 20
-31.833453089999999
 30
0.0
 11
-47.303715400000002
 21
-31.833453089999999
 31
0.0
1001
ITEMNAME
1000
LNSP2
  0
LINE
  5
4869
  8
240
 10
0.0
 20
-24.215
 30
0.0
 11
0.0
 21
-31.5
 31
0.0
1001
GRPNAME
1000
PASTMD0X
  0
LINE
  5
486A
  8
241
 10
21.377499069999999
 20
-31.5
 30
0.0
 11
21.377499069999999
 21
0.0
 31
0.0
1001
GRPNAME
1000
PASTMD0X
  0
LINE
  5
486B
  8
241
 10
14.622500929999999
 20
-31.5
 30
0.0
 11
14.622500929999999
 21
0.0
 31
0.0
1001
GRPNAME
1000
PASTMD0X
  0
LINE
  5
486C
  8
241
 10
16.125
 20
-27.5
 30
0.0
 11
16.125
 21
0.0
 31
0.0
1001
GRPNAME
1000
PASTMD0X
  0
LINE
  5
486D
  8
241
 10
19.875
 20
-27.5
 30
0.0
 11
19.875
 21
0.0
 31
0.0
1001
GRPNAME
1000
PASTMD0X
  0
LINE
  5
486E
  8
241
 10
26.0
 20
-26.29645070397919
 30
0.0
 11
26.0
 21
0.0
 31
0.0
1001
GRPNAME
1000
PASTMD0X
  0
LINE
  5
486F
  8
245
  6
CENTER2
 10
18.0
 20
-31.5
 30
0.0
 11
18.0
 21
31.5
 31
0.0
  0
LINE
  5
4870
  8
240
 10
14.622500929999999
 20
-31.5
 30
0.0
 11
0.0
 21
-31.5
 31
0.0
1001
GRPNAME
1000
PASTMD0X
  0
LINE
  5
4871
  8
243
 10
26.0
 20
-26.5
 30
0.0
 11
5.0
 21
-26.5
 31
0.0
1001
GRPNAME
1000
PASTMD0X
  0
LINE
  5
4872
  8
243
 10
5.0
 20
-31.5
 30
0.0
 11
5.0
 21
-26.5
 31
0.0
1001
GRPNAME
1000
PASTMD0X
  0
LINE
  5
4873
  8
240
 10
19.875
 20
-28.897595259999999
 30
0.0
 11
21.377499069999999
 21
-31.5
 31
0.0
1001
GRPNAME
1000
PASTMD0X
  0
LINE
  5
4874
  8
240
 10
16.125
 20
-28.897595259999999
 30
0.0
 11
14.622500929999999
 21
-31.5
 31
0.0
1001
GRPNAME
1000
PASTMD0X
  0
LINE
  5
4875
  8
240
 10
19.875
 20
-27.5
 30
0.0
 11
16.125
 21
-27.5
 31
0.0
1001
GRPNAME
1000
PASTMD0X
  0
LINE
  5
4876
  8
240
 10
16.125
 20
-27.5
 30
0.0
 11
16.125
 21
-28.897595259999999
 31
0.0
1001
GRPNAME
1000
PASTMD0X
  0
LINE
  5
4877
  8
240
 10
19.875
 20
-27.5
 30
0.0
 11
19.875
 21
-28.897595259999999
 31
0.0
1001
GRPNAME
1000
PASTMD0X
  0
LINE
  5
4878
  8
240
 10
26.0
 20
-31.5
 30
0.0
 11
26.0
 21
-26.29645070397919
 31
0.0
1001
GRPNAME
1000
PASTMD0X
  0
LINE
  5
4879
  8
240
 10
26.0
 20
-31.5
 30
0.0
 11
21.377499069999999
 21
-31.5
 31
0.0
1001
GRPNAME
1000
PASTMD0X
  0
LINE
  5
487A
  8
240
 10
14.622500929999999
 20
31.5
 30
0.0
 11
0.0
 21
31.5
 31
0.0
1001
GRPNAME
1000
PASTMD0X
  0
LINE
  5
487B
  8
241
 10
16.125
 20
20.0
 30
0.0
 11
5.0
 21
20.0
 31
0.0
1001
GRPNAME
1000
PASTMD0X
  0
ARC
  5
487C
  8
241
 10
12.1117139
 20
16.336187049999999
 30
0.0
 40
8.0
 50
89.999999990000006
 51
152.74338068
1001
GRPNAME
1000
PASTMD0X
  0
LINE
  5
487D
  8
241
 10
0.0
 20
24.215
 30
0.0
 11
0.0
 21
0.0
 31
0.0
1001
GRPNAME
1000
PASTMD0X
  0
LINE
  5
487E
  8
241
 10
-2.0
 20
24.215
 30
0.0
 11
-2.0
 21
0.0
 31
0.0
1001
GRPNAME
1000
PASTMD0X
  0
LINE
  5
487F
  8
240
 10
-32.0
 20
21.573500939999999
 30
0.0
 11
-32.0
 21
0.0
 31
0.0
1001
GRPNAME
1000
PASTMD0X
  0
LINE
  5
4880
  8
240
 10
-2.0
 20
-24.215
 30
0.0
 11
-30.859925140000001
 21
-22.772003739999999
 31
0.0
1001
GRPNAME
1000
PASTMD0X
  0
LINE
  5
4881
  8
240
 10
-32.0
 20
-21.573500939999999
 30
0.0
 11
-32.0
 21
0.0
 31
0.0
1001
GRPNAME
1000
PASTMD0X
  0
ARC
  5
4882
  8
240
 10
-30.800000000000001
 20
-21.573500939999999
 30
0.0
 40
1.200000000000041
 50
180.00000007999989
 51
267.13759485000003
1001
GRPNAME
1000
PASTMD0X
  0
LINE
  5
4883
  8
241
 10
-2.0
 20
-24.215
 30
0.0
 11
-2.0
 21
0.0
 31
0.0
1001
GRPNAME
1000
PASTMD0X
  0
LINE
  5
4884
  8
241
 10
0.0
 20
-24.215
 30
0.0
 11
0.0
 21
0.0
 31
0.0
1001
GRPNAME
1000
PASTMD0X
  0
LINE
  5
4885
  8
240
 10
-2.0
 20
-24.215
 30
0.0
 11
0.0
 21
-24.215
 31
0.0
  0
LINE
  5
4886
  8
243
 10
-6.2449979999999998
 20
20.0
 30
0.0
 11
-16.917564429999999
 21
20.0
 31
0.0
1001
GRPNAME
1000
PASTMD0X
  0
LINE
  5
4887
  8
240
 10
-2.0
 20
24.215
 30
0.0
 11
-30.859925140000001
 21
22.772003739999999
 31
0.0
1001
GRPNAME
1000
PASTMD0X
  0
LINE
  5
4888
  8
243
 10
-26.0
 20
23.015000000000001
 30
0.0
 11
-26.0
 21
17.0
 31
0.0
1001
GRPNAME
1000
PASTMD0X
  0
ARC
  5
4889
  8
240
 10
-30.800000000000001
 20
21.573500939999999
 30
0.0
 40
1.1999999999999891
 50
92.862405229999979
 51
180.0
1001
GRPNAME
1000
PASTMD0X
  0
LINE
  5
488A
  8
243
 10
-18.996025400000001
 20
17.0
 30
0.0
 11
-32.0
 21
17.0
 31
0.0
1001
GRPNAME
1000
PASTMD0X
  0
LINE
  5
488B
  8
243
 10
-18.996025400000001
 20
17.0
 30
0.0
 11
-17.43717968
 21
19.699999999999999
 31
0.0
1001
GRPNAME
1000
PASTMD0X
  0
ARC
  5
488C
  8
243
 10
-16.917564429999999
 20
19.399999999999999
 30
0.0
 40
0.6000000000003638
 50
89.999999990000006
 51
149.99999998999999
1001
GRPNAME
1000
PASTMD0X
  0
LINE
  5
488D
  8
243
 10
-5.25
 20
24.052499999999998
 30
0.0
 11
-5.25
 21
20.0
 31
0.0
1001
GRPNAME
1000
PASTMD1W
  0
LINE
  5
488E
  8
243
 10
-12.75
 20
23.677499999999998
 30
0.0
 11
-12.75
 21
20.0
 31
0.0
1001
GRPNAME
1000
PASTMD1W
  0
ARC
  5
488F
  8
243
 10
-6.2449979999999998
 20
12.0
 30
0.0
 40
7.9999999999997771
 50
38.682187259999999
 51
89.999999810000006
1001
GRPNAME
1000
PASTMD0X
  0
LINE
  5
4890
  8
243
 10
5.0
 20
31.5
 30
0.0
 11
5.0
 21
26.5
 31
0.0
1001
GRPNAME
1000
PASTMD0X
  0
LINE
  5
4891
  8
240
 10
0.0
 20
31.5
 30
0.0
 11
0.0
 21
24.215
 31
0.0
1001
GRPNAME
1000
PASTMD0X
  0
LINE
  5
4892
  8
240
 10
-2.0
 20
24.215
 30
0.0
 11
0.0
 21
24.215
 31
0.0
  0
LINE
  5
4893
  8
241
 10
21.377499069999999
 20
20.0
 30
0.0
 11
21.377499069999999
 21
0.0
 31
0.0
1001
GRPNAME
1000
PASTMD0X
  0
LINE
  5
4894
  8
241
 10
14.622500929999999
 20
20.0
 30
0.0
 11
14.622500929999999
 21
0.0
 31
0.0
1001
GRPNAME
1000
PASTMD0X
  0
LINE
  5
4895
  8
241
 10
16.125
 20
27.5
 30
0.0
 11
16.125
 21
0.0
 31
0.0
1001
GRPNAME
1000
PASTMD0X
  0
LINE
  5
4896
  8
241
 10
19.875
 20
27.5
 30
0.0
 11
19.875
 21
0.0
 31
0.0
1001
GRPNAME
1000
PASTMD0X
  0
LINE
  5
4897
  8
241
 10
25.999999999999989
 20
26.30354929602078
 30
0.0
 11
26.0
 21
0.0
 31
0.0
1001
GRPNAME
1000
PASTMD0X
  0
LINE
  5
4898
  8
241
 10
21.377499069999999
 20
24.336187049999999
 30
0.0
 11
19.875
 21
20.858355929999998
 31
0.0
1001
GRPNAME
1000
PASTMD0X
  0
LINE
  5
4899
  8
241
 10
14.622500929999999
 20
24.336187049999999
 30
0.0
 11
16.125
 21
20.858355929999998
 31
0.0
1001
GRPNAME
1000
PASTMD0X
  0
LINE
  5
489A
  8
241
 10
26.0
 20
20.0
 30
0.0
 11
19.875
 21
20.0
 31
0.0
1001
GRPNAME
1000
PASTMD0X
  0
LINE
  5
489B
  8
240
 10
19.875
 20
28.897595259999999
 30
0.0
 11
21.377499069999999
 21
31.5
 31
0.0
1001
GRPNAME
1000
PASTMD0X
  0
LINE
  5
489C
  8
240
 10
16.125
 20
28.897595259999999
 30
0.0
 11
14.622500929999999
 21
31.5
 31
0.0
1001
GRPNAME
1000
PASTMD0X
  0
LINE
  5
489D
  8
241
 10
14.622500929999999
 20
31.5
 30
0.0
 11
14.622500929999999
 21
24.336187049999999
 31
0.0
1001
GRPNAME
1000
PASTMD0X
  0
LINE
  5
489E
  8
241
 10
14.622500929999999
 20
24.336187049999999
 30
0.0
 11
12.1117139
 21
24.336187049999999
 31
0.0
1001
GRPNAME
1000
PASTMD0X
  0
LINE
  5
489F
  8
240
 10
19.875
 20
27.5
 30
0.0
 11
16.125
 21
27.5
 31
0.0
1001
GRPNAME
1000
PASTMD0X
  0
LINE
  5
48A0
  8
240
 10
16.125
 20
27.5
 30
0.0
 11
16.125
 21
28.897595259999999
 31
0.0
1001
GRPNAME
1000
PASTMD0X
  0
LINE
  5
48A1
  8
240
 10
19.875
 20
27.5
 30
0.0
 11
19.875
 21
28.897595259999999
 31
0.0
1001
GRPNAME
1000
PASTMD0X
  0
ARC
  5
48A2
  8
240
 10
25.5
 20
31.0
 30
0.0
 40
0.5
 50
0.0
 51
90.0
1001
GRPNAME
1000
PASTMD0X
  0
LINE
  5
48A3
  8
241
 10
21.377499069999999
 20
31.5
 30
0.0
 11
21.377499069999999
 21
24.336187049999999
 31
0.0
1001
GRPNAME
1000
PASTMD0X
  0
LINE
  5
48A4
  8
240
 10
26.0
 20
31.0
 30
0.0
 11
25.999999999999989
 21
26.30354929602078
 31
0.0
1001
GRPNAME
1000
PASTMD0X
  0
LINE
  5
48A5
  8
241
 10
26.0
 20
24.336187049999999
 30
0.0
 11
21.377499069999999
 21
24.336187049999999
 31
0.0
1001
GRPNAME
1000
PASTMD0X
  0
LINE
  5
48A6
  8
240
 10
25.5
 20
31.5
 30
0.0
 11
21.377499069999999
 21
31.5
 31
0.0
1001
GRPNAME
1000
PASTMD0X
  0
LINE
  5
48AE
  8
243
 10
5.0
 20
26.5
 30
0.0
 11
26.0
 21
26.5
 31
0.0
  0
LINE
  5
48CB
  8
250
 10
154.99999999999901
 20
28.089335733646259
 30
0.0
 11
154.99999999999901
 21
57.003549296020388
 31
0.0
  0
LINE
  5
48CC
  8
250
 10
102.3660254037835
 20
16.503549296023461
 30
0.0
 11
102.3660254037835
 21
57.003549296020388
 31
0.0
  0
LINE
  5
48CD
  8
250
 10
152.76999999999899
 20
56.003549296020402
 30
0.0
 11
104.5960254037835
 21
56.003549296020402
 31
0.0
  0
LINE
  5
48D2
  8
250
 10
154.99999999999901
 20
28.089335733646259
 30
0.0
 11
154.99999999999901
 21
64.003549296020395
 31
0.0
  0
LINE
  5
48D3
  8
250
 10
34.999999999998948
 20
14.50354929602079
 30
0.0
 11
34.999999999998948
 21
64.003549296020395
 31
0.0
  0
LINE
  5
48D4
  8
250
 10
152.76999999999899
 20
63.003549296020402
 30
0.0
 11
37.229999999998952
 21
63.003549296020402
 31
0.0
  0
LINE
  5
48D8
  8
250
 10
0.0065113731198457
 20
31.496450030852351
 30
0.0
 11
0.0146773484121433
 21
70.99644918682958
 31
0.0
  0
LINE
  5
48D9
  8
250
 10
155.00580222836899
 20
28.050192840989379
 30
0.0
 11
155.01467403615729
 21
70.96440548631557
 31
0.0
  0
LINE
  5
48DA
  8
250
 10
2.24447056720672
 20
69.995988192378661
 30
0.0
 11
152.78446735025929
 21
69.964866523505236
 31
0.0
  0
LINE
  5
48DE
  8
250
 10
114.3999999999989
 20
34.353549296019402
 30
0.0
 11
177.249199940594
 21
34.353549296019366
 31
0.0
  0
LINE
  5
48DF
  8
250
 10
114.3999999999989
 20
-34.346450703976558
 30
0.0
 11
177.249199940594
 21
-34.346450703976579
 31
0.0
  0
LINE
  5
48E0
  8
250
 10
176.249199940594
 20
32.123549296019377
 30
0.0
 11
176.249199940594
 21
-32.116450703976582
 31
0.0
  0
LINE
  5
48E4
  8
250
 10
155.49999999999889
 20
16.003549296023689
 30
0.0
 11
168.99999783809261
 21
16.003549296023689
 31
0.0
  0
LINE
  5
48E5
  8
250
 10
155.49999999999889
 20
-15.99645070398085
 30
0.0
 11
168.99999783809261
 21
-15.996450703980861
 31
0.0
  0
LINE
  5
48E6
  8
250
 10
167.99999783809261
 20
13.77354929602369
 30
0.0
 11
167.99999783809261
 21
-13.76645070398086
 31
0.0
  0
TEXT
  5
48EA
  8
250
 10
-45.037048733333322
 20
-30.833453089999999
 30
0.0
 40
2.799999999999998
  1
HSK-A63
  7
YOKO
1001
ITEMNAME
1000
LNSP3
  0
POLYLINE
  5
48EC
  8
250
 66
     1
 10
0.0
 20
0.0
 30
0.0
1001
ACAD
1000
DSTYLE
1002
{
1070
     6
1000
OPEN
1070
   343
1005
594
1002
}
  0
VERTEX
  5
4BFF
  8
250
 10
-19.286696129993778
 20
-25.337651840442891
 30
0.0
  0
VERTEX
  5
4C00
  8
250
 10
-23.037048729999999
 20
-31.833453089999999
 30
0.0
  0
SEQEND
  5
4C01
  8
250
  0
LINE
  5
48ED
  8
250
 10
-19.608568905067589
 20
-25.15181850711059
 30
0.0
 11
-18.171696130000001
 21
-23.406415190000001
 31
0.0
  0
LINE
  5
48EE
  8
250
 10
-18.964823354919972
 20
-25.523485173775189
 30
0.0
 11
-18.171696130000001
 21
-23.406415190000001
 31
0.0
  0
LINE
  5
48EF
  8
250
 10
-18.171696130000001
 20
-23.406415190000001
 30
0.0
 11
-19.286696129993778
 21
-25.337651840442891
 31
0.0
  0
TEXT
  5
48F0
  8
250
 10
117.8163460352245
 20
57.003549296020388
 30
0.0
 40
2.7999999999999989
  1
最低把握長55
  0
LINE
  5
48F1
  8
250
 10
104.5960254037835
 20
55.631882629353733
 30
0.0
 11
102.3660254037835
 21
56.003549296020402
 31
0.0
  0
LINE
  5
48F2
  8
250
 10
104.5960254037835
 20
56.375215962687058
 30
0.0
 11
102.3660254037835
 21
56.003549296020402
 31
0.0
  0
LINE
  5
48F3
  8
250
 10
102.3660254037835
 20
56.003549296020402
 30
0.0
 11
104.5960254037835
 21
56.003549296020402
 31
0.0
  0
LINE
  5
48F4
  8
250
 10
152.76999999999899
 20
56.375215962687058
 30
0.0
 11
154.99999999999901
 21
56.003549296020402
 31
0.0
  0
LINE
  5
48F5
  8
250
 10
152.76999999999899
 20
55.631882629353733
 30
0.0
 11
154.99999999999901
 21
56.003549296020402
 31
0.0
  0
LINE
  5
48F6
  8
250
 10
154.99999999999901
 20
56.003549296020402
 30
0.0
 11
152.76999999999899
 21
56.003549296020402
 31
0.0
  0
TEXT
  5
48F7
  8
250
 10
82.799999999998974
 20
64.00354929602041
 30
0.0
 40
2.7999999999999989
  1
最大挿入量120
  0
LINE
  5
48F8
  8
250
 10
37.229999999998952
 20
62.631882629353719
 30
0.0
 11
34.999999999998948
 21
63.003549296020402
 31
0.0
  0
LINE
  5
48F9
  8
250
 10
37.229999999998952
 20
63.375215962687072
 30
0.0
 11
34.999999999998948
 21
63.003549296020402
 31
0.0
  0
LINE
  5
48FA
  8
250
 10
34.999999999998948
 20
63.003549296020402
 30
0.0
 11
37.229999999998952
 21
63.003549296020402
 31
0.0
  0
LINE
  5
48FB
  8
250
 10
152.76999999999899
 20
63.375215962687072
 30
0.0
 11
154.99999999999901
 21
63.003549296020402
 31
0.0
  0
LINE
  5
48FC
  8
250
 10
152.76999999999899
 20
62.631882629353719
 30
0.0
 11
154.99999999999901
 21
63.003549296020402
 31
0.0
  0
LINE
  5
48FD
  8
250
 10
154.99999999999901
 20
63.003549296020402
 30
0.0
 11
152.76999999999899
 21
63.003549296020402
 31
0.0
  0
TEXT
  5
48FE
  8
250
 10
73.314675782036119
 20
70.981295617489735
 30
0.0
 40
2.7999999999999989
  1
155
 50
359.98815503991932
  0
LINE
  5
48FF
  8
250
 10
152.78454418622931
 20
70.33653318222963
 30
0.0
 11
155.0144673026056
 21
69.964405507684944
 31
0.0
  0
LINE
  5
4900
  8
250
 10
152.78439051428921
 20
69.593199864780857
 30
0.0
 11
155.0144673026056
 21
69.964405507684944
 31
0.0
  0
LINE
  5
4901
  8
250
 10
155.0144673026056
 20
69.964405507684944
 30
0.0
 11
152.78446735025929
 21
69.964866523505236
 31
0.0
  0
LINE
  5
4902
  8
250
 10
2.24439373123667
 20
69.624321533654253
 30
0.0
 11
0.0144706148604399
 21
69.996449208198953
 31
0.0
  0
LINE
  5
4903
  8
250
 10
2.2445474031767692
 20
70.36765485110304
 30
0.0
 11
0.0144706148604399
 21
69.996449208198953
 31
0.0
  0
LINE
  5
4904
  8
250
 10
0.0144706148604399
 20
69.996449208198953
 30
0.0
 11
2.24447056720672
 21
69.995988192378661
 31
0.0
  0
LINE
  5
4905
  8
250
 10
176.62086660726069
 20
-32.116450703976582
 30
0.0
 11
176.249199940594
 21
-34.346450703976579
 31
0.0
  0
LINE
  5
4906
  8
250
 10
175.87753327392741
 20
-32.116450703976582
 30
0.0
 11
176.249199940594
 21
-34.346450703976579
 31
0.0
  0
LINE
  5
4907
  8
250
 10
176.249199940594
 20
-34.346450703976579
 30
0.0
 11
176.249199940594
 21
-32.116450703976582
 31
0.0
  0
LINE
  5
4908
  8
250
 10
175.87753327392741
 20
32.123549296019377
 30
0.0
 11
176.249199940594
 21
34.353549296019366
 31
0.0
  0
LINE
  5
4909
  8
250
 10
176.62086660726069
 20
32.123549296019377
 30
0.0
 11
176.249199940594
 21
34.353549296019366
 31
0.0
  0
LINE
  5
490A
  8
250
 10
176.249199940594
 20
34.353549296019366
 30
0.0
 11
176.249199940594
 21
32.123549296019377
 31
0.0
  0
TEXT
  5
490B
  8
250
 10
175.21653244856381
 20
-6.1045679282936991
 30
0.0
 40
2.7999999999999989
  1
\U+220568.7
 50
90.0
  0
LINE
  5
490C
  8
250
 10
168.37166450475931
 20
-13.76645070398086
 30
0.0
 11
167.99999783809261
 21
-15.996450703980861
 31
0.0
  0
LINE
  5
490D
  8
250
 10
167.628331171426
 20
-13.76645070398086
 30
0.0
 11
167.99999783809261
 21
-15.996450703980861
 31
0.0
  0
LINE
  5
490E
  8
250
 10
167.99999783809261
 20
-15.996450703980861
 30
0.0
 11
167.99999783809261
 21
-13.76645070398086
 31
0.0
  0
LINE
  5
490F
  8
250
 10
167.628331171426
 20
13.77354929602369
 30
0.0
 11
167.99999783809261
 21
16.003549296023689
 31
0.0
  0
LINE
  5
4910
  8
250
 10
168.37166450475931
 20
13.77354929602369
 30
0.0
 11
167.99999783809261
 21
16.003549296023689
 31
0.0
  0
LINE
  5
4911
  8
250
 10
167.99999783809261
 20
16.003549296023689
 30
0.0
 11
167.99999783809261
 21
13.77354929602369
 31
0.0
  0
TEXT
  5
4912
  8
250
 10
165.84885313920529
 20
-3.9506989516384241
 30
0.0
 40
2.7999999999999989
  1
\U+220532
 50
90.0
  0
VIEWPORT
  5
22
 67
     1
  8
0
 10
261.51769911504419
 20
148.5
 30
0.0
 40
523.0353982300885
 41
297.0
 68
     1
 69
     1
1001
ACAD
1000
MVIEW
1002
{
1070
    16
1010
0.0
1020
0.0
1030
0.0
1010
0.0
1020
0.0
1030
1.0
1040
0.0
1040
297.0
1040
261.51769911504419
1040
148.5
1040
50.0
1040
0.0
1040
0.0
1070
     0
1070
   100
1070
     1
1070
     1
1070
     0
1070
     0
1070
     0
1070
     0
1040
0.0
1040
0.0
1040
0.0
1040
1.0
1040
1.0
1040
10.0
1040
10.0
1070
     0
1002
{
1002
}
1002
}
1001
GENIUS_GENODEF_13
1002
{
1000
HIER
1070
     0
1002
}
1002
{
1000
MANEDIT
1070
     0
1002
}
1002
{
1000
NOSEL
1070
     0
1002
}
1002
{
1000
BEHIND
1070
     0
1002
}
1002
{
1000
OTHER
1070
     0
1002
}
1002
{
1000
REACTOR
1002
}
1001
GENIUS_GENOBJ-N-SDF_13
1002
{
1000
OWNER
1000
GEN
1002
}
1001
GENIUS_GENSCREG_15
1000
PF
1040
1.0
1000
DF
1040
1.0
1000
MIN
1011
0.0
1021
0.0
1031
0.0
1021
0.0
1031
0.0
1000
MAX
1011
523.0353982300885
1021
0.0
1031
0.0
1021
297.0
1031
0.0
1000
FLAGS
1070
     4
  0
ENDSEC
  0
EOF
