  0
SECTION
  2
HEADER
  9
$ACADVER
  1
AC1009
  9
$INSBASE
 10
0.0
 20
0.0
 30
0.0
  9
$EXTMIN
 10
-47.303715400000002
 20
-36.000384114494793
 30
0.0
  9
$EXTMAX
 10
165.2513460676191
 20
82.000000000000043
 30
0.0
  9
$LIMMIN
 10
0.0
 20
0.0
  9
$LIMMAX
 10
297.0
 20
210.0
  9
$ORTHOMODE
 70
     0
  9
$REGENMODE
 70
     1
  9
$FILLMODE
 70
     1
  9
$QTEXTMODE
 70
     0
  9
$MIRRTEXT
 70
     1
  9
$DRAGMODE
 70
     2
  9
$LTSCALE
 40
10.0
  9
$OSMODE
 70
    63
  9
$ATTMODE
 70
     1
  9
$TEXTSIZE
 40
3.0
  9
$TRACEWID
 40
1.0
  9
$TEXTSTYLE
  7
YOKO
  9
$CLAYER
  8
240
  9
$CELTYPE
  6
BYLAYER
  9
$CECOLOR
 62
   256
  9
$DIMSCALE
 40
1.0
  9
$DIMASZ
 40
2.2299999999999991
  9
$DIMEXO
 40
0.5
  9
$DIMDLI
 40
7.0
  9
$DIMRND
 40
0.0
  9
$DIMDLE
 40
0.0
  9
$DIMEXE
 40
1.0
  9
$DIMTP
 40
0.0
  9
$DIMTM
 40
0.01
  9
$DIMTXT
 40
2.7999999999999989
  9
$DIMCEN
 40
0.0
  9
$DIMTSZ
 40
0.0
  9
$DIMTOL
 70
     0
  9
$DIMLIM
 70
     0
  9
$DIMTIH
 70
     0
  9
$DIMTOH
 70
     0
  9
$DIMSE1
 70
     0
  9
$DIMSE2
 70
     0
  9
$DIMTAD
 70
     3
  9
$DIMZIN
 70
     9
  9
$DIMBLK
  1
OPEN
  9
$DIMASO
 70
     1
  9
$DIMSHO
 70
     1
  9
$DIMPOST
  1

  9
$DIMAPOST
  1

  9
$DIMALT
 70
     0
  9
$DIMALTD
 70
     2
  9
$DIMALTF
 40
25.399999999999999
  9
$DIMLFAC
 40
1.0
  9
$DIMTOFL
 70
     1
  9
$DIMTVP
 40
0.0
  9
$DIMTIX
 70
     1
  9
$DIMSOXD
 70
     0
  9
$DIMSAH
 70
     0
  9
$DIMBLK1
  1

  9
$DIMBLK2
  1

  9
$DIMSTYLE
  2
BIGT
  9
$DIMCLRD
 70
   256
  9
$DIMCLRE
 70
   256
  9
$DIMCLRT
 70
    40
  9
$DIMTFAC
 40
1.0
  9
$DIMGAP
 40
1.0
  9
$LUNITS
 70
     2
  9
$LUPREC
 70
     6
  9
$SKETCHINC
 40
1.0
  9
$FILLETRAD
 40
0.0
  9
$AUNITS
 70
     0
  9
$AUPREC
 70
     6
  9
$MENU
  1
.
  9
$ELEVATION
 40
0.0
  9
$PELEVATION
 40
0.0
  9
$THICKNESS
 40
0.0
  9
$LIMCHECK
 70
     0
  9
$BLIPMODE
 70
     0
  9
$CHAMFERA
 40
0.2
  9
$CHAMFERB
 40
0.2
  9
$SKPOLY
 70
     0
  9
$TDCREATE
 40
2457241.813824317
  9
$TDUPDATE
 40
2457242.3849715739
  9
$TDINDWG
 40
0.0073906597
  9
$TDUSRTIMER
 40
0.007390625
  9
$USRTIMER
 70
     1
  9
$ANGBASE
 50
0.0
  9
$ANGDIR
 70
     0
  9
$PDMODE
 70
     1
  9
$PDSIZE
 40
0.0
  9
$PLINEWID
 40
0.0
  9
$COORDS
 70
     1
  9
$SPLFRAME
 70
     0
  9
$SPLINETYPE
 70
     6
  9
$SPLINESEGS
 70
     4
  9
$ATTDIA
 70
     1
  9
$ATTREQ
 70
     1
  9
$HANDLING
 70
     1
  9
$HANDSEED
  5
565E
  9
$SURFTAB1
 70
     6
  9
$SURFTAB2
 70
     6
  9
$SURFTYPE
 70
     6
  9
$SURFU
 70
     6
  9
$SURFV
 70
     6
  9
$UCSNAME
  2

  9
$UCSORG
 10
0.0
 20
0.0
 30
0.0
  9
$UCSXDIR
 10
1.0
 20
0.0
 30
0.0
  9
$UCSYDIR
 10
0.0
 20
1.0
 30
0.0
  9
$PUCSNAME
  2

  9
$PUCSORG
 10
0.0
 20
0.0
 30
0.0
  9
$PUCSXDIR
 10
1.0
 20
0.0
 30
0.0
  9
$PUCSYDIR
 10
0.0
 20
1.0
 30
0.0
  9
$USERI1
 70
     1
  9
$USERI2
 70
     0
  9
$USERI3
 70
     0
  9
$USERI4
 70
     0
  9
$USERI5
 70
     0
  9
$USERR1
 40
0.0
  9
$USERR2
 40
0.0
  9
$USERR3
 40
0.0
  9
$USERR4
 40
0.0
  9
$USERR5
 40
0.0
  9
$WORLDVIEW
 70
     1
  9
$SHADEDGE
 70
     3
  9
$SHADEDIF
 70
    70
  9
$TILEMODE
 70
     1
  9
$MAXACTVP
 70
    16
  9
$PLIMCHECK
 70
     0
  9
$PEXTMIN
 10
1.0000000000000000E+020
 20
1.0000000000000000E+020
 30
1.0000000000000000E+020
  9
$PEXTMAX
 10
-1.0000000000000000E+020
 20
-1.0000000000000000E+020
 30
-1.0000000000000000E+020
  9
$PLIMMIN
 10
0.0
 20
0.0
  9
$PLIMMAX
 10
420.0
 20
297.0
  9
$UNITMODE
 70
     0
  9
$VISRETAIN
 70
     1
  9
$PLINEGEN
 70
     0
  9
$PSLTSCALE
 70
     1
  0
ENDSEC
  0
SECTION
  2
TABLES
  0
TABLE
  2
VPORT
 70
     1
  0
VPORT
  2
*ACTIVE
 70
     0
 10
0.0
 20
0.0
 11
1.0
 21
1.0
 12
58.97309934216679
 22
25.379241162029182
 13
0.0
 23
0.0
 14
7.0
 24
7.0
 15
7.0
 25
7.0
 16
0.0
 26
0.0
 36
1.0
 17
0.0
 27
0.0
 37
0.0
 40
148.78045548740729
 41
1.4355016538037479
 42
50.0
 43
0.0
 44
0.0
 50
0.0
 51
0.0
 71
     0
 72
  2000
 73
     1
 74
     0
 75
     1
 76
     1
 77
     0
 78
     0
  0
ENDTAB
  0
TABLE
  2
LTYPE
 70
    13
  0
LTYPE
  2
CONTINUOUS
 70
     0
  3
Solid line
 72
    65
 73
     0
 40
0.0
  0
LTYPE
  2
CENTER2
 70
     0
  3
___ _ ___ _ ___ _ ___ _ ___ _ ___ _ ___ _ ___ _
 72
    65
 73
     4
 40
1.125
 49
0.75
 49
-0.125
 49
0.125
 49
-0.125
  0
LTYPE
  2
HIDDEN2
 70
     0
  3
_ _ _ _ _ _ _ _ _ _ _ _ _ _ _ _ _ _ _ _ _ _ _ _
 72
    65
 73
     2
 40
0.1875
 49
0.125
 49
-0.0625
  0
LTYPE
  2
PHANTOM2
 70
     0
  3
___ _ _ ___ _ _ ___ _ _ ___ _ _ ___ _ _ ___ _ _
 72
    65
 73
     6
 40
1.25
 49
0.625
 49
-0.125
 49
0.125
 49
-0.125
 49
0.125
 49
-0.125
  0
LTYPE
  2
AM_ISO02W050
 70
     0
  3
__ __ __ __ __ __ __ __ __ __ __ __ __ __ __
 72
    65
 73
     2
 40
7.5
 49
6.0
 49
-1.5
  0
LTYPE
  2
AMCONSTR
 70
     0
  3
_______________________
 72
    65
 73
     2
 40
9999.0
 49
9999.0
 49
0.0
  0
LTYPE
  2
ACISOWELD
 70
     0
  3
_ _ _ _ _
 72
    65
 73
     2
 40
2.0
 49
2.0
 49
-1.0
  0
LTYPE
  2
ACISOTGB
 70
     0
  3
__ . . __ . .
 72
    65
 73
     6
 40
9.0
 49
4.0
 49
-1.0
 49
1.0
 49
-1.0
 49
1.0
 49
-1.0
  0
LTYPE
  2
ACISOTGL
 70
     0
  3
_ _ _ _ _
 72
    65
 73
     2
 40
3.0
 49
2.0
 49
-1.0
  0
LTYPE
  2
ACJISTGB
 70
     0
  3
__ . . __ . .
 72
    65
 73
     6
 40
9.0
 49
4.0
 49
-1.0
 49
1.0
 49
-1.0
 49
1.0
 49
-1.0
  0
LTYPE
  2
ACJISTGL
 70
     0
  3
_ _ _ _ _
 72
    65
 73
     2
 40
3.0
 49
2.0
 49
-1.0
  0
ENDTAB
  0
TABLE
  2
LAYER
 70
     8
  0
LAYER
  2
0
 70
     0
 62
     7
  6
CONTINUOUS
  0
LAYER
  2
DEFPOINTS
 70
     0
 62
     7
  6
CONTINUOUS
  0
LAYER
  2
245
 70
     0
 62
     2
  6
CENTER2
  0
LAYER
  2
240
 70
     0
 62
     4
  6
CONTINUOUS
  0
LAYER
  2
241
 70
     0
 62
   211
  6
CONTINUOUS
  0
LAYER
  2
242
 70
     0
 62
     3
  6
CONTINUOUS
  0
LAYER
  2
243
 70
     0
 62
   211
  6
HIDDEN2
  0
LAYER
  2
250
 70
     0
 62
     3
  6
CONTINUOUS
  0
ENDTAB
  0
TABLE
  2
STYLE
 70
     6
  0
STYLE
  2
STANDARD
 70
     0
 40
0.0
 41
1.0
 50
0.0
 71
     0
 42
3.0
  3
romans.shx
  4
extfont.shx
  0
STYLE
  2
ACISOTS
 70
     0
 40
1.0
 41
1.0
 50
0.0
 71
     0
 42
3.0
  3
amgdt.shx
  4
extfont.shx
  0
STYLE
  2
ACISOGDT
 70
     0
 40
0.0
 41
1.0
 50
0.0
 71
     0
 42
3.0
  3
amgdt.shx
  4
extfont.shx
  0
STYLE
  2
ACJISTS
 70
     0
 40
1.0
 41
1.0
 50
0.0
 71
     0
 42
3.0
  3
amgdt.shx
  4
extfont.shx
  0
STYLE
  2
ACJISGDT
 70
     0
 40
0.0
 41
1.0
 50
0.0
 71
     0
 42
3.0
  3
amgdt.shx
  4
extfont.shx
  0
STYLE
  2
YOKO
 70
     0
 40
0.0
 41
1.0
 50
0.0
 71
     0
 42
3.0
  3
romans.shx
  4
extfont.shx
  0
ENDTAB
  0
TABLE
  2
VIEW
 70
     0
  0
ENDTAB
  0
TABLE
  2
UCS
 70
     0
  0
ENDTAB
  0
TABLE
  2
APPID
 70
    37
  0
APPID
  2
ACAD
 70
     0
  0
APPID
  2
GLOBAL
 70
     0
  0
APPID
  2
DETAIL
 70
     0
  0
APPID
  2
GRPNAME
 70
     0
  0
APPID
  2
GPARA
 70
     0
  0
APPID
  2
MCAD_NO_VIS
 70
     0
  0
APPID
  2
ACAD_TEMP_GRAPHIC
 70
     0
  0
APPID
  2
ACATTRIBSERVICES
 70
     0
  0
APPID
  2
GENIUS_GENSCREG_15
 70
     0
  0
APPID
  2
GENIUS_GENODEF_13
 70
     0
  0
APPID
  2
GENIUS_GENOBJ-N-SDF_13
 70
     0
  0
APPID
  2
GENIUS_GENREC_14
 70
     0
  0
APPID
  2
GENIUS_GENOBJ-N-REC_13
 70
     0
  0
APPID
  2
GENIUS_GENDIMSH_14
 70
     0
  0
APPID
  2
GENIUS_GENOBJ-N-DIM_13
 70
     0
  0
APPID
  2
GENIUS_GENDIM_13
 70
     0
  0
APPID
  2
GENIUS_GENDTOL_13
 70
     0
  0
APPID
  2
GENIUS_GENOLIS_13
 70
     0
  0
APPID
  2
GENIUS_GENOENT_13
 70
     0
  0
APPID
  2
GENIUS_GENOBJ-F-FEM_13
 70
     0
  0
APPID
  2
GENIUS_GENOREF_13
 70
     0
  0
APPID
  2
GENIUS_GEFFEM_13
 70
     0
  0
APPID
  2
GENIUS_GEFFEMP_13
 70
     0
  0
APPID
  2
AD_DRAW
 70
     0
  0
APPID
  2
DESIGNERASSEMBLIES
 70
     0
  0
APPID
  2
ACADM_DIM_EDIT
 70
     0
  0
APPID
  2
AMDT_DM_ADJ
 70
     0
  0
APPID
  2
ITEMNAME
 70
     0
  0
APPID
  2
GENIUS_GENOBJ-N-FIL_13
 70
     0
  0
APPID
  2
GENIUS_GENFIL_13
 70
     0
  0
APPID
  2
GENIUS_GENOBJ-N-CHA_13
 70
     0
  0
APPID
  2
ACAD_NAV_VCDISPLAY
 70
     0
  0
APPID
  2
ASK_MEN_XD
 70
     0
  0
APPID
  2
ACAECLAYERSTANDARD
 70
     0
  0
APPID
  2
ACAD_DSTYLE_DIMINSPECT
 70
     0
  0
APPID
  2
ACAD_EXEMPT_FROM_CAD_STANDARDS
 70
     0
  0
APPID
  2
ACAD_MLEADERVER
 70
     0
  0
ENDTAB
  0
TABLE
  2
DIMSTYLE
 70
    23
  0
DIMSTYLE
  2
BIGT
 70
     0
  3

  4

  5
OPEN
  6

  7

 40
1.0
 41
2.2299999999999991
 42
0.5
 43
7.0
 44
1.0
 45
0.0
 46
0.0
 47
0.0
 48
0.01
140
2.7999999999999989
141
0.0
142
0.0
143
25.399999999999999
144
1.0
145
0.0
146
1.0
147
1.0
 71
     0
 72
     0
 73
     0
 74
     0
 75
     0
 76
     0
 77
     3
 78
     9
170
     0
171
     2
172
     1
173
     0
174
     1
175
     0
176
   256
177
   256
178
    40
  0
DIMSTYLE
  2
AM_ISO
 70
     0
  3

  4
"
  5

  6

  7

 40
1.0
 41
2.5
 42
1.0
 43
10.0
 44
1.0
 45
0.0
 46
0.0
 47
0.1
 48
0.1
140
3.5
141
0.0
142
0.0
143
0.0393701
144
1.0
145
0.0
146
0.71
147
1.5
 71
     0
 72
     0
 73
     0
 74
     0
 75
     0
 76
     0
 77
     1
 78
     8
170
     0
171
     2
172
     1
173
     0
174
     0
175
     0
176
   256
177
   256
178
     2
  0
DIMSTYLE
  2
AM_ISO$3
 70
     0
  3

  4
"
  5

  6

  7

 40
1.0
 41
2.5
 42
1.0
 43
10.0
 44
1.0
 45
0.0
 46
0.0
 47
0.1
 48
0.1
140
3.5
141
0.0
142
0.0
143
0.0393701
144
1.0
145
0.0
146
0.71
147
1.5
 71
     0
 72
     0
 73
     0
 74
     1
 75
     0
 76
     0
 77
     1
 78
     8
170
     0
171
     2
172
     0
173
     0
174
     0
175
     0
176
   256
177
   256
178
     2
  0
DIMSTYLE
  2
AM_ISO$4
 70
     0
  3

  4
"
  5

  6

  7

 40
1.0
 41
2.5
 42
1.0
 43
10.0
 44
1.0
 45
0.0
 46
0.0
 47
0.1
 48
0.1
140
3.5
141
0.0
142
0.0
143
0.0393701
144
1.0
145
0.0
146
0.71
147
1.5
 71
     0
 72
     0
 73
     0
 74
     1
 75
     0
 76
     0
 77
     1
 78
     8
170
     0
171
     2
172
     0
173
     0
174
     0
175
     0
176
   256
177
   256
178
     2
  0
DIMSTYLE
  2
AM_ISO$6
 70
     0
  3

  4
"
  5

  6

  7

 40
1.0
 41
2.5
 42
1.0
 43
10.0
 44
1.0
 45
0.0
 46
0.0
 47
0.1
 48
0.1
140
3.5
141
0.0
142
0.0
143
0.0393701
144
1.0
145
0.0
146
0.71
147
1.5
 71
     0
 72
     0
 73
     0
 74
     0
 75
     0
 76
     0
 77
     0
 78
     8
170
     0
171
     2
172
     1
173
     0
174
     0
175
     0
176
   256
177
   256
178
     2
  0
DIMSTYLE
  2
AM_ISO$7
 70
     0
  3

  4
"
  5

  6

  7

 40
1.0
 41
2.5
 42
1.0
 43
10.0
 44
1.0
 45
0.0
 46
0.0
 47
0.1
 48
0.1
140
5.0
141
0.0
142
0.0
143
0.0393701
144
1.0
145
0.0
146
0.71
147
1.5
 71
     0
 72
     0
 73
     0
 74
     0
 75
     0
 76
     0
 77
     1
 78
     8
170
     0
171
     2
172
     1
173
     0
174
     0
175
     0
176
   256
177
   256
178
     2
  0
DIMSTYLE
  2
AM_ISO$SF
 70
     0
  3

  4
"
  5

  6

  7

 40
1.0
 41
2.5
 42
1.0
 43
10.0
 44
1.0
 45
0.0
 46
0.0
 47
0.1
 48
0.1
140
3.5
141
0.0
142
0.0
143
0.0393701
144
1.0
145
0.0
146
0.71
147
1.5
 71
     0
 72
     0
 73
     0
 74
     0
 75
     1
 76
     1
 77
     1
 78
     8
170
     0
171
     2
172
     1
173
     0
174
     0
175
     0
176
   256
177
   256
178
     2
  0
DIMSTYLE
  2
AM_ISO$SH
 70
     0
  3

  4
"
  5

  6
GENAXEH
  7

 40
1.0
 41
2.5
 42
1.0
 43
10.0
 44
1.0
 45
0.0
 46
0.0
 47
0.1
 48
0.1
140
3.5
141
0.0
142
0.0
143
0.0393701
144
2.0
145
0.0
146
0.71
147
1.5
 71
     0
 72
     0
 73
     0
 74
     0
 75
     1
 76
     1
 77
     1
 78
     8
170
     0
171
     2
172
     1
173
     1
174
     0
175
     0
176
   256
177
   256
178
     2
  0
DIMSTYLE
  2
BIGT$2
 70
     0
  3

  4

  5
OPEN
  6

  7

 40
1.0
 41
2.2299999999999991
 42
0.5
 43
7.0
 44
1.0
 45
0.0
 46
0.0
 47
0.0
 48
0.01
140
2.7999999999999989
141
0.0
142
0.0
143
25.399999999999999
144
1.0
145
0.0
146
1.0
147
1.0
 71
     0
 72
     0
 73
     0
 74
     0
 75
     0
 76
     0
 77
     3
 78
     9
170
     0
171
     2
172
     1
173
     0
174
     0
175
     0
176
   256
177
   256
178
    40
  0
DIMSTYLE
  2
BIGT$3
 70
     0
  3

  4

  5
OPEN
  6

  7

 40
1.0
 41
2.2299999999999991
 42
0.5
 43
2.5
 44
1.0
 45
0.0
 46
0.0
 47
0.0
 48
0.01
140
2.7999999999999989
141
0.0
142
0.0
143
25.399999999999999
144
1.0
145
0.0
146
1.0
147
1.0
 71
     0
 72
     0
 73
     0
 74
     0
 75
     0
 76
     0
 77
     3
 78
     9
170
     0
171
     2
172
     1
173
     0
174
     0
175
     0
176
   256
177
   256
178
    40
  0
DIMSTYLE
  2
BIGT$7
 70
     0
  3

  4

  5
OPEN
  6

  7

 40
0.0
 41
2.2299999999999991
 42
0.5
 43
7.0
 44
1.0
 45
0.0
 46
0.0
 47
0.0
 48
0.01
140
2.7999999999999989
141
0.0
142
0.0
143
25.399999999999999
144
1.0
145
0.0
146
1.0
147
1.0
 71
     0
 72
     0
 73
     0
 74
     0
 75
     0
 76
     0
 77
     3
 78
     9
170
     0
171
     2
172
     0
173
     0
174
     0
175
     0
176
   256
177
   256
178
    40
  0
DIMSTYLE
  2
BIGT$6
 70
     0
  3

  4

  5
OPEN
  6

  7

 40
1.0
 41
2.2299999999999991
 42
0.5
 43
2.5
 44
1.0
 45
0.0
 46
0.0
 47
0.0
 48
0.01
140
2.7999999999999989
141
0.0
142
0.0
143
25.399999999999999
144
1.0
145
0.0
146
1.0
147
1.0
 71
     0
 72
     0
 73
     0
 74
     0
 75
     0
 76
     0
 77
     3
 78
     9
170
     0
171
     2
172
     1
173
     0
174
     0
175
     0
176
   256
177
   256
178
    40
  0
DIMSTYLE
  2
BIGT$0
 70
     0
  3

  4

  5
OPEN
  6

  7

 40
1.0
 41
2.2299999999999991
 42
0.5
 43
7.0
 44
1.0
 45
0.0
 46
0.0
 47
0.0
 48
0.01
140
2.7999999999999989
141
0.0
142
0.0
143
25.399999999999999
144
1.0
145
0.0
146
1.0
147
1.0
 71
     0
 72
     0
 73
     0
 74
     0
 75
     0
 76
     0
 77
     3
 78
     9
170
     0
171
     2
172
     1
173
     0
174
     1
175
     0
176
   256
177
   256
178
    40
  0
DIMSTYLE
  2
BIGT$4
 70
     0
  3

  4

  5
OPEN
  6

  7

 40
1.0
 41
2.2299999999999991
 42
0.5
 43
2.5
 44
1.0
 45
0.0
 46
0.0
 47
0.0
 48
0.01
140
2.7999999999999989
141
0.0
142
0.0
143
25.399999999999999
144
1.0
145
0.0
146
1.0
147
1.0
 71
     0
 72
     0
 73
     0
 74
     0
 75
     0
 76
     0
 77
     3
 78
     9
170
     0
171
     2
172
     1
173
     0
174
     0
175
     0
176
   256
177
   256
178
    40
  0
DIMSTYLE
  2
BIGT$SH
 70
     0
  3

  4

  5
OPEN
  6

  7

 40
1.0
 41
2.2299999999999991
 42
0.5
 43
7.0
 44
1.0
 45
0.0
 46
0.0
 47
0.0
 48
0.0
140
2.7999999999999989
141
0.0
142
0.0
143
25.399999999999999
144
1.0
145
0.0
146
1.0
147
1.0
 71
     0
 72
     0
 73
     0
 74
     0
 75
     0
 76
     0
 77
     3
 78
     9
170
     0
171
     2
172
     1
173
     0
174
     0
175
     0
176
   256
177
   256
178
    40
  0
DIMSTYLE
  2
BIGT$SF
 70
     0
  3

  4

  5
OPEN
  6

  7

 40
1.0
 41
2.2299999999999991
 42
0.5
 43
7.0
 44
1.0
 45
0.0
 46
0.0
 47
0.0
 48
0.0
140
2.7999999999999989
141
0.0
142
0.0
143
25.399999999999999
144
1.0
145
0.0
146
1.0
147
1.0
 71
     0
 72
     0
 73
     0
 74
     0
 75
     0
 76
     0
 77
     3
 78
     9
170
     0
171
     2
172
     1
173
     0
174
     0
175
     0
176
   256
177
   256
178
    40
  0
DIMSTYLE
  2
TECHNICAL_OSAKA
 70
     0
  3

  4
"
  5
OPEN30
  6

  7

 40
1.0
 41
2.5
 42
1.0
 43
10.0
 44
1.0
 45
0.0
 46
0.0
 47
0.1
 48
0.1
140
2.7999999999999989
141
0.0
142
0.0
143
0.0393701
144
1.0
145
0.0
146
0.71
147
1.5
 71
     0
 72
     0
 73
     0
 74
     0
 75
     0
 76
     0
 77
     3
 78
     8
170
     0
171
     2
172
     1
173
     0
174
     0
175
     0
176
   256
177
   256
178
    40
  0
DIMSTYLE
  2
TECHNICAL_OSAKA$3
 70
     0
  3

  4
"
  5
OPEN30
  6

  7

 40
1.0
 41
2.5
 42
1.0
 43
10.0
 44
1.0
 45
0.0
 46
0.0
 47
0.1
 48
0.1
140
2.7999999999999989
141
0.0
142
0.0
143
0.0393701
144
1.0
145
0.0
146
0.71
147
1.5
 71
     0
 72
     0
 73
     0
 74
     1
 75
     0
 76
     0
 77
     3
 78
     8
170
     0
171
     2
172
     0
173
     0
174
     0
175
     0
176
   256
177
   256
178
    40
  0
DIMSTYLE
  2
TECHNICAL_OSAKA$4
 70
     0
  3

  4
"
  5
OPEN30
  6

  7

 40
1.0
 41
2.5
 42
1.0
 43
10.0
 44
1.0
 45
0.0
 46
0.0
 47
0.1
 48
0.1
140
2.7999999999999989
141
0.0
142
0.0
143
0.0393701
144
1.0
145
0.0
146
0.71
147
1.5
 71
     0
 72
     0
 73
     0
 74
     1
 75
     0
 76
     0
 77
     3
 78
     8
170
     0
171
     2
172
     0
173
     0
174
     0
175
     0
176
   256
177
   256
178
    40
  0
DIMSTYLE
  2
TECHNICAL_OSAKA$6
 70
     0
  3

  4
"
  5
OPEN30
  6

  7

 40
1.0
 41
2.5
 42
1.0
 43
10.0
 44
1.0
 45
0.0
 46
0.0
 47
0.1
 48
0.1
140
2.7999999999999989
141
0.0
142
0.0
143
0.0393701
144
1.0
145
0.0
146
0.71
147
1.5
 71
     0
 72
     0
 73
     0
 74
     0
 75
     0
 76
     0
 77
     0
 78
     8
170
     0
171
     2
172
     1
173
     0
174
     0
175
     0
176
   256
177
   256
178
    40
  0
DIMSTYLE
  2
TECHNICAL_OSAKA$7
 70
     0
  3

  4
"
  5
OPEN30
  6

  7

 40
1.0
 41
2.5
 42
1.0
 43
10.0
 44
1.0
 45
0.0
 46
0.0
 47
0.1
 48
0.1
140
2.7999999999999989
141
0.0
142
0.0
143
0.0393701
144
1.0
145
0.0
146
0.71
147
1.5
 71
     0
 72
     0
 73
     0
 74
     0
 75
     0
 76
     0
 77
     3
 78
     8
170
     0
171
     2
172
     1
173
     0
174
     0
175
     0
176
   256
177
   256
178
    40
  0
DIMSTYLE
  2
TECHNICAL_OSAKA$SF
 70
     0
  3

  4
"
  5
OPEN30
  6
OPEN30
  7
OPEN30
 40
1.0
 41
2.5
 42
1.0
 43
10.0
 44
1.0
 45
0.0
 46
0.0
 47
0.1
 48
0.1
140
3.5
141
0.0
142
0.0
143
0.0393701
144
1.0
145
0.0
146
0.71
147
1.5
 71
     0
 72
     0
 73
     0
 74
     0
 75
     1
 76
     1
 77
     3
 78
     8
170
     0
171
     2
172
     1
173
     0
174
     0
175
     0
176
   256
177
   256
178
    40
  0
DIMSTYLE
  2
TECHNICAL_OSAKA$SH
 70
     0
  3

  4
"
  5
OPEN30
  6
GENAXEH
  7
OPEN30
 40
1.0
 41
2.5
 42
1.0
 43
10.0
 44
1.0
 45
0.0
 46
0.0
 47
0.1
 48
0.1
140
3.5
141
0.0
142
0.0
143
0.0393701
144
2.0
145
0.0
146
0.71
147
1.5
 71
     0
 72
     0
 73
     0
 74
     0
 75
     1
 76
     1
 77
     3
 78
     8
170
     0
171
     2
172
     1
173
     1
174
     0
175
     0
176
   256
177
   256
178
    40
  0
ENDTAB
  0
ENDSEC
  0
SECTION
  2
BLOCKS
  0
BLOCK
  8
0
  2
$MODEL_SPACE
 70
     0
 10
0.0
 20
0.0
 30
0.0
  3
$MODEL_SPACE
  1

  0
ENDBLK
  5
1C
  8
0
  0
BLOCK
 67
     1
  8
0
  2
$PAPER_SPACE
 70
     0
 10
0.0
 20
0.0
 30
0.0
  3
$PAPER_SPACE
  1

  0
ENDBLK
  5
19
 67
     1
  8
0
  0
BLOCK
  8
0
  2
_OPEN
 70
     0
 10
0.0
 20
0.0
 30
0.0
  3
_OPEN
  1

  0
LINE
  5
515A
  8
0
  6
BYBLOCK
 62
     0
 10
-1.0
 20
0.1666666666666666
 30
0.0
 11
0.0
 21
0.0
 31
0.0
  0
LINE
  5
515B
  8
0
  6
BYBLOCK
 62
     0
 10
-1.0
 20
-0.1666666666666666
 30
0.0
 11
0.0
 21
0.0
 31
0.0
  0
LINE
  5
515C
  8
0
  6
BYBLOCK
 62
     0
 10
0.0
 20
0.0
 30
0.0
 11
-1.0
 21
0.0
 31
0.0
  0
ENDBLK
  5
515D
  8
0
  0
BLOCK
  8
0
  2
GENAXEH
 70
     0
 10
0.0
 20
0.0
 30
0.0
  3
GENAXEH
  1

  0
LINE
  5
5195
  8
0
 10
-1.0
 20
0.0
 30
0.0
 11
1.0
 21
0.0
 31
0.0
  0
ENDBLK
  5
5196
  8
0
  0
BLOCK
  8
0
  2
_OPEN30
 70
     0
 10
0.0
 20
0.0
 30
0.0
  3
_OPEN30
  1

  0
LINE
  5
51D1
  8
0
  6
BYBLOCK
 62
     0
 10
-1.0
 20
0.26794919
 30
0.0
 11
0.0
 21
0.0
 31
0.0
  0
LINE
  5
51D2
  8
0
  6
BYBLOCK
 62
     0
 10
0.0
 20
0.0
 30
0.0
 11
-1.0
 21
-0.26794919
 31
0.0
  0
LINE
  5
51D3
  8
0
  6
BYBLOCK
 62
     0
 10
0.0
 20
0.0
 30
0.0
 11
-1.0
 21
0.0
 31
0.0
  0
ENDBLK
  5
51D4
  8
0
  0
ENDSEC
  0
SECTION
  2
ENTITIES
  0
LINE
  5
4A5C
  8
241
 10
41.999999999999829
 20
-26.48350341907269
 30
0.0
 11
42.0
 21
26.48350341907209
 31
0.0
  0
LINE
  5
4A5D
  8
241
 10
47.311622476544812
 20
-35.132993161857129
 30
0.0
 11
47.311622476544869
 21
35.13299316185649
 31
0.0
  0
LINE
  5
4A5E
  8
240
 10
61.250000000000227
 20
35.500000000001307
 30
0.0
 11
48.466323014924427
 21
35.500000000001307
 31
0.0
  0
LINE
  5
4A5F
  8
240
 10
61.250000000000227
 20
35.500000000001307
 30
0.0
 11
61.500000000000227
 21
35.250000000001307
 31
0.0
1001
GENIUS_GENFIL_13
1070
     0
1040
0.25
1040
0.25
1040
0.2500000000000284
1040
45.00000000000162
1002
{
1002
}
1001
GENIUS_GENODEF_13
1002
{
1000
HIER
1070
     0
1002
}
1002
{
1000
MANEDIT
1070
     0
1002
}
1002
{
1000
NOSEL
1070
     0
1002
}
1002
{
1000
BEHIND
1070
     0
1002
}
1002
{
1000
OTHER
1070
     0
1002
}
1002
{
1000
REACTOR
1002
}
1001
GENIUS_GENOBJ-N-CHA_13
1002
{
1000
OWNER
1000
GEN
1002
}
  0
LINE
  5
4A61
  8
240
 10
61.250000000000227
 20
-35.50000000000135
 30
0.0
 11
48.466323014924427
 21
-35.50000000000135
 31
0.0
  0
LINE
  5
4A62
  8
241
 10
61.499999999999773
 20
35.250000000001791
 30
0.0
 11
61.500000000000227
 21
-35.250000000001407
 31
0.0
  0
LINE
  5
4A63
  8
240
 10
61.250000000000227
 20
-35.50000000000135
 30
0.0
 11
61.500000000000227
 21
-35.25000000000135
 31
0.0
1001
GENIUS_GENFIL_13
1070
     0
1040
0.25
1040
0.25
1040
0.2500000000000284
1040
45.00000000000162
1002
{
1002
}
1001
GENIUS_GENODEF_13
1002
{
1000
HIER
1070
     0
1002
}
1002
{
1000
MANEDIT
1070
     0
1002
}
1002
{
1000
NOSEL
1070
     0
1002
}
1002
{
1000
BEHIND
1070
     0
1002
}
1002
{
1000
OTHER
1070
     0
1002
}
1002
{
1000
REACTOR
1002
}
1001
GENIUS_GENOBJ-N-CHA_13
1002
{
1000
OWNER
1000
GEN
1002
}
  0
LINE
  5
4A64
  8
240
 10
42.28867513459457
 20
26.799999999999731
 30
0.0
 11
46.734272207355559
 21
34.500000000001307
 31
0.0
  0
ARC
  5
4A65
  8
240
 10
41.422649730810143
 20
27.29999999999967
 30
0.0
 40
1.0
 50
270.0
 51
330.00000000000028
1001
GENIUS_GENODEF_13
1002
{
1000
HIER
1070
     0
1002
}
1002
{
1000
MANEDIT
1070
     0
1002
}
1002
{
1000
NOSEL
1070
     0
1002
}
1002
{
1000
BEHIND
1070
     0
1002
}
1002
{
1000
OTHER
1070
     0
1002
}
1002
{
1000
REACTOR
1002
}
1001
GENIUS_GENOBJ-N-FIL_13
1002
{
1000
OWNER
1000
GEN
1002
}
  0
ARC
  5
4A66
  8
240
 10
48.466323014924427
 20
33.500000000001251
 30
0.0
 40
2.0
 50
90.0
 51
149.99999999999801
1001
GENIUS_GENODEF_13
1002
{
1000
HIER
1070
     0
1002
}
1002
{
1000
MANEDIT
1070
     0
1002
}
1002
{
1000
NOSEL
1070
     0
1002
}
1002
{
1000
BEHIND
1070
     0
1002
}
1002
{
1000
OTHER
1070
     0
1002
}
1002
{
1000
REACTOR
1002
}
1001
GENIUS_GENOBJ-N-FIL_13
1002
{
1000
OWNER
1000
GEN
1002
}
  0
LINE
  5
4A67
  8
240
 10
42.28867513459457
 20
-26.800000000000409
 30
0.0
 11
46.734272207355559
 21
-34.500000000001997
 31
0.0
  0
ARC
  5
4A68
  8
240
 10
41.422649730810143
 20
-27.300000000000409
 30
0.0
 40
1.0
 50
29.99999999999973
 51
90.0
1001
GENIUS_GENOBJ-N-FIL_13
1002
{
1000
OWNER
1000
GEN
1002
}
1001
GENIUS_GENODEF_13
1002
{
1000
HIER
1070
     0
1002
}
1002
{
1000
MANEDIT
1070
     0
1002
}
1002
{
1000
NOSEL
1070
     0
1002
}
1002
{
1000
BEHIND
1070
     0
1002
}
1002
{
1000
OTHER
1070
     0
1002
}
1002
{
1000
REACTOR
1002
}
  0
ARC
  5
4A69
  8
240
 10
48.466323014924427
 20
-33.500000000001947
 30
0.0
 40
2.0
 50
210.0000000000019
 51
270.0
1001
GENIUS_GENODEF_13
1002
{
1000
HIER
1070
     0
1002
}
1002
{
1000
MANEDIT
1070
     0
1002
}
1002
{
1000
NOSEL
1070
     0
1002
}
1002
{
1000
BEHIND
1070
     0
1002
}
1002
{
1000
OTHER
1070
     0
1002
}
1002
{
1000
REACTOR
1002
}
1001
GENIUS_GENOBJ-N-FIL_13
1002
{
1000
OWNER
1000
GEN
1002
}
  0
LINE
  5
4A91
  8
240
 10
25.999999999999989
 20
26.29999999999999
 30
0.0
 11
41.422649730810143
 21
26.299999999999951
 31
0.0
1001
GRPNAME
1000
PASTMD06
  0
LINE
  5
4A92
  8
240
 10
26.0
 20
-26.29999999999999
 30
0.0
 11
41.422649730810122
 21
-26.29999999999999
 31
0.0
1001
GRPNAME
1000
PASTMD06
  0
LINE
  5
4AA3
  8
241
 10
26.5
 20
24.86991090062509
 30
0.0
 11
26.5
 21
10.437170179253339
 31
0.0
1001
GRPNAME
1000
PASTMD06
  0
LINE
  5
4AA4
  8
241
 10
26.5
 20
10.437170179253339
 30
0.0
 11
41.483124503702072
 21
10.437170179253339
 31
0.0
1001
GRPNAME
1000
PASTMD06
  0
LINE
  5
4AA5
  8
241
 10
26.5
 20
24.86991090062509
 30
0.0
 11
41.5
 21
24.86991090062509
 31
0.0
1001
GRPNAME
1000
PASTMD06
  0
LINE
  5
4AA6
  8
241
 10
41.5
 20
10.437170179253339
 30
0.0
 11
41.5
 21
24.86991090062509
 31
0.0
  0
LINE
  5
4AA7
  8
242
 10
26.5
 20
10.437170179253339
 30
0.0
 11
41.5
 21
24.86991090062509
 31
0.0
1001
GRPNAME
1000
PASTMD06
  0
LINE
  5
4AA8
  8
242
 10
26.5
 20
24.86991090062509
 30
0.0
 11
41.483124503702072
 21
10.437170179253339
 31
0.0
1001
GRPNAME
1000
PASTMD06
  0
LINE
  5
4AF0
  8
245
 10
-34.336912935692283
 20
0.0
 30
0.0
 11
82.558596941926339
 21
0.0000000000000284
 31
0.0
1001
GRPNAME
1000
PASTMD0P
  0
LINE
  5
4AF2
  8
245
 10
87.439667996444683
 20
0.0000000000000284
 30
0.0
 11
151.86013690799001
 21
0.0
 31
0.0
1001
GRPNAME
1000
PASTMD0P
  0
LINE
  5
4BA4
  8
241
  6
CONTINUOUS
 10
61.499999999999631
 20
-35.500384114493833
 30
0.0
 11
61.500000000000369
 21
35.500384114497479
 31
0.0
  0
LINE
  5
4BA5
  8
241
  6
CONTINUOUS
 10
75.500000000000213
 20
35.500384114497678
 30
0.0
 11
75.500000000000284
 21
-35.500384114494977
 31
0.0
  0
ARC
  5
4BA6
  8
240
 10
75.000000000000256
 20
35.500384114497678
 30
0.0
 40
0.5
 50
0.0
 51
90.0
1001
GENIUS_GENODEF_13
1002
{
1000
HIER
1070
     0
1002
}
1002
{
1000
MANEDIT
1070
     0
1002
}
1002
{
1000
NOSEL
1070
     0
1002
}
1002
{
1000
BEHIND
1070
     0
1002
}
1002
{
1000
OTHER
1070
     0
1002
}
1002
{
1000
REACTOR
1002
}
1001
GENIUS_GENOBJ-N-FIL_13
1002
{
1000
OWNER
1000
GEN
1002
}
  0
ARC
  5
4BA7
  8
240
 10
75.000000000000284
 20
-35.5003841144948
 30
0.0
 40
0.5
 50
270.0
 51
0.0
1001
GENIUS_GENOBJ-N-FIL_13
1002
{
1000
OWNER
1000
GEN
1002
}
1001
GENIUS_GENODEF_13
1002
{
1000
HIER
1070
     0
1002
}
1002
{
1000
MANEDIT
1070
     0
1002
}
1002
{
1000
NOSEL
1070
     0
1002
}
1002
{
1000
BEHIND
1070
     0
1002
}
1002
{
1000
OTHER
1070
     0
1002
}
1002
{
1000
REACTOR
1002
}
  0
LINE
  5
4BA8
  8
240
 10
75.000000000000256
 20
36.000384114497678
 30
0.0
 11
62.00000000000059
 21
36.000384114497678
 31
0.0
  0
LINE
  5
4BA9
  8
240
 10
61.500000000000369
 20
35.50038411449745
 30
0.0
 11
62.00000000000059
 21
36.000384114497678
 31
0.0
1001
GENIUS_GENFIL_13
1070
     0
1040
0.5
1040
0.5
1040
0.4999999999999716
1040
45.000000000004889
1000
~T
  0
LINE
  5
4BAA
  8
240
 10
75.000000000000284
 20
-36.000384114494793
 30
0.0
 11
62.00000000000059
 21
-36.000384114494778
 31
0.0
  0
LINE
  5
4BAB
  8
240
 10
61.500000000000369
 20
-35.500384114494551
 30
0.0
 11
62.00000000000059
 21
-36.000384114494778
 31
0.0
1001
GENIUS_GENFIL_13
1070
     0
1040
0.500000000000938
1040
0.5000000000009665
1040
0.500000000000938
1040
45.000000000003247
1002
{
1002
}
1001
GENIUS_GENOREF_13
1005
0
  0
POLYLINE
  5
4BAC
  8
241
 66
     1
 10
0.0
 20
0.0
 30
0.0
 70
     1
  0
VERTEX
  5
5247
  8
241
 10
66.000000000000597
 20
30.155084652876472
 30
0.0
  0
VERTEX
  5
5248
  8
241
 10
66.000000000000597
 20
27.845683576117981
 30
0.0
  0
VERTEX
  5
5249
  8
241
 10
68.000000000000597
 20
26.690983037738739
 30
0.0
  0
VERTEX
  5
524A
  8
241
 10
70.000000000000597
 20
27.845683576117981
 30
0.0
  0
VERTEX
  5
524B
  8
241
 10
70.000000000000597
 20
30.155084652876472
 30
0.0
  0
VERTEX
  5
524C
  8
241
 10
68.000000000000597
 20
31.30978519125572
 30
0.0
  0
SEQEND
  5
524D
  8
241
  0
LINE
  5
4BAD
  8
241
 10
75.500000000000256
 20
-5.1457893831303627
 30
0.0
 11
61.49999999999995
 21
-5.1457893831303627
 31
0.0
  0
LINE
  5
4BAE
  8
241
 10
75.500000000000256
 20
-13.358977778696159
 30
0.0
 11
61.499999999999858
 21
-13.358977778696159
 31
0.0
  0
LINE
  5
4BAF
  8
241
 10
75.500000000000256
 20
-22.271746435327401
 30
0.0
 11
61.499999999999773
 21
-22.271746435327401
 31
0.0
  0
LINE
  5
4BB0
  8
241
 10
75.500000000000284
 20
-28.284217633017139
 30
0.0
 11
61.499999999999709
 21
-28.284217633017139
 31
0.0
  0
LINE
  5
4BB1
  8
241
 10
75.500000000000284
 20
-33.430007016146959
 30
0.0
 11
61.499999999999659
 21
-33.430007016146959
 31
0.0
  0
LINE
  5
4BB2
  8
240
 10
99.000000000001023
 20
-25.17157287525189
 30
0.0
 11
99.000000000001023
 21
-21.90000000000202
 31
0.0
  0
LINE
  5
4BB3
  8
240
 10
88.671572875253872
 20
35.500000000001911
 30
0.0
 11
75.750000000000199
 21
35.500000000002132
 31
0.0
  0
LINE
  5
4BB4
  8
240
 10
75.750000000000199
 20
35.500000000002132
 30
0.0
 11
75.500000000000199
 21
35.250000000002132
 31
0.0
1001
GENIUS_GENFIL_13
1070
     0
1040
0.25
1040
0.25
1040
0.2500000000000284
1040
45.00000000000162
1002
{
1002
}
1001
GENIUS_GENOBJ-N-CHA_13
1002
{
1000
OWNER
1000
GEN
1002
}
1001
GENIUS_GENODEF_13
1002
{
1000
HIER
1070
     0
1002
}
1002
{
1000
MANEDIT
1070
     0
1002
}
1002
{
1000
NOSEL
1070
     0
1002
}
1002
{
1000
BEHIND
1070
     0
1002
}
1002
{
1000
OTHER
1070
     0
1002
}
1002
{
1000
REACTOR
1002
}
  0
LINE
  5
4BB5
  8
240
 10
90.085786437626979
 20
34.914213562375011
 30
0.0
 11
98.41421356237413
 21
26.585786437627888
 31
0.0
  0
ARC
  5
4BB6
  8
240
 10
88.671572875253986
 20
33.500000000002018
 30
0.0
 40
2.0
 50
45.0
 51
90.0
1001
GENIUS_GENODEF_13
1002
{
1000
HIER
1070
     0
1002
}
1002
{
1000
MANEDIT
1070
     0
1002
}
1002
{
1000
NOSEL
1070
     0
1002
}
1002
{
1000
BEHIND
1070
     0
1002
}
1002
{
1000
OTHER
1070
     0
1002
}
1002
{
1000
REACTOR
1002
}
1001
GENIUS_GENOBJ-N-FIL_13
1002
{
1000
OWNER
1000
GEN
1002
}
  0
ARC
  5
4BB7
  8
240
 10
97.000000000001023
 20
25.171572875254778
 30
0.0
 40
2.0
 50
0.0
 51
45.0
1001
GENIUS_GENODEF_13
1002
{
1000
HIER
1070
     0
1002
}
1002
{
1000
MANEDIT
1070
     0
1002
}
1002
{
1000
NOSEL
1070
     0
1002
}
1002
{
1000
BEHIND
1070
     0
1002
}
1002
{
1000
OTHER
1070
     0
1002
}
1002
{
1000
REACTOR
1002
}
1001
GENIUS_GENOBJ-N-FIL_13
1002
{
1000
OWNER
1000
GEN
1002
}
  0
LINE
  5
4BB8
  8
240
 10
88.671572875253872
 20
-35.499999999999012
 30
0.0
 11
75.750000000000199
 21
-35.499999999999233
 31
0.0
  0
LINE
  5
4BB9
  8
240
 10
75.750000000000199
 20
-35.499999999999233
 30
0.0
 11
75.500000000000199
 21
-35.249999999999233
 31
0.0
1001
GENIUS_GENFIL_13
1070
     0
1040
0.25
1040
0.25
1040
0.2500000000000284
1040
45.00000000000162
1002
{
1002
}
1001
GENIUS_GENOBJ-N-CHA_13
1002
{
1000
OWNER
1000
GEN
1002
}
1001
GENIUS_GENODEF_13
1002
{
1000
HIER
1070
     0
1002
}
1002
{
1000
MANEDIT
1070
     0
1002
}
1002
{
1000
NOSEL
1070
     0
1002
}
1002
{
1000
BEHIND
1070
     0
1002
}
1002
{
1000
OTHER
1070
     0
1002
}
1002
{
1000
REACTOR
1002
}
  0
ARC
  5
4BBA
  8
240
 10
88.671572875253986
 20
-33.499999999999119
 30
0.0
 40
2.0
 50
270.0
 51
315.0
1001
GENIUS_GENODEF_13
1002
{
1000
HIER
1070
     0
1002
}
1002
{
1000
MANEDIT
1070
     0
1002
}
1002
{
1000
NOSEL
1070
     0
1002
}
1002
{
1000
BEHIND
1070
     0
1002
}
1002
{
1000
OTHER
1070
     0
1002
}
1002
{
1000
REACTOR
1002
}
1001
GENIUS_GENOBJ-N-FIL_13
1002
{
1000
OWNER
1000
GEN
1002
}
  0
ARC
  5
4BBB
  8
240
 10
97.000000000001023
 20
-25.17157287525189
 30
0.0
 40
2.0
 50
315.0
 51
0.0
1001
GENIUS_GENODEF_13
1002
{
1000
HIER
1070
     0
1002
}
1002
{
1000
MANEDIT
1070
     0
1002
}
1002
{
1000
NOSEL
1070
     0
1002
}
1002
{
1000
BEHIND
1070
     0
1002
}
1002
{
1000
OTHER
1070
     0
1002
}
1002
{
1000
REACTOR
1002
}
1001
GENIUS_GENOBJ-N-FIL_13
1002
{
1000
OWNER
1000
GEN
1002
}
  0
LINE
  5
4BBC
  8
240
 10
90.085786437626979
 20
-34.914213562374947
 30
0.0
 11
98.41421356237413
 21
-26.585786437627831
 31
0.0
  0
LINE
  5
4BBD
  8
241
  6
CONTINUOUS
 10
89.500000000002913
 20
-35.320359442246769
 30
0.0
 11
89.500000000002913
 21
35.320359442249668
 31
0.0
  0
LINE
  5
4BBE
  8
241
 10
76.000000000000256
 20
0.0
 30
0.0
 11
79.000000000000256
 21
-0.0000000000013642
 31
0.0
  0
LINE
  5
4BBF
  8
241
 10
76.000000000000256
 20
-3.0940288675433858
 30
0.0
 11
78.000000000000256
 21
-3.0940288675433858
 31
0.0
  0
LINE
  5
4BC0
  8
241
 10
76.000000000000256
 20
-6.1645103071777489
 30
0.0
 11
79.000000000000256
 21
-6.1645103071777489
 31
0.0
  0
LINE
  5
4BC1
  8
241
 10
76.000000000000256
 20
-9.1880761011413483
 30
0.0
 11
78.000000000000256
 21
-9.1880761011413483
 31
0.0
  0
LINE
  5
4BC2
  8
241
 10
76.000000000000256
 20
-12.095512196469199
 30
0.0
 11
79.000000000000256
 21
-12.095512196469199
 31
0.0
  0
LINE
  5
4BC3
  8
241
 10
76.000000000000256
 20
-14.888984043800059
 30
0.0
 11
78.000000000000256
 21
-14.888984043800059
 31
0.0
  0
LINE
  5
4BC4
  8
241
 10
76.000000000000256
 20
-17.750000000002391
 30
0.0
 11
79.000000000000256
 21
-17.750000000002391
 31
0.0
  0
LINE
  5
4BC5
  8
241
 10
76.000000000000256
 20
-20.361963490464628
 30
0.0
 11
78.000000000000256
 21
-20.361963490464628
 31
0.0
  0
LINE
  5
4BC6
  8
241
 10
76.000000000000256
 20
-22.732127111294972
 30
0.0
 11
79.000000000000256
 21
-22.732127111294972
 31
0.0
  0
LINE
  5
4BC7
  8
241
 10
76.000000000000256
 20
-25.102290732125201
 30
0.0
 11
78.000000000000256
 21
-25.102290732125201
 31
0.0
  0
LINE
  5
4BC8
  8
241
 10
76.000000000000256
 20
-27.194577730726621
 30
0.0
 11
79.000000000000313
 21
-27.194577730726621
 31
0.0
  0
LINE
  5
4BC9
  8
241
 10
76.000000000000256
 20
-29.079897572262269
 30
0.0
 11
78.000000000000313
 21
-29.079897572262269
 31
0.0
  0
LINE
  5
4BCA
  8
241
 10
76.000000000000256
 20
-30.743901834350648
 30
0.0
 11
79.000000000000313
 21
-30.743901834350648
 31
0.0
  0
LINE
  5
4BCB
  8
241
 10
76.000000000000313
 20
-32.173926439804291
 30
0.0
 11
78.000000000000313
 21
-32.173926439804291
 31
0.0
  0
LINE
  5
4BCC
  8
241
 10
76.000000000000313
 20
-33.359088037903007
 30
0.0
 11
79.000000000000313
 21
-33.359088037903007
 31
0.0
  0
LINE
  5
4BCD
  8
241
 10
76.000000000000313
 20
-34.290366833265182
 30
0.0
 11
78.000000000000313
 21
-34.290366833265182
 31
0.0
  0
LINE
  5
4BCE
  8
241
 10
76.000000000000313
 20
-34.960675231936762
 30
0.0
 11
79.000000000000313
 21
-34.960675231936762
 31
0.0
  0
CIRCLE
  5
4BCF
  8
241
 10
68.000000000000597
 20
29.000384114497219
 30
0.0
 40
4.0000000000000231
  0
ARC
  5
4BD1
  8
241
  6
CONTINUOUS
 10
68.000000000000597
 20
29.000384114497219
 30
0.0
 40
4.25
 50
180.0
 51
0.0
  0
LINE
  5
4BD2
  8
241
  6
CONTINUOUS
 10
63.750000000000597
 20
33.250384114497223
 30
0.0
 11
63.750000000000597
 21
29.000384114497219
 31
0.0
  0
LINE
  5
4BD3
  8
241
  6
CONTINUOUS
 10
72.250000000000597
 20
33.250384114497223
 30
0.0
 11
72.250000000000597
 21
29.000384114497219
 31
0.0
  0
LINE
  5
4BD4
  8
241
  6
CONTINUOUS
 10
63.750000000000597
 20
33.250384114497223
 30
0.0
 11
72.250000000000597
 21
33.250384114497223
 31
0.0
  0
LINE
  5
4BD5
  8
241
 10
75.500000000000256
 20
5.1457893831303627
 30
0.0
 11
61.49999999999995
 21
5.1457893831303627
 31
0.0
  0
LINE
  5
4BD6
  8
241
 10
76.000000000000256
 20
3.0940288675433858
 30
0.0
 11
78.000000000000256
 21
3.0940288675433858
 31
0.0
  0
LINE
  5
4BD7
  8
241
 10
76.000000000000256
 20
6.1645103071777489
 30
0.0
 11
79.000000000000256
 21
6.1645103071777489
 31
0.0
  0
LINE
  5
4BD8
  8
241
 10
76.000000000000256
 20
9.1880761011413483
 30
0.0
 11
78.000000000000256
 21
9.1880761011413483
 31
0.0
  0
LINE
  5
4BD9
  8
241
 10
76.000000000000256
 20
12.095512196469199
 30
0.0
 11
79.000000000000256
 21
12.095512196469199
 31
0.0
  0
LINE
  5
4BDA
  8
241
 10
76.000000000000256
 20
14.888984043800059
 30
0.0
 11
78.000000000000256
 21
14.888984043800059
 31
0.0
  0
LINE
  5
4BDB
  8
241
 10
76.000000000000256
 20
17.750000000002391
 30
0.0
 11
79.000000000000256
 21
17.750000000002391
 31
0.0
  0
LINE
  5
4BDC
  8
241
 10
76.000000000000256
 20
20.361963490464628
 30
0.0
 11
78.000000000000256
 21
20.361963490464628
 31
0.0
  0
LINE
  5
4BDD
  8
241
 10
76.000000000000256
 20
22.732127111294972
 30
0.0
 11
79.000000000000256
 21
22.732127111294972
 31
0.0
  0
LINE
  5
4BDE
  8
241
 10
76.000000000000256
 20
25.102290732125201
 30
0.0
 11
78.000000000000256
 21
25.102290732125201
 31
0.0
  0
LINE
  5
4BDF
  8
241
 10
76.000000000000256
 20
27.194577730726621
 30
0.0
 11
79.000000000000313
 21
27.194577730726621
 31
0.0
  0
LINE
  5
4BE0
  8
241
 10
76.000000000000256
 20
29.079897572262269
 30
0.0
 11
78.000000000000313
 21
29.079897572262269
 31
0.0
  0
LINE
  5
4BE1
  8
241
 10
76.000000000000256
 20
30.743901834350648
 30
0.0
 11
79.000000000000313
 21
30.743901834350648
 31
0.0
  0
LINE
  5
4BE2
  8
241
 10
76.000000000000313
 20
32.173926439804291
 30
0.0
 11
78.000000000000313
 21
32.173926439804291
 31
0.0
  0
LINE
  5
4BE3
  8
241
 10
76.000000000000313
 20
33.359088037903007
 30
0.0
 11
79.000000000000313
 21
33.359088037903007
 31
0.0
  0
LINE
  5
4BE4
  8
241
 10
76.000000000000313
 20
34.290366833265182
 30
0.0
 11
78.000000000000313
 21
34.290366833265182
 31
0.0
  0
LINE
  5
4BE5
  8
241
 10
76.000000000000313
 20
34.960675231936762
 30
0.0
 11
79.000000000000313
 21
34.960675231936762
 31
0.0
  0
ARC
  5
4BE7
  8
240
  6
CONTINUOUS
 10
100.5000000000034
 20
-21.400000000002031
 30
0.0
 40
0.5
 50
270.00000001286469
 51
0.0000000128647076
1001
GRPNAME
1000
PASTMD3D
  0
LINE
  5
4BE8
  8
240
  6
CONTINUOUS
 10
99.000000000001023
 20
-21.90000000000202
 30
0.0
 11
100.5000000000034
 21
-21.90000000000202
 31
0.0
1001
GRPNAME
1000
PASTMD3D
  0
LINE
  5
4BE9
  8
241
  6
CONTINUOUS
 10
99.000000000001023
 20
-21.90000000000202
 30
0.0
 11
99.000000000001023
 21
21.900000000002048
 31
0.0
  0
LINE
  5
4BEA
  8
240
 10
101.500000000002
 20
-25.349999999998658
 30
0.0
 11
104.9999999999982
 21
-25.35000000000014
 31
0.0
  0
LINE
  5
4BEB
  8
240
  6
CONTINUOUS
 10
101.0000000000021
 20
-24.849999999998708
 30
0.0
 11
101.0000000000018
 21
-21.40000000000197
 31
0.0
1001
GRPNAME
1000
PASTMD0F
  0
ARC
  5
4BEC
  8
240
 10
101.5000000000021
 20
-24.849999999998658
 30
0.0
 40
0.5
 50
180.0000000000048
 51
269.9999999999755
1001
GRPNAME
1000
PASTMD0F
1001
ASK_MEN_XD
1005
4BEA
1070
     1
1005
4BEB
1070
     1
  0
LINE
  5
4BED
  8
240
 10
138.47829568782711
 20
-23.887743264609242
 30
0.0
 11
131.56602540378901
 21
-24.249999999999378
 31
0.0
  0
LINE
  5
4BEE
  8
241
 10
119.69999999999941
 20
-24.999999999999769
 30
0.0
 11
119.69999999999941
 21
24.999999999999751
 31
0.0
  0
LINE
  5
4BEF
  8
241
 10
104.9999999999982
 20
-25.350000000000819
 30
0.0
 11
104.9999999999982
 21
25.35000000000079
 31
0.0
  0
LINE
  5
4BF0
  8
241
 10
107.0000000000002
 20
-24.999999999999659
 30
0.0
 11
107.0000000000002
 21
24.999999999999659
 31
0.0
  0
LINE
  5
4BF1
  8
240
  6
CONTINUOUS
 10
120.64999999999939
 20
-24.04999999999978
 30
0.0
 11
121.9999999999994
 21
-24.04999999999978
 31
0.0
  0
LINE
  5
4BF2
  8
240
  6
CONTINUOUS
 10
107.0000000000002
 20
-24.999999999999659
 30
0.0
 11
119.69999999999941
 21
-24.999999999999769
 31
0.0
  0
LINE
  5
4BF3
  8
241
 10
105.5500000000003
 20
-24.799999999999731
 30
0.0
 11
105.5500000000003
 21
-21.589685565644089
 31
0.0
  0
LINE
  5
4BF4
  8
241
 10
106.8000000000003
 20
-24.799999999999791
 30
0.0
 11
106.8000000000003
 21
-21.551481264506322
 31
0.0
  0
LINE
  5
4BF5
  8
240
  6
CONTINUOUS
 10
107.0000000000003
 20
-24.999999999999769
 30
0.0
 11
106.8000000000003
 21
-24.799999999999791
 31
0.0
  0
LINE
  5
4BF6
  8
240
  6
CONTINUOUS
 10
104.9999999999982
 20
-25.350000000000819
 30
0.0
 11
105.5500000000003
 21
-24.799999999999791
 31
0.0
  0
LINE
  5
4BF7
  8
240
  6
CONTINUOUS
 10
105.5500000000003
 20
-24.799999999999791
 30
0.0
 11
106.8000000000003
 21
-24.799999999999791
 31
0.0
  0
LINE
  5
4BF8
  8
241
 10
120.64999999999939
 20
-24.04999999999978
 30
0.0
 11
120.64999999999939
 21
-21.54880473162132
 31
0.0
  0
LINE
  5
4BF9
  8
241
 10
120.64999999999939
 20
-21.003369125891648
 30
0.0
 11
120.64999999999939
 21
-0.545435605729665
 31
0.0
  0
LINE
  5
4BFA
  8
240
  6
CONTINUOUS
 10
120.64999999999939
 20
-24.04999999999978
 30
0.0
 11
119.69999999999941
 21
-24.999999999999769
 31
0.0
  0
LINE
  5
4BFB
  8
240
  6
CONTINUOUS
 10
122.69999999999941
 20
-24.749999999999769
 30
0.0
 11
129.69999999999959
 21
-24.749999999999659
 31
0.0
  0
LINE
  5
4BFC
  8
241
 10
121.9999999999994
 20
-24.04999999999978
 30
0.0
 11
121.9999999999994
 21
-22.544944682801319
 31
0.0
  0
LINE
  5
4BFD
  8
241
 10
121.9999999999994
 20
-20.00722917471165
 30
0.0
 11
121.9999999999994
 21
-2.537715508089661
 31
0.0
  0
LINE
  5
4BFE
  8
241
 10
122.69999999999931
 20
-24.749999999999769
 30
0.0
 11
122.69999999999931
 21
-22.706995730881829
 31
0.0
  0
LINE
  5
4BFF
  8
241
 10
122.69999999999931
 20
-19.84517812663114
 30
0.0
 11
122.69999999999941
 21
-2.8618176042507169
 31
0.0
  0
LINE
  5
4C00
  8
240
  6
CONTINUOUS
 10
121.9999999999994
 20
-24.04999999999978
 30
0.0
 11
122.69999999999931
 21
-24.749999999999769
 31
0.0
  0
LINE
  5
4C01
  8
241
 10
129.69999999999959
 20
-24.749999999999659
 30
0.0
 11
129.69999999999959
 21
-22.667375852246831
 31
0.0
  0
LINE
  5
4C02
  8
241
 10
129.69999999999959
 20
-19.884798005266131
 30
0.0
 11
129.69999999999919
 21
-2.7774271574876361
 31
0.0
  0
LINE
  5
4C03
  8
240
  6
CONTINUOUS
 10
131.56602540378901
 20
-24.249999999999378
 30
0.0
 11
129.69999999999959
 21
-24.749999999999659
 31
0.0
  0
LINE
  5
4C04
  8
241
 10
131.56602540378881
 20
-24.2499999999994
 30
0.0
 11
131.56602540378881
 21
-21.499937501344849
 31
0.0
  0
LINE
  5
4C05
  8
241
 10
131.56602540378881
 20
-21.05223635616813
 30
0.0
 11
131.56602540378881
 21
21.05223635616813
 31
0.0
  0
LINE
  5
4C28
  8
240
 10
144.4999999999996
 20
-20.788675134594769
 30
0.0
 11
139.82128781909839
 21
-23.489930871698849
 31
0.0
  0
ARC
  5
4C29
  8
240
 10
138.32128781909839
 20
-20.89185466034553
 30
0.0
 40
3.0
 50
272.99999999999591
 51
299.99999999999972
1001
ASK_MEN_XD
1005
4BED
1070
     1
1005
4C28
1070
     1
  0
ARC
  5
4C2A
  8
240
 10
143.9999999999996
 20
-19.922649730810349
 30
0.0
 40
1.0
 50
299.99999999999972
 51
0.0
1001
ASK_MEN_XD
1005
0
1070
     1
1005
0
1070
     1
  0
LINE
  5
4C2B
  8
241
 10
139.19754490628111
 20
-23.761031113121131
 30
0.0
 11
139.19754490628111
 21
-0.1005458820945364
 31
0.0
  0
LINE
  5
4C2E
  8
241
 10
123.5999999999998
 20
-19.776086928756481
 30
0.0
 11
128.5660254037891
 21
-19.776086928756481
 31
0.0
  0
LINE
  5
4C2F
  8
241
 10
123.5999999999998
 20
-22.776086928756509
 30
0.0
 11
128.5660254037891
 21
-22.776086928756509
 31
0.0
  0
LINE
  5
4C30
  8
241
 10
128.5660254037891
 20
-3.0
 30
0.0
 11
123.5999999999998
 21
-3.0
 31
0.0
  0
LINE
  5
4C31
  8
241
 10
128.5660254037891
 20
3.0
 30
0.0
 11
123.5999999999998
 21
3.0
 31
0.0
  0
ARC
  5
4C32
  8
241
 10
123.5999999999998
 20
0.0
 30
0.0
 40
3.0
 50
90.0
 51
270.0
  0
ARC
  5
4C33
  8
241
 10
128.5660254037891
 20
0.0
 30
0.0
 40
2.9999999999999849
 50
270.0
 51
90.0
  0
POLYLINE
  5
4C34
  8
241
 10
123.5999999999998
 20
-19.776086928756481
 30
0.0
 66
     1
 70
     8
  0
VERTEX
  8
241
  5
524E
 10
123.600
 20
-19.7761
 30
0.000000
  70
    32
  0
VERTEX
  8
241
  5
524F
 10
123.526
 20
-19.7765
 30
0.000000
  70
    32
  0
VERTEX
  8
241
  5
5250
 10
123.453
 20
-19.7779
 30
0.000000
  70
    32
  0
VERTEX
  8
241
  5
5251
 10
123.379
 20
-19.7802
 30
0.000000
  70
    32
  0
VERTEX
  8
241
  5
5252
 10
123.306
 20
-19.7833
 30
0.000000
  70
    32
  0
VERTEX
  8
241
  5
5253
 10
123.233
 20
-19.7874
 30
0.000000
  70
    32
  0
VERTEX
  8
241
  5
5254
 10
123.160
 20
-19.7923
 30
0.000000
  70
    32
  0
VERTEX
  8
241
  5
5255
 10
123.087
 20
-19.7982
 30
0.000000
  70
    32
  0
VERTEX
  8
241
  5
5256
 10
123.015
 20
-19.8049
 30
0.000000
  70
    32
  0
VERTEX
  8
241
  5
5257
 10
122.943
 20
-19.8125
 30
0.000000
  70
    32
  0
VERTEX
  8
241
  5
5258
 10
122.871
 20
-19.8210
 30
0.000000
  70
    32
  0
VERTEX
  8
241
  5
5259
 10
122.800
 20
-19.8304
 30
0.000000
  70
    32
  0
VERTEX
  8
241
  5
525A
 10
122.729
 20
-19.8407
 30
0.000000
  70
    32
  0
VERTEX
  8
241
  5
525B
 10
122.659
 20
-19.8518
 30
0.000000
  70
    32
  0
VERTEX
  8
241
  5
525C
 10
122.589
 20
-19.8638
 30
0.000000
  70
    32
  0
VERTEX
  8
241
  5
525D
 10
122.520
 20
-19.8766
 30
0.000000
  70
    32
  0
VERTEX
  8
241
  5
525E
 10
122.452
 20
-19.8903
 30
0.000000
  70
    32
  0
VERTEX
  8
241
  5
525F
 10
122.384
 20
-19.9048
 30
0.000000
  70
    32
  0
VERTEX
  8
241
  5
5260
 10
122.317
 20
-19.9201
 30
0.000000
  70
    32
  0
VERTEX
  8
241
  5
5261
 10
122.251
 20
-19.9363
 30
0.000000
  70
    32
  0
VERTEX
  8
241
  5
5262
 10
122.186
 20
-19.9532
 30
0.000000
  70
    32
  0
VERTEX
  8
241
  5
5263
 10
122.121
 20
-19.9710
 30
0.000000
  70
    32
  0
VERTEX
  8
241
  5
5264
 10
122.058
 20
-19.9895
 30
0.000000
  70
    32
  0
VERTEX
  8
241
  5
5265
 10
121.995
 20
-20.0088
 30
0.000000
  70
    32
  0
VERTEX
  8
241
  5
5266
 10
121.933
 20
-20.0289
 30
0.000000
  70
    32
  0
VERTEX
  8
241
  5
5267
 10
121.873
 20
-20.0497
 30
0.000000
  70
    32
  0
VERTEX
  8
241
  5
5268
 10
121.813
 20
-20.0713
 30
0.000000
  70
    32
  0
VERTEX
  8
241
  5
5269
 10
121.754
 20
-20.0936
 30
0.000000
  70
    32
  0
VERTEX
  8
241
  5
526A
 10
121.697
 20
-20.1166
 30
0.000000
  70
    32
  0
VERTEX
  8
241
  5
526B
 10
121.640
 20
-20.1403
 30
0.000000
  70
    32
  0
VERTEX
  8
241
  5
526C
 10
121.585
 20
-20.1647
 30
0.000000
  70
    32
  0
VERTEX
  8
241
  5
526D
 10
121.531
 20
-20.1897
 30
0.000000
  70
    32
  0
VERTEX
  8
241
  5
526E
 10
121.479
 20
-20.2154
 30
0.000000
  70
    32
  0
VERTEX
  8
241
  5
526F
 10
121.427
 20
-20.2418
 30
0.000000
  70
    32
  0
VERTEX
  8
241
  5
5270
 10
121.377
 20
-20.2687
 30
0.000000
  70
    32
  0
VERTEX
  8
241
  5
5271
 10
121.328
 20
-20.2963
 30
0.000000
  70
    32
  0
VERTEX
  8
241
  5
5272
 10
121.281
 20
-20.3245
 30
0.000000
  70
    32
  0
VERTEX
  8
241
  5
5273
 10
121.235
 20
-20.3532
 30
0.000000
  70
    32
  0
VERTEX
  8
241
  5
5274
 10
121.190
 20
-20.3825
 30
0.000000
  70
    32
  0
VERTEX
  8
241
  5
5275
 10
121.147
 20
-20.4124
 30
0.000000
  70
    32
  0
VERTEX
  8
241
  5
5276
 10
121.106
 20
-20.4427
 30
0.000000
  70
    32
  0
VERTEX
  8
241
  5
5277
 10
121.065
 20
-20.4736
 30
0.000000
  70
    32
  0
VERTEX
  8
241
  5
5278
 10
121.027
 20
-20.5049
 30
0.000000
  70
    32
  0
VERTEX
  8
241
  5
5279
 10
120.990
 20
-20.5367
 30
0.000000
  70
    32
  0
VERTEX
  8
241
  5
527A
 10
120.954
 20
-20.5690
 30
0.000000
  70
    32
  0
VERTEX
  8
241
  5
527B
 10
120.920
 20
-20.6017
 30
0.000000
  70
    32
  0
VERTEX
  8
241
  5
527C
 10
120.888
 20
-20.6348
 30
0.000000
  70
    32
  0
VERTEX
  8
241
  5
527D
 10
120.857
 20
-20.6682
 30
0.000000
  70
    32
  0
VERTEX
  8
241
  5
527E
 10
120.828
 20
-20.7021
 30
0.000000
  70
    32
  0
VERTEX
  8
241
  5
527F
 10
120.801
 20
-20.7362
 30
0.000000
  70
    32
  0
VERTEX
  8
241
  5
5280
 10
120.775
 20
-20.7708
 30
0.000000
  70
    32
  0
VERTEX
  8
241
  5
5281
 10
120.751
 20
-20.8056
 30
0.000000
  70
    32
  0
VERTEX
  8
241
  5
5282
 10
120.729
 20
-20.8407
 30
0.000000
  70
    32
  0
VERTEX
  8
241
  5
5283
 10
120.709
 20
-20.8760
 30
0.000000
  70
    32
  0
VERTEX
  8
241
  5
5284
 10
120.690
 20
-20.9116
 30
0.000000
  70
    32
  0
VERTEX
  8
241
  5
5285
 10
120.673
 20
-20.9474
 30
0.000000
  70
    32
  0
VERTEX
  8
241
  5
5286
 10
120.658
 20
-20.9835
 30
0.000000
  70
    32
  0
VERTEX
  8
241
  5
5287
 10
120.644
 20
-21.0196
 30
0.000000
  70
    32
  0
VERTEX
  8
241
  5
5288
 10
120.632
 20
-21.0560
 30
0.000000
  70
    32
  0
VERTEX
  8
241
  5
5289
 10
120.623
 20
-21.0925
 30
0.000000
  70
    32
  0
VERTEX
  8
241
  5
528A
 10
120.614
 20
-21.1291
 30
0.000000
  70
    32
  0
VERTEX
  8
241
  5
528B
 10
120.608
 20
-21.1657
 30
0.000000
  70
    32
  0
VERTEX
  8
241
  5
528C
 10
120.604
 20
-21.2025
 30
0.000000
  70
    32
  0
VERTEX
  8
241
  5
528D
 10
120.601
 20
-21.2393
 30
0.000000
  70
    32
  0
VERTEX
  8
241
  5
528E
 10
120.600
 20
-21.2761
 30
0.000000
  70
    32
  0
VERTEX
  8
241
  5
528F
 10
120.601
 20
-21.3129
 30
0.000000
  70
    32
  0
VERTEX
  8
241
  5
5290
 10
120.604
 20
-21.3497
 30
0.000000
  70
    32
  0
VERTEX
  8
241
  5
5291
 10
120.608
 20
-21.3864
 30
0.000000
  70
    32
  0
VERTEX
  8
241
  5
5292
 10
120.614
 20
-21.4231
 30
0.000000
  70
    32
  0
VERTEX
  8
241
  5
5293
 10
120.623
 20
-21.4597
 30
0.000000
  70
    32
  0
VERTEX
  8
241
  5
5294
 10
120.632
 20
-21.4962
 30
0.000000
  70
    32
  0
VERTEX
  8
241
  5
5295
 10
120.644
 20
-21.5325
 30
0.000000
  70
    32
  0
VERTEX
  8
241
  5
5296
 10
120.658
 20
-21.5687
 30
0.000000
  70
    32
  0
VERTEX
  8
241
  5
5297
 10
120.673
 20
-21.6047
 30
0.000000
  70
    32
  0
VERTEX
  8
241
  5
5298
 10
120.690
 20
-21.6406
 30
0.000000
  70
    32
  0
VERTEX
  8
241
  5
5299
 10
120.709
 20
-21.6762
 30
0.000000
  70
    32
  0
VERTEX
  8
241
  5
529A
 10
120.729
 20
-21.7115
 30
0.000000
  70
    32
  0
VERTEX
  8
241
  5
529B
 10
120.751
 20
-21.7466
 30
0.000000
  70
    32
  0
VERTEX
  8
241
  5
529C
 10
120.775
 20
-21.7814
 30
0.000000
  70
    32
  0
VERTEX
  8
241
  5
529D
 10
120.801
 20
-21.8159
 30
0.000000
  70
    32
  0
VERTEX
  8
241
  5
529E
 10
120.828
 20
-21.8501
 30
0.000000
  70
    32
  0
VERTEX
  8
241
  5
529F
 10
120.857
 20
-21.8839
 30
0.000000
  70
    32
  0
VERTEX
  8
241
  5
52A0
 10
120.888
 20
-21.9174
 30
0.000000
  70
    32
  0
VERTEX
  8
241
  5
52A1
 10
120.920
 20
-21.9505
 30
0.000000
  70
    32
  0
VERTEX
  8
241
  5
52A2
 10
120.954
 20
-21.9832
 30
0.000000
  70
    32
  0
VERTEX
  8
241
  5
52A3
 10
120.990
 20
-22.0154
 30
0.000000
  70
    32
  0
VERTEX
  8
241
  5
52A4
 10
121.027
 20
-22.0472
 30
0.000000
  70
    32
  0
VERTEX
  8
241
  5
52A5
 10
121.065
 20
-22.0786
 30
0.000000
  70
    32
  0
VERTEX
  8
241
  5
52A6
 10
121.106
 20
-22.1094
 30
0.000000
  70
    32
  0
VERTEX
  8
241
  5
52A7
 10
121.147
 20
-22.1398
 30
0.000000
  70
    32
  0
VERTEX
  8
241
  5
52A8
 10
121.190
 20
-22.1696
 30
0.000000
  70
    32
  0
VERTEX
  8
241
  5
52A9
 10
121.235
 20
-22.1989
 30
0.000000
  70
    32
  0
VERTEX
  8
241
  5
52AA
 10
121.281
 20
-22.2277
 30
0.000000
  70
    32
  0
VERTEX
  8
241
  5
52AB
 10
121.328
 20
-22.2558
 30
0.000000
  70
    32
  0
VERTEX
  8
241
  5
52AC
 10
121.377
 20
-22.2834
 30
0.000000
  70
    32
  0
VERTEX
  8
241
  5
52AD
 10
121.427
 20
-22.3104
 30
0.000000
  70
    32
  0
VERTEX
  8
241
  5
52AE
 10
121.479
 20
-22.3367
 30
0.000000
  70
    32
  0
VERTEX
  8
241
  5
52AF
 10
121.531
 20
-22.3625
 30
0.000000
  70
    32
  0
VERTEX
  8
241
  5
52B0
 10
121.585
 20
-22.3875
 30
0.000000
  70
    32
  0
VERTEX
  8
241
  5
52B1
 10
121.640
 20
-22.4119
 30
0.000000
  70
    32
  0
VERTEX
  8
241
  5
52B2
 10
121.697
 20
-22.4356
 30
0.000000
  70
    32
  0
VERTEX
  8
241
  5
52B3
 10
121.754
 20
-22.4586
 30
0.000000
  70
    32
  0
VERTEX
  8
241
  5
52B4
 10
121.813
 20
-22.4809
 30
0.000000
  70
    32
  0
VERTEX
  8
241
  5
52B5
 10
121.873
 20
-22.5025
 30
0.000000
  70
    32
  0
VERTEX
  8
241
  5
52B6
 10
121.933
 20
-22.5233
 30
0.000000
  70
    32
  0
VERTEX
  8
241
  5
52B7
 10
121.995
 20
-22.5434
 30
0.000000
  70
    32
  0
VERTEX
  8
241
  5
52B8
 10
122.058
 20
-22.5627
 30
0.000000
  70
    32
  0
VERTEX
  8
241
  5
52B9
 10
122.121
 20
-22.5812
 30
0.000000
  70
    32
  0
VERTEX
  8
241
  5
52BA
 10
122.186
 20
-22.5990
 30
0.000000
  70
    32
  0
VERTEX
  8
241
  5
52BB
 10
122.251
 20
-22.6159
 30
0.000000
  70
    32
  0
VERTEX
  8
241
  5
52BC
 10
122.317
 20
-22.6321
 30
0.000000
  70
    32
  0
VERTEX
  8
241
  5
52BD
 10
122.384
 20
-22.6474
 30
0.000000
  70
    32
  0
VERTEX
  8
241
  5
52BE
 10
122.452
 20
-22.6619
 30
0.000000
  70
    32
  0
VERTEX
  8
241
  5
52BF
 10
122.520
 20
-22.6756
 30
0.000000
  70
    32
  0
VERTEX
  8
241
  5
52C0
 10
122.589
 20
-22.6884
 30
0.000000
  70
    32
  0
VERTEX
  8
241
  5
52C1
 10
122.659
 20
-22.7004
 30
0.000000
  70
    32
  0
VERTEX
  8
241
  5
52C2
 10
122.729
 20
-22.7115
 30
0.000000
  70
    32
  0
VERTEX
  8
241
  5
52C3
 10
122.800
 20
-22.7218
 30
0.000000
  70
    32
  0
VERTEX
  8
241
  5
52C4
 10
122.871
 20
-22.7311
 30
0.000000
  70
    32
  0
VERTEX
  8
241
  5
52C5
 10
122.943
 20
-22.7396
 30
0.000000
  70
    32
  0
VERTEX
  8
241
  5
52C6
 10
123.015
 20
-22.7473
 30
0.000000
  70
    32
  0
VERTEX
  8
241
  5
52C7
 10
123.087
 20
-22.7540
 30
0.000000
  70
    32
  0
VERTEX
  8
241
  5
52C8
 10
123.160
 20
-22.7599
 30
0.000000
  70
    32
  0
VERTEX
  8
241
  5
52C9
 10
123.233
 20
-22.7648
 30
0.000000
  70
    32
  0
VERTEX
  8
241
  5
52CA
 10
123.306
 20
-22.7689
 30
0.000000
  70
    32
  0
VERTEX
  8
241
  5
52CB
 10
123.379
 20
-22.7720
 30
0.000000
  70
    32
  0
VERTEX
  8
241
  5
52CC
 10
123.453
 20
-22.7743
 30
0.000000
  70
    32
  0
VERTEX
  8
241
  5
52CD
 10
123.526
 20
-22.7756
 30
0.000000
  70
    32
  0
VERTEX
  8
241
  5
52CE
 10
123.600
 20
-22.7761
 30
0.000000
  70
    32
  0
SEQEND
  8
241
  5
52CF
  0
POLYLINE
  5
4C35
  8
241
 10
128.5660254037891
 20
-22.776086928756481
 30
0.0
 66
     1
 70
     8
  0
VERTEX
  8
241
  5
52D0
 10
128.566
 20
-22.7761
 30
0.000000
  70
    32
  0
VERTEX
  8
241
  5
52D1
 10
128.640
 20
-22.7756
 30
0.000000
  70
    32
  0
VERTEX
  8
241
  5
52D2
 10
128.715
 20
-22.7743
 30
0.000000
  70
    32
  0
VERTEX
  8
241
  5
52D3
 10
128.789
 20
-22.7720
 30
0.000000
  70
    32
  0
VERTEX
  8
241
  5
52D4
 10
128.863
 20
-22.7689
 30
0.000000
  70
    32
  0
VERTEX
  8
241
  5
52D5
 10
128.937
 20
-22.7648
 30
0.000000
  70
    32
  0
VERTEX
  8
241
  5
52D6
 10
129.011
 20
-22.7599
 30
0.000000
  70
    32
  0
VERTEX
  8
241
  5
52D7
 10
129.085
 20
-22.7540
 30
0.000000
  70
    32
  0
VERTEX
  8
241
  5
52D8
 10
129.158
 20
-22.7473
 30
0.000000
  70
    32
  0
VERTEX
  8
241
  5
52D9
 10
129.231
 20
-22.7396
 30
0.000000
  70
    32
  0
VERTEX
  8
241
  5
52DA
 10
129.303
 20
-22.7311
 30
0.000000
  70
    32
  0
VERTEX
  8
241
  5
52DB
 10
129.375
 20
-22.7218
 30
0.000000
  70
    32
  0
VERTEX
  8
241
  5
52DC
 10
129.447
 20
-22.7115
 30
0.000000
  70
    32
  0
VERTEX
  8
241
  5
52DD
 10
129.518
 20
-22.7004
 30
0.000000
  70
    32
  0
VERTEX
  8
241
  5
52DE
 10
129.588
 20
-22.6884
 30
0.000000
  70
    32
  0
VERTEX
  8
241
  5
52DF
 10
129.658
 20
-22.6756
 30
0.000000
  70
    32
  0
VERTEX
  8
241
  5
52E0
 10
129.727
 20
-22.6619
 30
0.000000
  70
    32
  0
VERTEX
  8
241
  5
52E1
 10
129.796
 20
-22.6474
 30
0.000000
  70
    32
  0
VERTEX
  8
241
  5
52E2
 10
129.863
 20
-22.6321
 30
0.000000
  70
    32
  0
VERTEX
  8
241
  5
52E3
 10
129.930
 20
-22.6159
 30
0.000000
  70
    32
  0
VERTEX
  8
241
  5
52E4
 10
129.996
 20
-22.5990
 30
0.000000
  70
    32
  0
VERTEX
  8
241
  5
52E5
 10
130.061
 20
-22.5812
 30
0.000000
  70
    32
  0
VERTEX
  8
241
  5
52E6
 10
130.126
 20
-22.5627
 30
0.000000
  70
    32
  0
VERTEX
  8
241
  5
52E7
 10
130.189
 20
-22.5434
 30
0.000000
  70
    32
  0
VERTEX
  8
241
  5
52E8
 10
130.252
 20
-22.5233
 30
0.000000
  70
    32
  0
VERTEX
  8
241
  5
52E9
 10
130.313
 20
-22.5025
 30
0.000000
  70
    32
  0
VERTEX
  8
241
  5
52EA
 10
130.373
 20
-22.4809
 30
0.000000
  70
    32
  0
VERTEX
  8
241
  5
52EB
 10
130.433
 20
-22.4586
 30
0.000000
  70
    32
  0
VERTEX
  8
241
  5
52EC
 10
130.491
 20
-22.4356
 30
0.000000
  70
    32
  0
VERTEX
  8
241
  5
52ED
 10
130.548
 20
-22.4119
 30
0.000000
  70
    32
  0
VERTEX
  8
241
  5
52EE
 10
130.604
 20
-22.3875
 30
0.000000
  70
    32
  0
VERTEX
  8
241
  5
52EF
 10
130.658
 20
-22.3625
 30
0.000000
  70
    32
  0
VERTEX
  8
241
  5
52F0
 10
130.711
 20
-22.3367
 30
0.000000
  70
    32
  0
VERTEX
  8
241
  5
52F1
 10
130.763
 20
-22.3104
 30
0.000000
  70
    32
  0
VERTEX
  8
241
  5
52F2
 10
130.814
 20
-22.2834
 30
0.000000
  70
    32
  0
VERTEX
  8
241
  5
52F3
 10
130.863
 20
-22.2558
 30
0.000000
  70
    32
  0
VERTEX
  8
241
  5
52F4
 10
130.911
 20
-22.2277
 30
0.000000
  70
    32
  0
VERTEX
  8
241
  5
52F5
 10
130.958
 20
-22.1989
 30
0.000000
  70
    32
  0
VERTEX
  8
241
  5
52F6
 10
131.003
 20
-22.1696
 30
0.000000
  70
    32
  0
VERTEX
  8
241
  5
52F7
 10
131.047
 20
-22.1398
 30
0.000000
  70
    32
  0
VERTEX
  8
241
  5
52F8
 10
131.089
 20
-22.1094
 30
0.000000
  70
    32
  0
VERTEX
  8
241
  5
52F9
 10
131.129
 20
-22.0786
 30
0.000000
  70
    32
  0
VERTEX
  8
241
  5
52FA
 10
131.168
 20
-22.0472
 30
0.000000
  70
    32
  0
VERTEX
  8
241
  5
52FB
 10
131.206
 20
-22.0154
 30
0.000000
  70
    32
  0
VERTEX
  8
241
  5
52FC
 10
131.242
 20
-21.9832
 30
0.000000
  70
    32
  0
VERTEX
  8
241
  5
52FD
 10
131.276
 20
-21.9505
 30
0.000000
  70
    32
  0
VERTEX
  8
241
  5
52FE
 10
131.309
 20
-21.9174
 30
0.000000
  70
    32
  0
VERTEX
  8
241
  5
52FF
 10
131.340
 20
-21.8839
 30
0.000000
  70
    32
  0
VERTEX
  8
241
  5
5300
 10
131.369
 20
-21.8501
 30
0.000000
  70
    32
  0
VERTEX
  8
241
  5
5301
 10
131.397
 20
-21.8159
 30
0.000000
  70
    32
  0
VERTEX
  8
241
  5
5302
 10
131.423
 20
-21.7814
 30
0.000000
  70
    32
  0
VERTEX
  8
241
  5
5303
 10
131.447
 20
-21.7466
 30
0.000000
  70
    32
  0
VERTEX
  8
241
  5
5304
 10
131.469
 20
-21.7115
 30
0.000000
  70
    32
  0
VERTEX
  8
241
  5
5305
 10
131.490
 20
-21.6762
 30
0.000000
  70
    32
  0
VERTEX
  8
241
  5
5306
 10
131.509
 20
-21.6406
 30
0.000000
  70
    32
  0
VERTEX
  8
241
  5
5307
 10
131.526
 20
-21.6047
 30
0.000000
  70
    32
  0
VERTEX
  8
241
  5
5308
 10
131.542
 20
-21.5687
 30
0.000000
  70
    32
  0
VERTEX
  8
241
  5
5309
 10
131.555
 20
-21.5325
 30
0.000000
  70
    32
  0
VERTEX
  8
241
  5
530A
 10
131.567
 20
-21.4962
 30
0.000000
  70
    32
  0
VERTEX
  8
241
  5
530B
 10
131.577
 20
-21.4597
 30
0.000000
  70
    32
  0
VERTEX
  8
241
  5
530C
 10
131.585
 20
-21.4231
 30
0.000000
  70
    32
  0
VERTEX
  8
241
  5
530D
 10
131.592
 20
-21.3864
 30
0.000000
  70
    32
  0
VERTEX
  8
241
  5
530E
 10
131.596
 20
-21.3497
 30
0.000000
  70
    32
  0
VERTEX
  8
241
  5
530F
 10
131.599
 20
-21.3129
 30
0.000000
  70
    32
  0
VERTEX
  8
241
  5
5310
 10
131.600
 20
-21.2761
 30
0.000000
  70
    32
  0
VERTEX
  8
241
  5
5311
 10
131.599
 20
-21.2393
 30
0.000000
  70
    32
  0
VERTEX
  8
241
  5
5312
 10
131.596
 20
-21.2025
 30
0.000000
  70
    32
  0
VERTEX
  8
241
  5
5313
 10
131.592
 20
-21.1657
 30
0.000000
  70
    32
  0
VERTEX
  8
241
  5
5314
 10
131.585
 20
-21.1291
 30
0.000000
  70
    32
  0
VERTEX
  8
241
  5
5315
 10
131.577
 20
-21.0925
 30
0.000000
  70
    32
  0
VERTEX
  8
241
  5
5316
 10
131.567
 20
-21.0560
 30
0.000000
  70
    32
  0
VERTEX
  8
241
  5
5317
 10
131.555
 20
-21.0196
 30
0.000000
  70
    32
  0
VERTEX
  8
241
  5
5318
 10
131.542
 20
-20.9835
 30
0.000000
  70
    32
  0
VERTEX
  8
241
  5
5319
 10
131.526
 20
-20.9474
 30
0.000000
  70
    32
  0
VERTEX
  8
241
  5
531A
 10
131.509
 20
-20.9116
 30
0.000000
  70
    32
  0
VERTEX
  8
241
  5
531B
 10
131.490
 20
-20.8760
 30
0.000000
  70
    32
  0
VERTEX
  8
241
  5
531C
 10
131.469
 20
-20.8407
 30
0.000000
  70
    32
  0
VERTEX
  8
241
  5
531D
 10
131.447
 20
-20.8056
 30
0.000000
  70
    32
  0
VERTEX
  8
241
  5
531E
 10
131.423
 20
-20.7708
 30
0.000000
  70
    32
  0
VERTEX
  8
241
  5
531F
 10
131.397
 20
-20.7362
 30
0.000000
  70
    32
  0
VERTEX
  8
241
  5
5320
 10
131.369
 20
-20.7021
 30
0.000000
  70
    32
  0
VERTEX
  8
241
  5
5321
 10
131.340
 20
-20.6682
 30
0.000000
  70
    32
  0
VERTEX
  8
241
  5
5322
 10
131.309
 20
-20.6348
 30
0.000000
  70
    32
  0
VERTEX
  8
241
  5
5323
 10
131.276
 20
-20.6017
 30
0.000000
  70
    32
  0
VERTEX
  8
241
  5
5324
 10
131.242
 20
-20.5690
 30
0.000000
  70
    32
  0
VERTEX
  8
241
  5
5325
 10
131.206
 20
-20.5367
 30
0.000000
  70
    32
  0
VERTEX
  8
241
  5
5326
 10
131.168
 20
-20.5049
 30
0.000000
  70
    32
  0
VERTEX
  8
241
  5
5327
 10
131.129
 20
-20.4736
 30
0.000000
  70
    32
  0
VERTEX
  8
241
  5
5328
 10
131.089
 20
-20.4427
 30
0.000000
  70
    32
  0
VERTEX
  8
241
  5
5329
 10
131.047
 20
-20.4124
 30
0.000000
  70
    32
  0
VERTEX
  8
241
  5
532A
 10
131.003
 20
-20.3825
 30
0.000000
  70
    32
  0
VERTEX
  8
241
  5
532B
 10
130.958
 20
-20.3532
 30
0.000000
  70
    32
  0
VERTEX
  8
241
  5
532C
 10
130.911
 20
-20.3245
 30
0.000000
  70
    32
  0
VERTEX
  8
241
  5
532D
 10
130.863
 20
-20.2963
 30
0.000000
  70
    32
  0
VERTEX
  8
241
  5
532E
 10
130.814
 20
-20.2687
 30
0.000000
  70
    32
  0
VERTEX
  8
241
  5
532F
 10
130.763
 20
-20.2418
 30
0.000000
  70
    32
  0
VERTEX
  8
241
  5
5330
 10
130.711
 20
-20.2154
 30
0.000000
  70
    32
  0
VERTEX
  8
241
  5
5331
 10
130.658
 20
-20.1897
 30
0.000000
  70
    32
  0
VERTEX
  8
241
  5
5332
 10
130.604
 20
-20.1647
 30
0.000000
  70
    32
  0
VERTEX
  8
241
  5
5333
 10
130.548
 20
-20.1403
 30
0.000000
  70
    32
  0
VERTEX
  8
241
  5
5334
 10
130.491
 20
-20.1166
 30
0.000000
  70
    32
  0
VERTEX
  8
241
  5
5335
 10
130.433
 20
-20.0936
 30
0.000000
  70
    32
  0
VERTEX
  8
241
  5
5336
 10
130.373
 20
-20.0713
 30
0.000000
  70
    32
  0
VERTEX
  8
241
  5
5337
 10
130.313
 20
-20.0497
 30
0.000000
  70
    32
  0
VERTEX
  8
241
  5
5338
 10
130.252
 20
-20.0289
 30
0.000000
  70
    32
  0
VERTEX
  8
241
  5
5339
 10
130.189
 20
-20.0088
 30
0.000000
  70
    32
  0
VERTEX
  8
241
  5
533A
 10
130.126
 20
-19.9895
 30
0.000000
  70
    32
  0
VERTEX
  8
241
  5
533B
 10
130.061
 20
-19.9710
 30
0.000000
  70
    32
  0
VERTEX
  8
241
  5
533C
 10
129.996
 20
-19.9532
 30
0.000000
  70
    32
  0
VERTEX
  8
241
  5
533D
 10
129.930
 20
-19.9363
 30
0.000000
  70
    32
  0
VERTEX
  8
241
  5
533E
 10
129.863
 20
-19.9201
 30
0.000000
  70
    32
  0
VERTEX
  8
241
  5
533F
 10
129.796
 20
-19.9048
 30
0.000000
  70
    32
  0
VERTEX
  8
241
  5
5340
 10
129.727
 20
-19.8903
 30
0.000000
  70
    32
  0
VERTEX
  8
241
  5
5341
 10
129.658
 20
-19.8766
 30
0.000000
  70
    32
  0
VERTEX
  8
241
  5
5342
 10
129.588
 20
-19.8638
 30
0.000000
  70
    32
  0
VERTEX
  8
241
  5
5343
 10
129.518
 20
-19.8518
 30
0.000000
  70
    32
  0
VERTEX
  8
241
  5
5344
 10
129.447
 20
-19.8407
 30
0.000000
  70
    32
  0
VERTEX
  8
241
  5
5345
 10
129.375
 20
-19.8304
 30
0.000000
  70
    32
  0
VERTEX
  8
241
  5
5346
 10
129.303
 20
-19.8210
 30
0.000000
  70
    32
  0
VERTEX
  8
241
  5
5347
 10
129.231
 20
-19.8125
 30
0.000000
  70
    32
  0
VERTEX
  8
241
  5
5348
 10
129.158
 20
-19.8049
 30
0.000000
  70
    32
  0
VERTEX
  8
241
  5
5349
 10
129.085
 20
-19.7982
 30
0.000000
  70
    32
  0
VERTEX
  8
241
  5
534A
 10
129.011
 20
-19.7923
 30
0.000000
  70
    32
  0
VERTEX
  8
241
  5
534B
 10
128.937
 20
-19.7874
 30
0.000000
  70
    32
  0
VERTEX
  8
241
  5
534C
 10
128.863
 20
-19.7833
 30
0.000000
  70
    32
  0
VERTEX
  8
241
  5
534D
 10
128.789
 20
-19.7802
 30
0.000000
  70
    32
  0
VERTEX
  8
241
  5
534E
 10
128.715
 20
-19.7779
 30
0.000000
  70
    32
  0
VERTEX
  8
241
  5
534F
 10
128.640
 20
-19.7765
 30
0.000000
  70
    32
  0
VERTEX
  8
241
  5
5350
 10
128.566
 20
-19.7761
 30
0.000000
  70
    32
  0
SEQEND
  8
241
  5
5351
  0
LINE
  5
4C36
  8
241
 10
123.5999999999998
 20
-20.769065234203818
 30
0.0
 11
128.5660254037891
 21
-20.769065234203818
 31
0.0
  0
POLYLINE
  5
4C37
  8
241
 10
121.37023231757316
 20
-20.272576081480238
 30
0.0
 66
     1
 70
     8
  0
VERTEX
  8
241
  5
5352
 10
121.370
 20
-20.2726
 30
0.000000
  70
    32
  0
VERTEX
  8
241
  5
5353
 10
121.383
 20
-20.2799
 30
0.000000
  70
    32
  0
VERTEX
  8
241
  5
5354
 10
121.397
 20
-20.2871
 30
0.000000
  70
    32
  0
VERTEX
  8
241
  5
5355
 10
121.410
 20
-20.2943
 30
0.000000
  70
    32
  0
VERTEX
  8
241
  5
5356
 10
121.424
 20
-20.3014
 30
0.000000
  70
    32
  0
VERTEX
  8
241
  5
5357
 10
121.437
 20
-20.3085
 30
0.000000
  70
    32
  0
VERTEX
  8
241
  5
5358
 10
121.451
 20
-20.3156
 30
0.000000
  70
    32
  0
VERTEX
  8
241
  5
5359
 10
121.465
 20
-20.3226
 30
0.000000
  70
    32
  0
VERTEX
  8
241
  5
535A
 10
121.478
 20
-20.3296
 30
0.000000
  70
    32
  0
VERTEX
  8
241
  5
535B
 10
121.492
 20
-20.3365
 30
0.000000
  70
    32
  0
VERTEX
  8
241
  5
535C
 10
121.506
 20
-20.3434
 30
0.000000
  70
    32
  0
VERTEX
  8
241
  5
535D
 10
121.520
 20
-20.3502
 30
0.000000
  70
    32
  0
VERTEX
  8
241
  5
535E
 10
121.535
 20
-20.3570
 30
0.000000
  70
    32
  0
VERTEX
  8
241
  5
535F
 10
121.549
 20
-20.3637
 30
0.000000
  70
    32
  0
VERTEX
  8
241
  5
5360
 10
121.563
 20
-20.3704
 30
0.000000
  70
    32
  0
VERTEX
  8
241
  5
5361
 10
121.578
 20
-20.3770
 30
0.000000
  70
    32
  0
VERTEX
  8
241
  5
5362
 10
121.592
 20
-20.3836
 30
0.000000
  70
    32
  0
VERTEX
  8
241
  5
5363
 10
121.607
 20
-20.3902
 30
0.000000
  70
    32
  0
VERTEX
  8
241
  5
5364
 10
121.622
 20
-20.3967
 30
0.000000
  70
    32
  0
VERTEX
  8
241
  5
5365
 10
121.636
 20
-20.4031
 30
0.000000
  70
    32
  0
VERTEX
  8
241
  5
5366
 10
121.651
 20
-20.4095
 30
0.000000
  70
    32
  0
VERTEX
  8
241
  5
5367
 10
121.666
 20
-20.4159
 30
0.000000
  70
    32
  0
VERTEX
  8
241
  5
5368
 10
121.681
 20
-20.4222
 30
0.000000
  70
    32
  0
VERTEX
  8
241
  5
5369
 10
121.697
 20
-20.4285
 30
0.000000
  70
    32
  0
VERTEX
  8
241
  5
536A
 10
121.712
 20
-20.4347
 30
0.000000
  70
    32
  0
VERTEX
  8
241
  5
536B
 10
121.727
 20
-20.4408
 30
0.000000
  70
    32
  0
VERTEX
  8
241
  5
536C
 10
121.742
 20
-20.4469
 30
0.000000
  70
    32
  0
VERTEX
  8
241
  5
536D
 10
121.758
 20
-20.4530
 30
0.000000
  70
    32
  0
VERTEX
  8
241
  5
536E
 10
121.773
 20
-20.4590
 30
0.000000
  70
    32
  0
VERTEX
  8
241
  5
536F
 10
121.789
 20
-20.4649
 30
0.000000
  70
    32
  0
VERTEX
  8
241
  5
5370
 10
121.805
 20
-20.4708
 30
0.000000
  70
    32
  0
VERTEX
  8
241
  5
5371
 10
121.820
 20
-20.4767
 30
0.000000
  70
    32
  0
VERTEX
  8
241
  5
5372
 10
121.836
 20
-20.4825
 30
0.000000
  70
    32
  0
VERTEX
  8
241
  5
5373
 10
121.852
 20
-20.4882
 30
0.000000
  70
    32
  0
VERTEX
  8
241
  5
5374
 10
121.868
 20
-20.4939
 30
0.000000
  70
    32
  0
VERTEX
  8
241
  5
5375
 10
121.884
 20
-20.4996
 30
0.000000
  70
    32
  0
VERTEX
  8
241
  5
5376
 10
121.900
 20
-20.5052
 30
0.000000
  70
    32
  0
VERTEX
  8
241
  5
5377
 10
121.917
 20
-20.5107
 30
0.000000
  70
    32
  0
VERTEX
  8
241
  5
5378
 10
121.933
 20
-20.5162
 30
0.000000
  70
    32
  0
VERTEX
  8
241
  5
5379
 10
121.949
 20
-20.5216
 30
0.000000
  70
    32
  0
VERTEX
  8
241
  5
537A
 10
121.966
 20
-20.5270
 30
0.000000
  70
    32
  0
VERTEX
  8
241
  5
537B
 10
121.982
 20
-20.5323
 30
0.000000
  70
    32
  0
VERTEX
  8
241
  5
537C
 10
121.999
 20
-20.5376
 30
0.000000
  70
    32
  0
VERTEX
  8
241
  5
537D
 10
122.016
 20
-20.5428
 30
0.000000
  70
    32
  0
VERTEX
  8
241
  5
537E
 10
122.032
 20
-20.5479
 30
0.000000
  70
    32
  0
VERTEX
  8
241
  5
537F
 10
122.049
 20
-20.5530
 30
0.000000
  70
    32
  0
VERTEX
  8
241
  5
5380
 10
122.066
 20
-20.5581
 30
0.000000
  70
    32
  0
VERTEX
  8
241
  5
5381
 10
122.083
 20
-20.5631
 30
0.000000
  70
    32
  0
VERTEX
  8
241
  5
5382
 10
122.100
 20
-20.5680
 30
0.000000
  70
    32
  0
VERTEX
  8
241
  5
5383
 10
122.117
 20
-20.5729
 30
0.000000
  70
    32
  0
VERTEX
  8
241
  5
5384
 10
122.134
 20
-20.5777
 30
0.000000
  70
    32
  0
VERTEX
  8
241
  5
5385
 10
122.151
 20
-20.5825
 30
0.000000
  70
    32
  0
VERTEX
  8
241
  5
5386
 10
122.168
 20
-20.5872
 30
0.000000
  70
    32
  0
VERTEX
  8
241
  5
5387
 10
122.186
 20
-20.5919
 30
0.000000
  70
    32
  0
VERTEX
  8
241
  5
5388
 10
122.203
 20
-20.5965
 30
0.000000
  70
    32
  0
VERTEX
  8
241
  5
5389
 10
122.220
 20
-20.6010
 30
0.000000
  70
    32
  0
VERTEX
  8
241
  5
538A
 10
122.238
 20
-20.6055
 30
0.000000
  70
    32
  0
VERTEX
  8
241
  5
538B
 10
122.255
 20
-20.6099
 30
0.000000
  70
    32
  0
VERTEX
  8
241
  5
538C
 10
122.273
 20
-20.6143
 30
0.000000
  70
    32
  0
VERTEX
  8
241
  5
538D
 10
122.291
 20
-20.6186
 30
0.000000
  70
    32
  0
VERTEX
  8
241
  5
538E
 10
122.308
 20
-20.6229
 30
0.000000
  70
    32
  0
VERTEX
  8
241
  5
538F
 10
122.326
 20
-20.6271
 30
0.000000
  70
    32
  0
VERTEX
  8
241
  5
5390
 10
122.344
 20
-20.6312
 30
0.000000
  70
    32
  0
VERTEX
  8
241
  5
5391
 10
122.362
 20
-20.6353
 30
0.000000
  70
    32
  0
VERTEX
  8
241
  5
5392
 10
122.380
 20
-20.6393
 30
0.000000
  70
    32
  0
VERTEX
  8
241
  5
5393
 10
122.398
 20
-20.6433
 30
0.000000
  70
    32
  0
VERTEX
  8
241
  5
5394
 10
122.416
 20
-20.6472
 30
0.000000
  70
    32
  0
VERTEX
  8
241
  5
5395
 10
122.434
 20
-20.6511
 30
0.000000
  70
    32
  0
VERTEX
  8
241
  5
5396
 10
122.452
 20
-20.6548
 30
0.000000
  70
    32
  0
VERTEX
  8
241
  5
5397
 10
122.470
 20
-20.6586
 30
0.000000
  70
    32
  0
VERTEX
  8
241
  5
5398
 10
122.488
 20
-20.6622
 30
0.000000
  70
    32
  0
VERTEX
  8
241
  5
5399
 10
122.506
 20
-20.6658
 30
0.000000
  70
    32
  0
VERTEX
  8
241
  5
539A
 10
122.525
 20
-20.6694
 30
0.000000
  70
    32
  0
VERTEX
  8
241
  5
539B
 10
122.543
 20
-20.6729
 30
0.000000
  70
    32
  0
VERTEX
  8
241
  5
539C
 10
122.561
 20
-20.6763
 30
0.000000
  70
    32
  0
VERTEX
  8
241
  5
539D
 10
122.580
 20
-20.6797
 30
0.000000
  70
    32
  0
VERTEX
  8
241
  5
539E
 10
122.598
 20
-20.6830
 30
0.000000
  70
    32
  0
VERTEX
  8
241
  5
539F
 10
122.617
 20
-20.6862
 30
0.000000
  70
    32
  0
VERTEX
  8
241
  5
53A0
 10
122.635
 20
-20.6894
 30
0.000000
  70
    32
  0
VERTEX
  8
241
  5
53A1
 10
122.654
 20
-20.6926
 30
0.000000
  70
    32
  0
VERTEX
  8
241
  5
53A2
 10
122.673
 20
-20.6956
 30
0.000000
  70
    32
  0
VERTEX
  8
241
  5
53A3
 10
122.691
 20
-20.6986
 30
0.000000
  70
    32
  0
VERTEX
  8
241
  5
53A4
 10
122.710
 20
-20.7016
 30
0.000000
  70
    32
  0
VERTEX
  8
241
  5
53A5
 10
122.729
 20
-20.7045
 30
0.000000
  70
    32
  0
VERTEX
  8
241
  5
53A6
 10
122.748
 20
-20.7073
 30
0.000000
  70
    32
  0
VERTEX
  8
241
  5
53A7
 10
122.767
 20
-20.7100
 30
0.000000
  70
    32
  0
VERTEX
  8
241
  5
53A8
 10
122.786
 20
-20.7127
 30
0.000000
  70
    32
  0
VERTEX
  8
241
  5
53A9
 10
122.804
 20
-20.7154
 30
0.000000
  70
    32
  0
VERTEX
  8
241
  5
53AA
 10
122.823
 20
-20.7179
 30
0.000000
  70
    32
  0
VERTEX
  8
241
  5
53AB
 10
122.842
 20
-20.7204
 30
0.000000
  70
    32
  0
VERTEX
  8
241
  5
53AC
 10
122.861
 20
-20.7229
 30
0.000000
  70
    32
  0
VERTEX
  8
241
  5
53AD
 10
122.880
 20
-20.7253
 30
0.000000
  70
    32
  0
VERTEX
  8
241
  5
53AE
 10
122.900
 20
-20.7276
 30
0.000000
  70
    32
  0
VERTEX
  8
241
  5
53AF
 10
122.919
 20
-20.7299
 30
0.000000
  70
    32
  0
VERTEX
  8
241
  5
53B0
 10
122.938
 20
-20.7321
 30
0.000000
  70
    32
  0
VERTEX
  8
241
  5
53B1
 10
122.957
 20
-20.7342
 30
0.000000
  70
    32
  0
VERTEX
  8
241
  5
53B2
 10
122.976
 20
-20.7363
 30
0.000000
  70
    32
  0
VERTEX
  8
241
  5
53B3
 10
122.995
 20
-20.7383
 30
0.000000
  70
    32
  0
VERTEX
  8
241
  5
53B4
 10
123.015
 20
-20.7402
 30
0.000000
  70
    32
  0
VERTEX
  8
241
  5
53B5
 10
123.034
 20
-20.7421
 30
0.000000
  70
    32
  0
VERTEX
  8
241
  5
53B6
 10
123.053
 20
-20.7439
 30
0.000000
  70
    32
  0
VERTEX
  8
241
  5
53B7
 10
123.073
 20
-20.7457
 30
0.000000
  70
    32
  0
VERTEX
  8
241
  5
53B8
 10
123.092
 20
-20.7474
 30
0.000000
  70
    32
  0
VERTEX
  8
241
  5
53B9
 10
123.111
 20
-20.7490
 30
0.000000
  70
    32
  0
VERTEX
  8
241
  5
53BA
 10
123.131
 20
-20.7506
 30
0.000000
  70
    32
  0
VERTEX
  8
241
  5
53BB
 10
123.150
 20
-20.7521
 30
0.000000
  70
    32
  0
VERTEX
  8
241
  5
53BC
 10
123.169
 20
-20.7535
 30
0.000000
  70
    32
  0
VERTEX
  8
241
  5
53BD
 10
123.189
 20
-20.7549
 30
0.000000
  70
    32
  0
VERTEX
  8
241
  5
53BE
 10
123.208
 20
-20.7562
 30
0.000000
  70
    32
  0
VERTEX
  8
241
  5
53BF
 10
123.228
 20
-20.7575
 30
0.000000
  70
    32
  0
VERTEX
  8
241
  5
53C0
 10
123.247
 20
-20.7587
 30
0.000000
  70
    32
  0
VERTEX
  8
241
  5
53C1
 10
123.267
 20
-20.7598
 30
0.000000
  70
    32
  0
VERTEX
  8
241
  5
53C2
 10
123.286
 20
-20.7608
 30
0.000000
  70
    32
  0
VERTEX
  8
241
  5
53C3
 10
123.306
 20
-20.7618
 30
0.000000
  70
    32
  0
VERTEX
  8
241
  5
53C4
 10
123.325
 20
-20.7628
 30
0.000000
  70
    32
  0
VERTEX
  8
241
  5
53C5
 10
123.345
 20
-20.7636
 30
0.000000
  70
    32
  0
VERTEX
  8
241
  5
53C6
 10
123.365
 20
-20.7644
 30
0.000000
  70
    32
  0
VERTEX
  8
241
  5
53C7
 10
123.384
 20
-20.7652
 30
0.000000
  70
    32
  0
VERTEX
  8
241
  5
53C8
 10
123.404
 20
-20.7659
 30
0.000000
  70
    32
  0
VERTEX
  8
241
  5
53C9
 10
123.423
 20
-20.7665
 30
0.000000
  70
    32
  0
VERTEX
  8
241
  5
53CA
 10
123.443
 20
-20.7670
 30
0.000000
  70
    32
  0
VERTEX
  8
241
  5
53CB
 10
123.463
 20
-20.7675
 30
0.000000
  70
    32
  0
VERTEX
  8
241
  5
53CC
 10
123.482
 20
-20.7679
 30
0.000000
  70
    32
  0
VERTEX
  8
241
  5
53CD
 10
123.502
 20
-20.7683
 30
0.000000
  70
    32
  0
VERTEX
  8
241
  5
53CE
 10
123.521
 20
-20.7686
 30
0.000000
  70
    32
  0
VERTEX
  8
241
  5
53CF
 10
123.541
 20
-20.7688
 30
0.000000
  70
    32
  0
VERTEX
  8
241
  5
53D0
 10
123.561
 20
-20.7689
 30
0.000000
  70
    32
  0
VERTEX
  8
241
  5
53D1
 10
123.580
 20
-20.7690
 30
0.000000
  70
    32
  0
VERTEX
  8
241
  5
53D2
 10
123.600
 20
-20.7691
 30
0.000000
  70
    32
  0
SEQEND
  8
241
  5
53D3
  0
POLYLINE
  5
4C38
  8
241
 10
128.5660254037891
 20
-20.769065234203818
 30
0.0
 66
     1
 70
     8
  0
VERTEX
  8
241
  5
53D4
 10
128.566
 20
-20.7691
 30
0.000000
  70
    32
  0
VERTEX
  8
241
  5
53D5
 10
128.586
 20
-20.7690
 30
0.000000
  70
    32
  0
VERTEX
  8
241
  5
53D6
 10
128.606
 20
-20.7689
 30
0.000000
  70
    32
  0
VERTEX
  8
241
  5
53D7
 10
128.626
 20
-20.7688
 30
0.000000
  70
    32
  0
VERTEX
  8
241
  5
53D8
 10
128.645
 20
-20.7686
 30
0.000000
  70
    32
  0
VERTEX
  8
241
  5
53D9
 10
128.665
 20
-20.7683
 30
0.000000
  70
    32
  0
VERTEX
  8
241
  5
53DA
 10
128.685
 20
-20.7679
 30
0.000000
  70
    32
  0
VERTEX
  8
241
  5
53DB
 10
128.705
 20
-20.7675
 30
0.000000
  70
    32
  0
VERTEX
  8
241
  5
53DC
 10
128.725
 20
-20.7670
 30
0.000000
  70
    32
  0
VERTEX
  8
241
  5
53DD
 10
128.745
 20
-20.7665
 30
0.000000
  70
    32
  0
VERTEX
  8
241
  5
53DE
 10
128.764
 20
-20.7659
 30
0.000000
  70
    32
  0
VERTEX
  8
241
  5
53DF
 10
128.784
 20
-20.7652
 30
0.000000
  70
    32
  0
VERTEX
  8
241
  5
53E0
 10
128.804
 20
-20.7644
 30
0.000000
  70
    32
  0
VERTEX
  8
241
  5
53E1
 10
128.824
 20
-20.7636
 30
0.000000
  70
    32
  0
VERTEX
  8
241
  5
53E2
 10
128.844
 20
-20.7628
 30
0.000000
  70
    32
  0
VERTEX
  8
241
  5
53E3
 10
128.863
 20
-20.7618
 30
0.000000
  70
    32
  0
VERTEX
  8
241
  5
53E4
 10
128.883
 20
-20.7608
 30
0.000000
  70
    32
  0
VERTEX
  8
241
  5
53E5
 10
128.903
 20
-20.7598
 30
0.000000
  70
    32
  0
VERTEX
  8
241
  5
53E6
 10
128.923
 20
-20.7587
 30
0.000000
  70
    32
  0
VERTEX
  8
241
  5
53E7
 10
128.942
 20
-20.7575
 30
0.000000
  70
    32
  0
VERTEX
  8
241
  5
53E8
 10
128.962
 20
-20.7562
 30
0.000000
  70
    32
  0
VERTEX
  8
241
  5
53E9
 10
128.982
 20
-20.7549
 30
0.000000
  70
    32
  0
VERTEX
  8
241
  5
53EA
 10
129.001
 20
-20.7535
 30
0.000000
  70
    32
  0
VERTEX
  8
241
  5
53EB
 10
129.021
 20
-20.7521
 30
0.000000
  70
    32
  0
VERTEX
  8
241
  5
53EC
 10
129.041
 20
-20.7506
 30
0.000000
  70
    32
  0
VERTEX
  8
241
  5
53ED
 10
129.060
 20
-20.7490
 30
0.000000
  70
    32
  0
VERTEX
  8
241
  5
53EE
 10
129.080
 20
-20.7474
 30
0.000000
  70
    32
  0
VERTEX
  8
241
  5
53EF
 10
129.099
 20
-20.7457
 30
0.000000
  70
    32
  0
VERTEX
  8
241
  5
53F0
 10
129.119
 20
-20.7439
 30
0.000000
  70
    32
  0
VERTEX
  8
241
  5
53F1
 10
129.139
 20
-20.7421
 30
0.000000
  70
    32
  0
VERTEX
  8
241
  5
53F2
 10
129.158
 20
-20.7402
 30
0.000000
  70
    32
  0
VERTEX
  8
241
  5
53F3
 10
129.178
 20
-20.7383
 30
0.000000
  70
    32
  0
VERTEX
  8
241
  5
53F4
 10
129.197
 20
-20.7363
 30
0.000000
  70
    32
  0
VERTEX
  8
241
  5
53F5
 10
129.216
 20
-20.7342
 30
0.000000
  70
    32
  0
VERTEX
  8
241
  5
53F6
 10
129.236
 20
-20.7321
 30
0.000000
  70
    32
  0
VERTEX
  8
241
  5
53F7
 10
129.255
 20
-20.7299
 30
0.000000
  70
    32
  0
VERTEX
  8
241
  5
53F8
 10
129.274
 20
-20.7276
 30
0.000000
  70
    32
  0
VERTEX
  8
241
  5
53F9
 10
129.294
 20
-20.7253
 30
0.000000
  70
    32
  0
VERTEX
  8
241
  5
53FA
 10
129.313
 20
-20.7229
 30
0.000000
  70
    32
  0
VERTEX
  8
241
  5
53FB
 10
129.332
 20
-20.7204
 30
0.000000
  70
    32
  0
VERTEX
  8
241
  5
53FC
 10
129.351
 20
-20.7179
 30
0.000000
  70
    32
  0
VERTEX
  8
241
  5
53FD
 10
129.371
 20
-20.7154
 30
0.000000
  70
    32
  0
VERTEX
  8
241
  5
53FE
 10
129.390
 20
-20.7127
 30
0.000000
  70
    32
  0
VERTEX
  8
241
  5
53FF
 10
129.409
 20
-20.7100
 30
0.000000
  70
    32
  0
VERTEX
  8
241
  5
5400
 10
129.428
 20
-20.7073
 30
0.000000
  70
    32
  0
VERTEX
  8
241
  5
5401
 10
129.447
 20
-20.7045
 30
0.000000
  70
    32
  0
VERTEX
  8
241
  5
5402
 10
129.466
 20
-20.7016
 30
0.000000
  70
    32
  0
VERTEX
  8
241
  5
5403
 10
129.485
 20
-20.6986
 30
0.000000
  70
    32
  0
VERTEX
  8
241
  5
5404
 10
129.504
 20
-20.6956
 30
0.000000
  70
    32
  0
VERTEX
  8
241
  5
5405
 10
129.523
 20
-20.6926
 30
0.000000
  70
    32
  0
VERTEX
  8
241
  5
5406
 10
129.541
 20
-20.6894
 30
0.000000
  70
    32
  0
VERTEX
  8
241
  5
5407
 10
129.560
 20
-20.6862
 30
0.000000
  70
    32
  0
VERTEX
  8
241
  5
5408
 10
129.579
 20
-20.6830
 30
0.000000
  70
    32
  0
VERTEX
  8
241
  5
5409
 10
129.598
 20
-20.6797
 30
0.000000
  70
    32
  0
VERTEX
  8
241
  5
540A
 10
129.616
 20
-20.6763
 30
0.000000
  70
    32
  0
VERTEX
  8
241
  5
540B
 10
129.635
 20
-20.6729
 30
0.000000
  70
    32
  0
VERTEX
  8
241
  5
540C
 10
129.654
 20
-20.6694
 30
0.000000
  70
    32
  0
VERTEX
  8
241
  5
540D
 10
129.672
 20
-20.6658
 30
0.000000
  70
    32
  0
VERTEX
  8
241
  5
540E
 10
129.690
 20
-20.6622
 30
0.000000
  70
    32
  0
VERTEX
  8
241
  5
540F
 10
129.709
 20
-20.6586
 30
0.000000
  70
    32
  0
VERTEX
  8
241
  5
5410
 10
129.727
 20
-20.6548
 30
0.000000
  70
    32
  0
VERTEX
  8
241
  5
5411
 10
129.746
 20
-20.6511
 30
0.000000
  70
    32
  0
VERTEX
  8
241
  5
5412
 10
129.764
 20
-20.6472
 30
0.000000
  70
    32
  0
VERTEX
  8
241
  5
5413
 10
129.782
 20
-20.6433
 30
0.000000
  70
    32
  0
VERTEX
  8
241
  5
5414
 10
129.800
 20
-20.6393
 30
0.000000
  70
    32
  0
VERTEX
  8
241
  5
5415
 10
129.818
 20
-20.6353
 30
0.000000
  70
    32
  0
VERTEX
  8
241
  5
5416
 10
129.836
 20
-20.6312
 30
0.000000
  70
    32
  0
VERTEX
  8
241
  5
5417
 10
129.854
 20
-20.6271
 30
0.000000
  70
    32
  0
VERTEX
  8
241
  5
5418
 10
129.872
 20
-20.6229
 30
0.000000
  70
    32
  0
VERTEX
  8
241
  5
5419
 10
129.890
 20
-20.6186
 30
0.000000
  70
    32
  0
VERTEX
  8
241
  5
541A
 10
129.908
 20
-20.6143
 30
0.000000
  70
    32
  0
VERTEX
  8
241
  5
541B
 10
129.926
 20
-20.6099
 30
0.000000
  70
    32
  0
VERTEX
  8
241
  5
541C
 10
129.944
 20
-20.6055
 30
0.000000
  70
    32
  0
VERTEX
  8
241
  5
541D
 10
129.961
 20
-20.6010
 30
0.000000
  70
    32
  0
VERTEX
  8
241
  5
541E
 10
129.979
 20
-20.5965
 30
0.000000
  70
    32
  0
VERTEX
  8
241
  5
541F
 10
129.996
 20
-20.5919
 30
0.000000
  70
    32
  0
VERTEX
  8
241
  5
5420
 10
130.014
 20
-20.5872
 30
0.000000
  70
    32
  0
VERTEX
  8
241
  5
5421
 10
130.031
 20
-20.5825
 30
0.000000
  70
    32
  0
VERTEX
  8
241
  5
5422
 10
130.049
 20
-20.5777
 30
0.000000
  70
    32
  0
VERTEX
  8
241
  5
5423
 10
130.066
 20
-20.5729
 30
0.000000
  70
    32
  0
VERTEX
  8
241
  5
5424
 10
130.083
 20
-20.5680
 30
0.000000
  70
    32
  0
VERTEX
  8
241
  5
5425
 10
130.100
 20
-20.5631
 30
0.000000
  70
    32
  0
VERTEX
  8
241
  5
5426
 10
130.118
 20
-20.5581
 30
0.000000
  70
    32
  0
VERTEX
  8
241
  5
5427
 10
130.135
 20
-20.5530
 30
0.000000
  70
    32
  0
VERTEX
  8
241
  5
5428
 10
130.152
 20
-20.5479
 30
0.000000
  70
    32
  0
VERTEX
  8
241
  5
5429
 10
130.168
 20
-20.5428
 30
0.000000
  70
    32
  0
VERTEX
  8
241
  5
542A
 10
130.185
 20
-20.5376
 30
0.000000
  70
    32
  0
VERTEX
  8
241
  5
542B
 10
130.202
 20
-20.5323
 30
0.000000
  70
    32
  0
VERTEX
  8
241
  5
542C
 10
130.219
 20
-20.5270
 30
0.000000
  70
    32
  0
VERTEX
  8
241
  5
542D
 10
130.235
 20
-20.5216
 30
0.000000
  70
    32
  0
VERTEX
  8
241
  5
542E
 10
130.252
 20
-20.5162
 30
0.000000
  70
    32
  0
VERTEX
  8
241
  5
542F
 10
130.268
 20
-20.5107
 30
0.000000
  70
    32
  0
VERTEX
  8
241
  5
5430
 10
130.285
 20
-20.5052
 30
0.000000
  70
    32
  0
VERTEX
  8
241
  5
5431
 10
130.301
 20
-20.4996
 30
0.000000
  70
    32
  0
VERTEX
  8
241
  5
5432
 10
130.317
 20
-20.4939
 30
0.000000
  70
    32
  0
VERTEX
  8
241
  5
5433
 10
130.334
 20
-20.4882
 30
0.000000
  70
    32
  0
VERTEX
  8
241
  5
5434
 10
130.350
 20
-20.4825
 30
0.000000
  70
    32
  0
VERTEX
  8
241
  5
5435
 10
130.366
 20
-20.4767
 30
0.000000
  70
    32
  0
VERTEX
  8
241
  5
5436
 10
130.382
 20
-20.4708
 30
0.000000
  70
    32
  0
VERTEX
  8
241
  5
5437
 10
130.398
 20
-20.4649
 30
0.000000
  70
    32
  0
VERTEX
  8
241
  5
5438
 10
130.413
 20
-20.4590
 30
0.000000
  70
    32
  0
VERTEX
  8
241
  5
5439
 10
130.429
 20
-20.4530
 30
0.000000
  70
    32
  0
VERTEX
  8
241
  5
543A
 10
130.445
 20
-20.4469
 30
0.000000
  70
    32
  0
VERTEX
  8
241
  5
543B
 10
130.460
 20
-20.4408
 30
0.000000
  70
    32
  0
VERTEX
  8
241
  5
543C
 10
130.476
 20
-20.4347
 30
0.000000
  70
    32
  0
VERTEX
  8
241
  5
543D
 10
130.491
 20
-20.4285
 30
0.000000
  70
    32
  0
VERTEX
  8
241
  5
543E
 10
130.506
 20
-20.4222
 30
0.000000
  70
    32
  0
VERTEX
  8
241
  5
543F
 10
130.522
 20
-20.4159
 30
0.000000
  70
    32
  0
VERTEX
  8
241
  5
5440
 10
130.537
 20
-20.4095
 30
0.000000
  70
    32
  0
VERTEX
  8
241
  5
5441
 10
130.552
 20
-20.4031
 30
0.000000
  70
    32
  0
VERTEX
  8
241
  5
5442
 10
130.567
 20
-20.3967
 30
0.000000
  70
    32
  0
VERTEX
  8
241
  5
5443
 10
130.582
 20
-20.3902
 30
0.000000
  70
    32
  0
VERTEX
  8
241
  5
5444
 10
130.596
 20
-20.3836
 30
0.000000
  70
    32
  0
VERTEX
  8
241
  5
5445
 10
130.611
 20
-20.3770
 30
0.000000
  70
    32
  0
VERTEX
  8
241
  5
5446
 10
130.626
 20
-20.3704
 30
0.000000
  70
    32
  0
VERTEX
  8
241
  5
5447
 10
130.640
 20
-20.3637
 30
0.000000
  70
    32
  0
VERTEX
  8
241
  5
5448
 10
130.655
 20
-20.3570
 30
0.000000
  70
    32
  0
VERTEX
  8
241
  5
5449
 10
130.669
 20
-20.3502
 30
0.000000
  70
    32
  0
VERTEX
  8
241
  5
544A
 10
130.683
 20
-20.3434
 30
0.000000
  70
    32
  0
VERTEX
  8
241
  5
544B
 10
130.698
 20
-20.3365
 30
0.000000
  70
    32
  0
VERTEX
  8
241
  5
544C
 10
130.712
 20
-20.3296
 30
0.000000
  70
    32
  0
VERTEX
  8
241
  5
544D
 10
130.726
 20
-20.3226
 30
0.000000
  70
    32
  0
VERTEX
  8
241
  5
544E
 10
130.740
 20
-20.3156
 30
0.000000
  70
    32
  0
VERTEX
  8
241
  5
544F
 10
130.753
 20
-20.3085
 30
0.000000
  70
    32
  0
VERTEX
  8
241
  5
5450
 10
130.767
 20
-20.3014
 30
0.000000
  70
    32
  0
VERTEX
  8
241
  5
5451
 10
130.781
 20
-20.2943
 30
0.000000
  70
    32
  0
VERTEX
  8
241
  5
5452
 10
130.794
 20
-20.2871
 30
0.000000
  70
    32
  0
VERTEX
  8
241
  5
5453
 10
130.808
 20
-20.2799
 30
0.000000
  70
    32
  0
VERTEX
  8
241
  5
5454
 10
130.821
 20
-20.2726
 30
0.000000
  70
    32
  0
SEQEND
  8
241
  5
5455
  0
LINE
  5
4C39
  8
240
 10
101.500000000002
 20
25.349999999998658
 30
0.0
 11
104.9999999999982
 21
25.350000000000112
 31
0.0
  0
LINE
  5
4C3A
  8
240
  6
CONTINUOUS
 10
101.0000000000021
 20
24.849999999998708
 30
0.0
 11
101.0000000000018
 21
21.40000000000197
 31
0.0
1001
GRPNAME
1000
PASTMD0F
  0
LINE
  5
4C3B
  8
241
 10
101.0000000000018
 20
21.40000000000197
 30
0.0
 11
100.9999999999974
 21
-21.40000000000208
 31
0.0
1001
GRPNAME
1000
PASTMD0F
  0
ARC
  5
4C3C
  8
240
 10
101.5000000000021
 20
24.849999999998658
 30
0.0
 40
0.5
 50
90.000000000024414
 51
179.99999999999349
1001
GRPNAME
1000
PASTMD0F
1001
ASK_MEN_XD
1005
4BEA
1070
     1
1005
4BEB
1070
     1
  0
LINE
  5
4C3D
  8
240
 10
138.47829568782711
 20
23.88774326460922
 30
0.0
 11
131.56602540378901
 21
24.24999999999935
 31
0.0
  0
LINE
  5
4C3E
  8
240
  6
CONTINUOUS
 10
120.64999999999939
 20
24.049999999999759
 30
0.0
 11
121.9999999999994
 21
24.049999999999759
 31
0.0
  0
LINE
  5
4C3F
  8
240
  6
CONTINUOUS
 10
107.0000000000002
 20
24.999999999999659
 30
0.0
 11
119.69999999999941
 21
24.999999999999751
 31
0.0
  0
LINE
  5
4C40
  8
241
 10
105.5500000000003
 20
24.799999999999731
 30
0.0
 11
105.5500000000003
 21
21.589685565644089
 31
0.0
  0
LINE
  5
4C41
  8
241
 10
106.8000000000003
 20
24.799999999999759
 30
0.0
 11
106.8000000000003
 21
21.5514812645063
 31
0.0
  0
LINE
  5
4C42
  8
240
  6
CONTINUOUS
 10
107.0000000000003
 20
24.999999999999751
 30
0.0
 11
106.8000000000003
 21
24.799999999999759
 31
0.0
  0
LINE
  5
4C43
  8
240
  6
CONTINUOUS
 10
104.9999999999982
 20
25.35000000000079
 30
0.0
 11
105.5500000000003
 21
24.799999999999759
 31
0.0
  0
LINE
  5
4C44
  8
240
  6
CONTINUOUS
 10
105.5500000000003
 20
24.799999999999759
 30
0.0
 11
106.8000000000003
 21
24.799999999999759
 31
0.0
  0
LINE
  5
4C45
  8
241
 10
120.64999999999939
 20
24.049999999999759
 30
0.0
 11
120.64999999999939
 21
21.54880473162132
 31
0.0
  0
LINE
  5
4C46
  8
241
 10
120.64999999999939
 20
21.00336912589162
 30
0.0
 11
120.64999999999939
 21
0.545435605729665
 31
0.0
  0
LINE
  5
4C47
  8
240
  6
CONTINUOUS
 10
120.64999999999939
 20
24.049999999999759
 30
0.0
 11
119.69999999999941
 21
24.999999999999751
 31
0.0
  0
LINE
  5
4C48
  8
240
  6
CONTINUOUS
 10
122.69999999999941
 20
24.749999999999751
 30
0.0
 11
129.69999999999959
 21
24.749999999999631
 31
0.0
  0
LINE
  5
4C49
  8
241
 10
121.9999999999994
 20
24.04999999999978
 30
0.0
 11
121.9999999999994
 21
22.54494468280129
 31
0.0
  0
LINE
  5
4C4A
  8
241
 10
121.9999999999994
 20
20.00722917471165
 30
0.0
 11
121.9999999999994
 21
2.537715508089661
 31
0.0
  0
LINE
  5
4C4B
  8
241
 10
122.69999999999931
 20
24.749999999999751
 30
0.0
 11
122.69999999999931
 21
22.7069957308818
 31
0.0
  0
LINE
  5
4C4C
  8
241
 10
122.69999999999931
 20
19.845178126631112
 30
0.0
 11
122.69999999999941
 21
2.8618176042507169
 31
0.0
  0
LINE
  5
4C4D
  8
240
  6
CONTINUOUS
 10
121.9999999999994
 20
24.049999999999759
 30
0.0
 11
122.69999999999931
 21
24.749999999999751
 31
0.0
  0
LINE
  5
4C4E
  8
241
 10
129.69999999999959
 20
24.749999999999659
 30
0.0
 11
129.69999999999959
 21
22.66737585224681
 31
0.0
  0
LINE
  5
4C4F
  8
241
 10
129.69999999999959
 20
19.884798005266099
 30
0.0
 11
129.69999999999919
 21
2.7774271574876361
 31
0.0
  0
LINE
  5
4C50
  8
240
  6
CONTINUOUS
 10
131.56602540378901
 20
24.24999999999935
 30
0.0
 11
129.69999999999959
 21
24.749999999999631
 31
0.0
  0
LINE
  5
4C51
  8
241
 10
131.56602540378881
 20
24.2499999999994
 30
0.0
 11
131.56602540378881
 21
21.499937501344849
 31
0.0
  0
LINE
  5
4C52
  8
242
  6
CONTINUOUS
 10
127.5684877971849
 20
24.749999999999691
 30
0.0
 11
129.63941303496719
 21
22.679074671694512
 31
0.0
1001
GRPNAME
1000
0000000F
  0
LINE
  5
4C53
  8
242
  6
CONTINUOUS
 10
126.4371169720134
 20
24.749999999999691
 30
0.0
 11
128.41102995697409
 21
22.776086928756492
 31
0.0
1001
GRPNAME
1000
0000000F
  0
LINE
  5
4C54
  8
242
  6
CONTINUOUS
 10
125.3057461468419
 20
24.749999999999719
 30
0.0
 11
127.2796591318026
 21
22.776086928756492
 31
0.0
1001
GRPNAME
1000
0000000F
  0
LINE
  5
4C55
  8
242
  6
CONTINUOUS
 10
124.1743753216702
 20
24.749999999999751
 30
0.0
 11
126.1482883066309
 21
22.776086928756492
 31
0.0
1001
GRPNAME
1000
0000000F
  0
LINE
  5
4C56
  8
242
  6
CONTINUOUS
 10
129.12281284073171
 20
19.801562264635209
 30
0.0
 11
129.69999999999959
 21
19.224375080137602
 31
0.0
1001
GRPNAME
1000
0000000F
  0
LINE
  5
4C57
  8
242
  6
CONTINUOUS
 10
123.0430044964987
 20
24.749999999999751
 30
0.0
 11
125.0169174814594
 21
22.776086928756492
 31
0.0
1001
GRPNAME
1000
0000000F
  0
LINE
  5
4C58
  8
242
  6
CONTINUOUS
 10
128.0169173503252
 20
19.776086928756481
 30
0.0
 11
129.69999999999959
 21
18.093004205512191
 31
0.0
1001
GRPNAME
1000
0000000F
  0
LINE
  5
4C59
  8
242
  6
CONTINUOUS
 10
122.69999999999941
 20
23.961633636866821
 30
0.0
 11
123.8855466562879
 21
22.776086928756492
 31
0.0
1001
GRPNAME
1000
0000000F
  0
LINE
  5
4C5A
  8
242
  6
CONTINUOUS
 10
126.8855465251538
 20
19.776086928756449
 30
0.0
 11
129.69999999999959
 21
16.96163333088694
 31
0.0
1001
GRPNAME
1000
0000000F
  0
LINE
  5
4C5B
  8
241
 10
122.69999999999941
 20
22.8302627622414
 30
0.0
 11
122.8074650467174
 21
22.722797710826061
 31
0.0
1001
GRPNAME
1000
0000000F
  0
LINE
  5
4C5C
  8
242
  6
CONTINUOUS
 10
125.7541756999821
 20
19.776086928756449
 30
0.0
 11
129.69999999999951
 21
15.830262456261631
 31
0.0
1001
GRPNAME
1000
0000000F
  0
LINE
  5
4C5D
  8
242
  6
CONTINUOUS
 10
124.6228048748105
 20
19.776086928756449
 30
0.0
 11
129.69999999999951
 21
14.698891581636129
 31
0.0
1001
GRPNAME
1000
0000000F
  0
LINE
  5
4C5E
  8
242
  6
CONTINUOUS
 10
123.49043331091021
 20
19.777087667528999
 30
0.0
 11
128.7963471632892
 21
14.47117358322183
 31
0.0
1001
GRPNAME
1000
0000000F
  0
LINE
  5
4C5F
  8
242
  6
CONTINUOUS
 10
122.69999999999941
 20
22.72437523312718
 30
0.0
 11
124.7256246783292
 21
24.749999999999751
 31
0.0
1001
GRPNAME
1000
0000000H
  0
LINE
  5
4C60
  8
242
  6
CONTINUOUS
 10
123.88308251853989
 20
22.776086928756492
 30
0.0
 11
125.8569955035007
 21
24.749999999999719
 31
0.0
1001
GRPNAME
1000
0000000H
  0
LINE
  5
4C61
  8
242
  6
CONTINUOUS
 10
125.01445334371159
 20
22.776086928756492
 30
0.0
 11
126.9883663286723
 21
24.749999999999691
 31
0.0
1001
GRPNAME
1000
0000000H
  0
LINE
  5
4C62
  8
242
  6
CONTINUOUS
 10
122.69999999999941
 20
19.33026260925098
 30
0.0
 11
123.16190446472341
 21
19.792167094165421
 31
0.0
1001
GRPNAME
1000
0000000H
  0
LINE
  5
4C63
  8
242
  6
CONTINUOUS
 10
126.14582416888319
 20
22.776086928756492
 30
0.0
 11
128.11973715384389
 21
24.749999999999691
 31
0.0
1001
GRPNAME
1000
0000000H
  0
LINE
  5
4C64
  8
242
  6
CONTINUOUS
 10
122.69999999999941
 20
18.198891734625619
 30
0.0
 11
124.2771951251889
 21
19.776086928756481
 31
0.0
1001
GRPNAME
1000
0000000H
  0
LINE
  5
4C65
  8
242
  6
CONTINUOUS
 10
127.2771949940547
 20
22.776086928756492
 30
0.0
 11
129.25110797901539
 21
24.749999999999631
 31
0.0
1001
GRPNAME
1000
0000000H
  0
LINE
  5
4C66
  8
242
  6
CONTINUOUS
 10
122.69999999999941
 20
17.067520860000261
 30
0.0
 11
125.4085659503605
 21
19.776086928756481
 31
0.0
1001
GRPNAME
1000
0000000H
  0
LINE
  5
4C67
  8
242
  6
CONTINUOUS
 10
128.40856581922631
 20
22.776086928756492
 30
0.0
 11
129.69999999999959
 21
24.067521165980111
 31
0.0
1001
GRPNAME
1000
0000000H
  0
LINE
  5
4C68
  8
242
  6
CONTINUOUS
 10
122.69999999999941
 20
15.93614998537481
 30
0.0
 11
126.5399367755321
 21
19.776086928756481
 31
0.0
1001
GRPNAME
1000
0000000H
  0
LINE
  5
4C69
  8
242
  6
CONTINUOUS
 10
129.47156659551399
 20
22.70771687688401
 30
0.0
 11
129.6999999999997
 21
22.936150291354782
 31
0.0
1001
GRPNAME
1000
0000000H
  0
LINE
  5
4C6A
  8
242
  6
CONTINUOUS
 10
122.69999999999941
 20
14.80477911074982
 30
0.0
 11
127.6713076007036
 21
19.776086928756481
 31
0.0
1001
GRPNAME
1000
0000000H
  0
LINE
  5
4C6B
  8
242
  6
CONTINUOUS
 10
123.4977653122254
 20
14.47117358322183
 30
0.0
 11
128.80743432949581
 21
19.780842832584909
 31
0.0
1001
GRPNAME
1000
0000000H
  0
LINE
  5
4C6C
  8
242
  6
CONTINUOUS
 10
124.629136137397
 20
14.47117358322185
 30
0.0
 11
129.69999999999959
 21
19.542037667478748
 31
0.0
1001
GRPNAME
1000
0000000H
  0
LINE
  5
4C6D
  8
242
  6
CONTINUOUS
 10
125.7605069625684
 20
14.47117358322183
 30
0.0
 11
129.69999999999959
 21
18.410666792853501
 31
0.0
1001
GRPNAME
1000
0000000H
  0
LINE
  5
4C6E
  8
242
  6
CONTINUOUS
 10
126.8918777877401
 20
14.47117358322183
 30
0.0
 11
129.69999999999959
 21
17.279295918228261
 31
0.0
1001
GRPNAME
1000
0000000H
  0
LINE
  5
4C6F
  8
242
  6
CONTINUOUS
 10
122.69999999999941
 20
19.436150138365601
 30
0.0
 11
127.6649763381178
 21
14.47117358322185
 31
0.0
1001
GRPNAME
1000
0000000F
  0
LINE
  5
4C70
  8
242
  6
CONTINUOUS
 10
122.69999999999941
 20
18.304779263740532
 30
0.0
 11
126.53360551294639
 21
14.47117358322183
 31
0.0
1001
GRPNAME
1000
0000000F
  0
LINE
  5
4C71
  8
242
  6
CONTINUOUS
 10
122.69999999999941
 20
17.173408389115512
 30
0.0
 11
125.40223468777501
 21
14.47117358322185
 31
0.0
1001
GRPNAME
1000
0000000F
  0
LINE
  5
4C72
  8
242
  6
CONTINUOUS
 10
122.69999999999941
 20
16.042037514490481
 30
0.0
 11
124.27086386260351
 21
14.47117358322183
 31
0.0
1001
GRPNAME
1000
0000000F
  0
LINE
  5
4C73
  8
242
  6
CONTINUOUS
 10
128.0232486129116
 20
14.47117358322183
 30
0.0
 11
129.69999999999951
 21
16.147925043602839
 31
0.0
1001
GRPNAME
1000
0000000H
  0
LINE
  5
4C74
  8
240
 10
144.9999999999996
 20
19.922649730810321
 30
0.0
 11
144.9999999999996
 21
-19.922649730810349
 31
0.0
  0
LINE
  5
4C75
  8
240
 10
144.4999999999996
 20
20.788675134594769
 30
0.0
 11
139.82128781909839
 21
23.489930871698821
 31
0.0
  0
ARC
  5
4C76
  8
240
 10
138.32128781909839
 20
20.891854660345501
 30
0.0
 40
3.0
 50
60.000000000000277
 51
87.000000000004164
1001
ASK_MEN_XD
1005
4BED
1070
     1
1005
4C28
1070
     1
  0
ARC
  5
4C77
  8
240
 10
143.9999999999996
 20
19.922649730810321
 30
0.0
 40
1.0
 50
0.0
 51
60.000000000000277
1001
ASK_MEN_XD
1005
0
1070
     1
1005
0
1070
     1
  0
LINE
  5
4C78
  8
241
 10
139.19754490628111
 20
23.761031113121131
 30
0.0
 11
139.19754490628111
 21
0.1005458820945364
 31
0.0
  0
LINE
  5
4C79
  8
242
 10
129.69999999999959
 20
23.74985857863911
 30
0.0
 11
128.6998586223566
 21
24.749999999999659
 31
0.0
  0
LINE
  5
4C7A
  8
242
 10
122.69999999999931
 20
23.85574610775242
 30
0.0
 11
123.5942538531576
 21
24.749999999999751
 31
0.0
  0
LINE
  5
4C7B
  8
241
 10
123.5999999999998
 20
19.776086928756481
 30
0.0
 11
128.5660254037891
 21
19.776086928756481
 31
0.0
  0
LINE
  5
4C7C
  8
241
 10
123.5999999999998
 20
22.776086928756492
 30
0.0
 11
128.5660254037891
 21
22.776086928756492
 31
0.0
  0
POLYLINE
  5
4C7D
  8
241
 10
123.5999999999998
 20
19.776086928756481
 30
0.0
 66
     1
 70
     8
  0
VERTEX
  8
241
  5
5456
 10
123.600
 20
19.7761
 30
0.000000
  70
    32
  0
VERTEX
  8
241
  5
5457
 10
123.526
 20
19.7765
 30
0.000000
  70
    32
  0
VERTEX
  8
241
  5
5458
 10
123.453
 20
19.7779
 30
0.000000
  70
    32
  0
VERTEX
  8
241
  5
5459
 10
123.379
 20
19.7802
 30
0.000000
  70
    32
  0
VERTEX
  8
241
  5
545A
 10
123.306
 20
19.7833
 30
0.000000
  70
    32
  0
VERTEX
  8
241
  5
545B
 10
123.233
 20
19.7874
 30
0.000000
  70
    32
  0
VERTEX
  8
241
  5
545C
 10
123.160
 20
19.7923
 30
0.000000
  70
    32
  0
VERTEX
  8
241
  5
545D
 10
123.087
 20
19.7982
 30
0.000000
  70
    32
  0
VERTEX
  8
241
  5
545E
 10
123.015
 20
19.8049
 30
0.000000
  70
    32
  0
VERTEX
  8
241
  5
545F
 10
122.943
 20
19.8125
 30
0.000000
  70
    32
  0
VERTEX
  8
241
  5
5460
 10
122.871
 20
19.8210
 30
0.000000
  70
    32
  0
VERTEX
  8
241
  5
5461
 10
122.800
 20
19.8304
 30
0.000000
  70
    32
  0
VERTEX
  8
241
  5
5462
 10
122.729
 20
19.8407
 30
0.000000
  70
    32
  0
VERTEX
  8
241
  5
5463
 10
122.659
 20
19.8518
 30
0.000000
  70
    32
  0
VERTEX
  8
241
  5
5464
 10
122.589
 20
19.8638
 30
0.000000
  70
    32
  0
VERTEX
  8
241
  5
5465
 10
122.520
 20
19.8766
 30
0.000000
  70
    32
  0
VERTEX
  8
241
  5
5466
 10
122.452
 20
19.8903
 30
0.000000
  70
    32
  0
VERTEX
  8
241
  5
5467
 10
122.384
 20
19.9048
 30
0.000000
  70
    32
  0
VERTEX
  8
241
  5
5468
 10
122.317
 20
19.9201
 30
0.000000
  70
    32
  0
VERTEX
  8
241
  5
5469
 10
122.251
 20
19.9363
 30
0.000000
  70
    32
  0
VERTEX
  8
241
  5
546A
 10
122.186
 20
19.9532
 30
0.000000
  70
    32
  0
VERTEX
  8
241
  5
546B
 10
122.121
 20
19.9710
 30
0.000000
  70
    32
  0
VERTEX
  8
241
  5
546C
 10
122.058
 20
19.9895
 30
0.000000
  70
    32
  0
VERTEX
  8
241
  5
546D
 10
121.995
 20
20.0088
 30
0.000000
  70
    32
  0
VERTEX
  8
241
  5
546E
 10
121.933
 20
20.0289
 30
0.000000
  70
    32
  0
VERTEX
  8
241
  5
546F
 10
121.873
 20
20.0497
 30
0.000000
  70
    32
  0
VERTEX
  8
241
  5
5470
 10
121.813
 20
20.0713
 30
0.000000
  70
    32
  0
VERTEX
  8
241
  5
5471
 10
121.754
 20
20.0936
 30
0.000000
  70
    32
  0
VERTEX
  8
241
  5
5472
 10
121.697
 20
20.1166
 30
0.000000
  70
    32
  0
VERTEX
  8
241
  5
5473
 10
121.640
 20
20.1403
 30
0.000000
  70
    32
  0
VERTEX
  8
241
  5
5474
 10
121.585
 20
20.1647
 30
0.000000
  70
    32
  0
VERTEX
  8
241
  5
5475
 10
121.531
 20
20.1897
 30
0.000000
  70
    32
  0
VERTEX
  8
241
  5
5476
 10
121.479
 20
20.2154
 30
0.000000
  70
    32
  0
VERTEX
  8
241
  5
5477
 10
121.427
 20
20.2418
 30
0.000000
  70
    32
  0
VERTEX
  8
241
  5
5478
 10
121.377
 20
20.2687
 30
0.000000
  70
    32
  0
VERTEX
  8
241
  5
5479
 10
121.328
 20
20.2963
 30
0.000000
  70
    32
  0
VERTEX
  8
241
  5
547A
 10
121.281
 20
20.3245
 30
0.000000
  70
    32
  0
VERTEX
  8
241
  5
547B
 10
121.235
 20
20.3532
 30
0.000000
  70
    32
  0
VERTEX
  8
241
  5
547C
 10
121.190
 20
20.3825
 30
0.000000
  70
    32
  0
VERTEX
  8
241
  5
547D
 10
121.147
 20
20.4124
 30
0.000000
  70
    32
  0
VERTEX
  8
241
  5
547E
 10
121.106
 20
20.4427
 30
0.000000
  70
    32
  0
VERTEX
  8
241
  5
547F
 10
121.065
 20
20.4736
 30
0.000000
  70
    32
  0
VERTEX
  8
241
  5
5480
 10
121.027
 20
20.5049
 30
0.000000
  70
    32
  0
VERTEX
  8
241
  5
5481
 10
120.990
 20
20.5367
 30
0.000000
  70
    32
  0
VERTEX
  8
241
  5
5482
 10
120.954
 20
20.5690
 30
0.000000
  70
    32
  0
VERTEX
  8
241
  5
5483
 10
120.920
 20
20.6017
 30
0.000000
  70
    32
  0
VERTEX
  8
241
  5
5484
 10
120.888
 20
20.6348
 30
0.000000
  70
    32
  0
VERTEX
  8
241
  5
5485
 10
120.857
 20
20.6682
 30
0.000000
  70
    32
  0
VERTEX
  8
241
  5
5486
 10
120.828
 20
20.7021
 30
0.000000
  70
    32
  0
VERTEX
  8
241
  5
5487
 10
120.801
 20
20.7362
 30
0.000000
  70
    32
  0
VERTEX
  8
241
  5
5488
 10
120.775
 20
20.7708
 30
0.000000
  70
    32
  0
VERTEX
  8
241
  5
5489
 10
120.751
 20
20.8056
 30
0.000000
  70
    32
  0
VERTEX
  8
241
  5
548A
 10
120.729
 20
20.8407
 30
0.000000
  70
    32
  0
VERTEX
  8
241
  5
548B
 10
120.709
 20
20.8760
 30
0.000000
  70
    32
  0
VERTEX
  8
241
  5
548C
 10
120.690
 20
20.9116
 30
0.000000
  70
    32
  0
VERTEX
  8
241
  5
548D
 10
120.673
 20
20.9474
 30
0.000000
  70
    32
  0
VERTEX
  8
241
  5
548E
 10
120.658
 20
20.9835
 30
0.000000
  70
    32
  0
VERTEX
  8
241
  5
548F
 10
120.644
 20
21.0196
 30
0.000000
  70
    32
  0
VERTEX
  8
241
  5
5490
 10
120.632
 20
21.0560
 30
0.000000
  70
    32
  0
VERTEX
  8
241
  5
5491
 10
120.623
 20
21.0925
 30
0.000000
  70
    32
  0
VERTEX
  8
241
  5
5492
 10
120.614
 20
21.1291
 30
0.000000
  70
    32
  0
VERTEX
  8
241
  5
5493
 10
120.608
 20
21.1657
 30
0.000000
  70
    32
  0
VERTEX
  8
241
  5
5494
 10
120.604
 20
21.2025
 30
0.000000
  70
    32
  0
VERTEX
  8
241
  5
5495
 10
120.601
 20
21.2393
 30
0.000000
  70
    32
  0
VERTEX
  8
241
  5
5496
 10
120.600
 20
21.2761
 30
0.000000
  70
    32
  0
VERTEX
  8
241
  5
5497
 10
120.601
 20
21.3129
 30
0.000000
  70
    32
  0
VERTEX
  8
241
  5
5498
 10
120.604
 20
21.3497
 30
0.000000
  70
    32
  0
VERTEX
  8
241
  5
5499
 10
120.608
 20
21.3864
 30
0.000000
  70
    32
  0
VERTEX
  8
241
  5
549A
 10
120.614
 20
21.4231
 30
0.000000
  70
    32
  0
VERTEX
  8
241
  5
549B
 10
120.623
 20
21.4597
 30
0.000000
  70
    32
  0
VERTEX
  8
241
  5
549C
 10
120.632
 20
21.4962
 30
0.000000
  70
    32
  0
VERTEX
  8
241
  5
549D
 10
120.644
 20
21.5325
 30
0.000000
  70
    32
  0
VERTEX
  8
241
  5
549E
 10
120.658
 20
21.5687
 30
0.000000
  70
    32
  0
VERTEX
  8
241
  5
549F
 10
120.673
 20
21.6047
 30
0.000000
  70
    32
  0
VERTEX
  8
241
  5
54A0
 10
120.690
 20
21.6406
 30
0.000000
  70
    32
  0
VERTEX
  8
241
  5
54A1
 10
120.709
 20
21.6762
 30
0.000000
  70
    32
  0
VERTEX
  8
241
  5
54A2
 10
120.729
 20
21.7115
 30
0.000000
  70
    32
  0
VERTEX
  8
241
  5
54A3
 10
120.751
 20
21.7466
 30
0.000000
  70
    32
  0
VERTEX
  8
241
  5
54A4
 10
120.775
 20
21.7814
 30
0.000000
  70
    32
  0
VERTEX
  8
241
  5
54A5
 10
120.801
 20
21.8159
 30
0.000000
  70
    32
  0
VERTEX
  8
241
  5
54A6
 10
120.828
 20
21.8501
 30
0.000000
  70
    32
  0
VERTEX
  8
241
  5
54A7
 10
120.857
 20
21.8839
 30
0.000000
  70
    32
  0
VERTEX
  8
241
  5
54A8
 10
120.888
 20
21.9174
 30
0.000000
  70
    32
  0
VERTEX
  8
241
  5
54A9
 10
120.920
 20
21.9505
 30
0.000000
  70
    32
  0
VERTEX
  8
241
  5
54AA
 10
120.954
 20
21.9832
 30
0.000000
  70
    32
  0
VERTEX
  8
241
  5
54AB
 10
120.990
 20
22.0154
 30
0.000000
  70
    32
  0
VERTEX
  8
241
  5
54AC
 10
121.027
 20
22.0472
 30
0.000000
  70
    32
  0
VERTEX
  8
241
  5
54AD
 10
121.065
 20
22.0786
 30
0.000000
  70
    32
  0
VERTEX
  8
241
  5
54AE
 10
121.106
 20
22.1094
 30
0.000000
  70
    32
  0
VERTEX
  8
241
  5
54AF
 10
121.147
 20
22.1398
 30
0.000000
  70
    32
  0
VERTEX
  8
241
  5
54B0
 10
121.190
 20
22.1696
 30
0.000000
  70
    32
  0
VERTEX
  8
241
  5
54B1
 10
121.235
 20
22.1989
 30
0.000000
  70
    32
  0
VERTEX
  8
241
  5
54B2
 10
121.281
 20
22.2277
 30
0.000000
  70
    32
  0
VERTEX
  8
241
  5
54B3
 10
121.328
 20
22.2558
 30
0.000000
  70
    32
  0
VERTEX
  8
241
  5
54B4
 10
121.377
 20
22.2834
 30
0.000000
  70
    32
  0
VERTEX
  8
241
  5
54B5
 10
121.427
 20
22.3104
 30
0.000000
  70
    32
  0
VERTEX
  8
241
  5
54B6
 10
121.479
 20
22.3367
 30
0.000000
  70
    32
  0
VERTEX
  8
241
  5
54B7
 10
121.531
 20
22.3625
 30
0.000000
  70
    32
  0
VERTEX
  8
241
  5
54B8
 10
121.585
 20
22.3875
 30
0.000000
  70
    32
  0
VERTEX
  8
241
  5
54B9
 10
121.640
 20
22.4119
 30
0.000000
  70
    32
  0
VERTEX
  8
241
  5
54BA
 10
121.697
 20
22.4356
 30
0.000000
  70
    32
  0
VERTEX
  8
241
  5
54BB
 10
121.754
 20
22.4586
 30
0.000000
  70
    32
  0
VERTEX
  8
241
  5
54BC
 10
121.813
 20
22.4809
 30
0.000000
  70
    32
  0
VERTEX
  8
241
  5
54BD
 10
121.873
 20
22.5025
 30
0.000000
  70
    32
  0
VERTEX
  8
241
  5
54BE
 10
121.933
 20
22.5233
 30
0.000000
  70
    32
  0
VERTEX
  8
241
  5
54BF
 10
121.995
 20
22.5434
 30
0.000000
  70
    32
  0
VERTEX
  8
241
  5
54C0
 10
122.058
 20
22.5627
 30
0.000000
  70
    32
  0
VERTEX
  8
241
  5
54C1
 10
122.121
 20
22.5812
 30
0.000000
  70
    32
  0
VERTEX
  8
241
  5
54C2
 10
122.186
 20
22.5990
 30
0.000000
  70
    32
  0
VERTEX
  8
241
  5
54C3
 10
122.251
 20
22.6159
 30
0.000000
  70
    32
  0
VERTEX
  8
241
  5
54C4
 10
122.317
 20
22.6321
 30
0.000000
  70
    32
  0
VERTEX
  8
241
  5
54C5
 10
122.384
 20
22.6474
 30
0.000000
  70
    32
  0
VERTEX
  8
241
  5
54C6
 10
122.452
 20
22.6619
 30
0.000000
  70
    32
  0
VERTEX
  8
241
  5
54C7
 10
122.520
 20
22.6756
 30
0.000000
  70
    32
  0
VERTEX
  8
241
  5
54C8
 10
122.589
 20
22.6884
 30
0.000000
  70
    32
  0
VERTEX
  8
241
  5
54C9
 10
122.659
 20
22.7004
 30
0.000000
  70
    32
  0
VERTEX
  8
241
  5
54CA
 10
122.729
 20
22.7115
 30
0.000000
  70
    32
  0
VERTEX
  8
241
  5
54CB
 10
122.800
 20
22.7218
 30
0.000000
  70
    32
  0
VERTEX
  8
241
  5
54CC
 10
122.871
 20
22.7311
 30
0.000000
  70
    32
  0
VERTEX
  8
241
  5
54CD
 10
122.943
 20
22.7396
 30
0.000000
  70
    32
  0
VERTEX
  8
241
  5
54CE
 10
123.015
 20
22.7473
 30
0.000000
  70
    32
  0
VERTEX
  8
241
  5
54CF
 10
123.087
 20
22.7540
 30
0.000000
  70
    32
  0
VERTEX
  8
241
  5
54D0
 10
123.160
 20
22.7599
 30
0.000000
  70
    32
  0
VERTEX
  8
241
  5
54D1
 10
123.233
 20
22.7648
 30
0.000000
  70
    32
  0
VERTEX
  8
241
  5
54D2
 10
123.306
 20
22.7689
 30
0.000000
  70
    32
  0
VERTEX
  8
241
  5
54D3
 10
123.379
 20
22.7720
 30
0.000000
  70
    32
  0
VERTEX
  8
241
  5
54D4
 10
123.453
 20
22.7743
 30
0.000000
  70
    32
  0
VERTEX
  8
241
  5
54D5
 10
123.526
 20
22.7756
 30
0.000000
  70
    32
  0
VERTEX
  8
241
  5
54D6
 10
123.600
 20
22.7761
 30
0.000000
  70
    32
  0
SEQEND
  8
241
  5
54D7
  0
POLYLINE
  5
4C7E
  8
241
 10
128.5660254037891
 20
22.776086928756481
 30
0.0
 66
     1
 70
     8
  0
VERTEX
  8
241
  5
54D8
 10
128.566
 20
22.7761
 30
0.000000
  70
    32
  0
VERTEX
  8
241
  5
54D9
 10
128.640
 20
22.7756
 30
0.000000
  70
    32
  0
VERTEX
  8
241
  5
54DA
 10
128.715
 20
22.7743
 30
0.000000
  70
    32
  0
VERTEX
  8
241
  5
54DB
 10
128.789
 20
22.7720
 30
0.000000
  70
    32
  0
VERTEX
  8
241
  5
54DC
 10
128.863
 20
22.7689
 30
0.000000
  70
    32
  0
VERTEX
  8
241
  5
54DD
 10
128.937
 20
22.7648
 30
0.000000
  70
    32
  0
VERTEX
  8
241
  5
54DE
 10
129.011
 20
22.7599
 30
0.000000
  70
    32
  0
VERTEX
  8
241
  5
54DF
 10
129.085
 20
22.7540
 30
0.000000
  70
    32
  0
VERTEX
  8
241
  5
54E0
 10
129.158
 20
22.7473
 30
0.000000
  70
    32
  0
VERTEX
  8
241
  5
54E1
 10
129.231
 20
22.7396
 30
0.000000
  70
    32
  0
VERTEX
  8
241
  5
54E2
 10
129.303
 20
22.7311
 30
0.000000
  70
    32
  0
VERTEX
  8
241
  5
54E3
 10
129.375
 20
22.7218
 30
0.000000
  70
    32
  0
VERTEX
  8
241
  5
54E4
 10
129.447
 20
22.7115
 30
0.000000
  70
    32
  0
VERTEX
  8
241
  5
54E5
 10
129.518
 20
22.7004
 30
0.000000
  70
    32
  0
VERTEX
  8
241
  5
54E6
 10
129.588
 20
22.6884
 30
0.000000
  70
    32
  0
VERTEX
  8
241
  5
54E7
 10
129.658
 20
22.6756
 30
0.000000
  70
    32
  0
VERTEX
  8
241
  5
54E8
 10
129.727
 20
22.6619
 30
0.000000
  70
    32
  0
VERTEX
  8
241
  5
54E9
 10
129.796
 20
22.6474
 30
0.000000
  70
    32
  0
VERTEX
  8
241
  5
54EA
 10
129.863
 20
22.6321
 30
0.000000
  70
    32
  0
VERTEX
  8
241
  5
54EB
 10
129.930
 20
22.6159
 30
0.000000
  70
    32
  0
VERTEX
  8
241
  5
54EC
 10
129.996
 20
22.5990
 30
0.000000
  70
    32
  0
VERTEX
  8
241
  5
54ED
 10
130.061
 20
22.5812
 30
0.000000
  70
    32
  0
VERTEX
  8
241
  5
54EE
 10
130.126
 20
22.5627
 30
0.000000
  70
    32
  0
VERTEX
  8
241
  5
54EF
 10
130.189
 20
22.5434
 30
0.000000
  70
    32
  0
VERTEX
  8
241
  5
54F0
 10
130.252
 20
22.5233
 30
0.000000
  70
    32
  0
VERTEX
  8
241
  5
54F1
 10
130.313
 20
22.5025
 30
0.000000
  70
    32
  0
VERTEX
  8
241
  5
54F2
 10
130.373
 20
22.4809
 30
0.000000
  70
    32
  0
VERTEX
  8
241
  5
54F3
 10
130.433
 20
22.4586
 30
0.000000
  70
    32
  0
VERTEX
  8
241
  5
54F4
 10
130.491
 20
22.4356
 30
0.000000
  70
    32
  0
VERTEX
  8
241
  5
54F5
 10
130.548
 20
22.4119
 30
0.000000
  70
    32
  0
VERTEX
  8
241
  5
54F6
 10
130.604
 20
22.3875
 30
0.000000
  70
    32
  0
VERTEX
  8
241
  5
54F7
 10
130.658
 20
22.3625
 30
0.000000
  70
    32
  0
VERTEX
  8
241
  5
54F8
 10
130.711
 20
22.3367
 30
0.000000
  70
    32
  0
VERTEX
  8
241
  5
54F9
 10
130.763
 20
22.3104
 30
0.000000
  70
    32
  0
VERTEX
  8
241
  5
54FA
 10
130.814
 20
22.2834
 30
0.000000
  70
    32
  0
VERTEX
  8
241
  5
54FB
 10
130.863
 20
22.2558
 30
0.000000
  70
    32
  0
VERTEX
  8
241
  5
54FC
 10
130.911
 20
22.2277
 30
0.000000
  70
    32
  0
VERTEX
  8
241
  5
54FD
 10
130.958
 20
22.1989
 30
0.000000
  70
    32
  0
VERTEX
  8
241
  5
54FE
 10
131.003
 20
22.1696
 30
0.000000
  70
    32
  0
VERTEX
  8
241
  5
54FF
 10
131.047
 20
22.1398
 30
0.000000
  70
    32
  0
VERTEX
  8
241
  5
5500
 10
131.089
 20
22.1094
 30
0.000000
  70
    32
  0
VERTEX
  8
241
  5
5501
 10
131.129
 20
22.0786
 30
0.000000
  70
    32
  0
VERTEX
  8
241
  5
5502
 10
131.168
 20
22.0472
 30
0.000000
  70
    32
  0
VERTEX
  8
241
  5
5503
 10
131.206
 20
22.0154
 30
0.000000
  70
    32
  0
VERTEX
  8
241
  5
5504
 10
131.242
 20
21.9832
 30
0.000000
  70
    32
  0
VERTEX
  8
241
  5
5505
 10
131.276
 20
21.9505
 30
0.000000
  70
    32
  0
VERTEX
  8
241
  5
5506
 10
131.309
 20
21.9174
 30
0.000000
  70
    32
  0
VERTEX
  8
241
  5
5507
 10
131.340
 20
21.8839
 30
0.000000
  70
    32
  0
VERTEX
  8
241
  5
5508
 10
131.369
 20
21.8501
 30
0.000000
  70
    32
  0
VERTEX
  8
241
  5
5509
 10
131.397
 20
21.8159
 30
0.000000
  70
    32
  0
VERTEX
  8
241
  5
550A
 10
131.423
 20
21.7814
 30
0.000000
  70
    32
  0
VERTEX
  8
241
  5
550B
 10
131.447
 20
21.7466
 30
0.000000
  70
    32
  0
VERTEX
  8
241
  5
550C
 10
131.469
 20
21.7115
 30
0.000000
  70
    32
  0
VERTEX
  8
241
  5
550D
 10
131.490
 20
21.6762
 30
0.000000
  70
    32
  0
VERTEX
  8
241
  5
550E
 10
131.509
 20
21.6406
 30
0.000000
  70
    32
  0
VERTEX
  8
241
  5
550F
 10
131.526
 20
21.6047
 30
0.000000
  70
    32
  0
VERTEX
  8
241
  5
5510
 10
131.542
 20
21.5687
 30
0.000000
  70
    32
  0
VERTEX
  8
241
  5
5511
 10
131.555
 20
21.5325
 30
0.000000
  70
    32
  0
VERTEX
  8
241
  5
5512
 10
131.567
 20
21.4962
 30
0.000000
  70
    32
  0
VERTEX
  8
241
  5
5513
 10
131.577
 20
21.4597
 30
0.000000
  70
    32
  0
VERTEX
  8
241
  5
5514
 10
131.585
 20
21.4231
 30
0.000000
  70
    32
  0
VERTEX
  8
241
  5
5515
 10
131.592
 20
21.3864
 30
0.000000
  70
    32
  0
VERTEX
  8
241
  5
5516
 10
131.596
 20
21.3497
 30
0.000000
  70
    32
  0
VERTEX
  8
241
  5
5517
 10
131.599
 20
21.3129
 30
0.000000
  70
    32
  0
VERTEX
  8
241
  5
5518
 10
131.600
 20
21.2761
 30
0.000000
  70
    32
  0
VERTEX
  8
241
  5
5519
 10
131.599
 20
21.2393
 30
0.000000
  70
    32
  0
VERTEX
  8
241
  5
551A
 10
131.596
 20
21.2025
 30
0.000000
  70
    32
  0
VERTEX
  8
241
  5
551B
 10
131.592
 20
21.1657
 30
0.000000
  70
    32
  0
VERTEX
  8
241
  5
551C
 10
131.585
 20
21.1291
 30
0.000000
  70
    32
  0
VERTEX
  8
241
  5
551D
 10
131.577
 20
21.0925
 30
0.000000
  70
    32
  0
VERTEX
  8
241
  5
551E
 10
131.567
 20
21.0560
 30
0.000000
  70
    32
  0
VERTEX
  8
241
  5
551F
 10
131.555
 20
21.0196
 30
0.000000
  70
    32
  0
VERTEX
  8
241
  5
5520
 10
131.542
 20
20.9835
 30
0.000000
  70
    32
  0
VERTEX
  8
241
  5
5521
 10
131.526
 20
20.9474
 30
0.000000
  70
    32
  0
VERTEX
  8
241
  5
5522
 10
131.509
 20
20.9116
 30
0.000000
  70
    32
  0
VERTEX
  8
241
  5
5523
 10
131.490
 20
20.8760
 30
0.000000
  70
    32
  0
VERTEX
  8
241
  5
5524
 10
131.469
 20
20.8407
 30
0.000000
  70
    32
  0
VERTEX
  8
241
  5
5525
 10
131.447
 20
20.8056
 30
0.000000
  70
    32
  0
VERTEX
  8
241
  5
5526
 10
131.423
 20
20.7708
 30
0.000000
  70
    32
  0
VERTEX
  8
241
  5
5527
 10
131.397
 20
20.7362
 30
0.000000
  70
    32
  0
VERTEX
  8
241
  5
5528
 10
131.369
 20
20.7021
 30
0.000000
  70
    32
  0
VERTEX
  8
241
  5
5529
 10
131.340
 20
20.6682
 30
0.000000
  70
    32
  0
VERTEX
  8
241
  5
552A
 10
131.309
 20
20.6348
 30
0.000000
  70
    32
  0
VERTEX
  8
241
  5
552B
 10
131.276
 20
20.6017
 30
0.000000
  70
    32
  0
VERTEX
  8
241
  5
552C
 10
131.242
 20
20.5690
 30
0.000000
  70
    32
  0
VERTEX
  8
241
  5
552D
 10
131.206
 20
20.5367
 30
0.000000
  70
    32
  0
VERTEX
  8
241
  5
552E
 10
131.168
 20
20.5049
 30
0.000000
  70
    32
  0
VERTEX
  8
241
  5
552F
 10
131.129
 20
20.4736
 30
0.000000
  70
    32
  0
VERTEX
  8
241
  5
5530
 10
131.089
 20
20.4427
 30
0.000000
  70
    32
  0
VERTEX
  8
241
  5
5531
 10
131.047
 20
20.4124
 30
0.000000
  70
    32
  0
VERTEX
  8
241
  5
5532
 10
131.003
 20
20.3825
 30
0.000000
  70
    32
  0
VERTEX
  8
241
  5
5533
 10
130.958
 20
20.3532
 30
0.000000
  70
    32
  0
VERTEX
  8
241
  5
5534
 10
130.911
 20
20.3245
 30
0.000000
  70
    32
  0
VERTEX
  8
241
  5
5535
 10
130.863
 20
20.2963
 30
0.000000
  70
    32
  0
VERTEX
  8
241
  5
5536
 10
130.814
 20
20.2687
 30
0.000000
  70
    32
  0
VERTEX
  8
241
  5
5537
 10
130.763
 20
20.2418
 30
0.000000
  70
    32
  0
VERTEX
  8
241
  5
5538
 10
130.711
 20
20.2154
 30
0.000000
  70
    32
  0
VERTEX
  8
241
  5
5539
 10
130.658
 20
20.1897
 30
0.000000
  70
    32
  0
VERTEX
  8
241
  5
553A
 10
130.604
 20
20.1647
 30
0.000000
  70
    32
  0
VERTEX
  8
241
  5
553B
 10
130.548
 20
20.1403
 30
0.000000
  70
    32
  0
VERTEX
  8
241
  5
553C
 10
130.491
 20
20.1166
 30
0.000000
  70
    32
  0
VERTEX
  8
241
  5
553D
 10
130.433
 20
20.0936
 30
0.000000
  70
    32
  0
VERTEX
  8
241
  5
553E
 10
130.373
 20
20.0713
 30
0.000000
  70
    32
  0
VERTEX
  8
241
  5
553F
 10
130.313
 20
20.0497
 30
0.000000
  70
    32
  0
VERTEX
  8
241
  5
5540
 10
130.252
 20
20.0289
 30
0.000000
  70
    32
  0
VERTEX
  8
241
  5
5541
 10
130.189
 20
20.0088
 30
0.000000
  70
    32
  0
VERTEX
  8
241
  5
5542
 10
130.126
 20
19.9895
 30
0.000000
  70
    32
  0
VERTEX
  8
241
  5
5543
 10
130.061
 20
19.9710
 30
0.000000
  70
    32
  0
VERTEX
  8
241
  5
5544
 10
129.996
 20
19.9532
 30
0.000000
  70
    32
  0
VERTEX
  8
241
  5
5545
 10
129.930
 20
19.9363
 30
0.000000
  70
    32
  0
VERTEX
  8
241
  5
5546
 10
129.863
 20
19.9201
 30
0.000000
  70
    32
  0
VERTEX
  8
241
  5
5547
 10
129.796
 20
19.9048
 30
0.000000
  70
    32
  0
VERTEX
  8
241
  5
5548
 10
129.727
 20
19.8903
 30
0.000000
  70
    32
  0
VERTEX
  8
241
  5
5549
 10
129.658
 20
19.8766
 30
0.000000
  70
    32
  0
VERTEX
  8
241
  5
554A
 10
129.588
 20
19.8638
 30
0.000000
  70
    32
  0
VERTEX
  8
241
  5
554B
 10
129.518
 20
19.8518
 30
0.000000
  70
    32
  0
VERTEX
  8
241
  5
554C
 10
129.447
 20
19.8407
 30
0.000000
  70
    32
  0
VERTEX
  8
241
  5
554D
 10
129.375
 20
19.8304
 30
0.000000
  70
    32
  0
VERTEX
  8
241
  5
554E
 10
129.303
 20
19.8210
 30
0.000000
  70
    32
  0
VERTEX
  8
241
  5
554F
 10
129.231
 20
19.8125
 30
0.000000
  70
    32
  0
VERTEX
  8
241
  5
5550
 10
129.158
 20
19.8049
 30
0.000000
  70
    32
  0
VERTEX
  8
241
  5
5551
 10
129.085
 20
19.7982
 30
0.000000
  70
    32
  0
VERTEX
  8
241
  5
5552
 10
129.011
 20
19.7923
 30
0.000000
  70
    32
  0
VERTEX
  8
241
  5
5553
 10
128.937
 20
19.7874
 30
0.000000
  70
    32
  0
VERTEX
  8
241
  5
5554
 10
128.863
 20
19.7833
 30
0.000000
  70
    32
  0
VERTEX
  8
241
  5
5555
 10
128.789
 20
19.7802
 30
0.000000
  70
    32
  0
VERTEX
  8
241
  5
5556
 10
128.715
 20
19.7779
 30
0.000000
  70
    32
  0
VERTEX
  8
241
  5
5557
 10
128.640
 20
19.7765
 30
0.000000
  70
    32
  0
VERTEX
  8
241
  5
5558
 10
128.566
 20
19.7761
 30
0.000000
  70
    32
  0
SEQEND
  8
241
  5
5559
  0
LINE
  5
4C7F
  8
241
 10
123.5999999999998
 20
20.769065234203818
 30
0.0
 11
128.5660254037891
 21
20.769065234203818
 31
0.0
  0
POLYLINE
  5
4C80
  8
241
 10
121.37023231757316
 20
20.27257608148021
 30
0.0
 66
     1
 70
     8
  0
VERTEX
  8
241
  5
555A
 10
121.370
 20
20.2726
 30
0.000000
  70
    32
  0
VERTEX
  8
241
  5
555B
 10
121.383
 20
20.2799
 30
0.000000
  70
    32
  0
VERTEX
  8
241
  5
555C
 10
121.397
 20
20.2871
 30
0.000000
  70
    32
  0
VERTEX
  8
241
  5
555D
 10
121.410
 20
20.2943
 30
0.000000
  70
    32
  0
VERTEX
  8
241
  5
555E
 10
121.424
 20
20.3014
 30
0.000000
  70
    32
  0
VERTEX
  8
241
  5
555F
 10
121.437
 20
20.3085
 30
0.000000
  70
    32
  0
VERTEX
  8
241
  5
5560
 10
121.451
 20
20.3156
 30
0.000000
  70
    32
  0
VERTEX
  8
241
  5
5561
 10
121.465
 20
20.3226
 30
0.000000
  70
    32
  0
VERTEX
  8
241
  5
5562
 10
121.478
 20
20.3296
 30
0.000000
  70
    32
  0
VERTEX
  8
241
  5
5563
 10
121.492
 20
20.3365
 30
0.000000
  70
    32
  0
VERTEX
  8
241
  5
5564
 10
121.506
 20
20.3434
 30
0.000000
  70
    32
  0
VERTEX
  8
241
  5
5565
 10
121.520
 20
20.3502
 30
0.000000
  70
    32
  0
VERTEX
  8
241
  5
5566
 10
121.535
 20
20.3570
 30
0.000000
  70
    32
  0
VERTEX
  8
241
  5
5567
 10
121.549
 20
20.3637
 30
0.000000
  70
    32
  0
VERTEX
  8
241
  5
5568
 10
121.563
 20
20.3704
 30
0.000000
  70
    32
  0
VERTEX
  8
241
  5
5569
 10
121.578
 20
20.3770
 30
0.000000
  70
    32
  0
VERTEX
  8
241
  5
556A
 10
121.592
 20
20.3836
 30
0.000000
  70
    32
  0
VERTEX
  8
241
  5
556B
 10
121.607
 20
20.3902
 30
0.000000
  70
    32
  0
VERTEX
  8
241
  5
556C
 10
121.622
 20
20.3967
 30
0.000000
  70
    32
  0
VERTEX
  8
241
  5
556D
 10
121.636
 20
20.4031
 30
0.000000
  70
    32
  0
VERTEX
  8
241
  5
556E
 10
121.651
 20
20.4095
 30
0.000000
  70
    32
  0
VERTEX
  8
241
  5
556F
 10
121.666
 20
20.4159
 30
0.000000
  70
    32
  0
VERTEX
  8
241
  5
5570
 10
121.681
 20
20.4222
 30
0.000000
  70
    32
  0
VERTEX
  8
241
  5
5571
 10
121.697
 20
20.4285
 30
0.000000
  70
    32
  0
VERTEX
  8
241
  5
5572
 10
121.712
 20
20.4347
 30
0.000000
  70
    32
  0
VERTEX
  8
241
  5
5573
 10
121.727
 20
20.4408
 30
0.000000
  70
    32
  0
VERTEX
  8
241
  5
5574
 10
121.742
 20
20.4469
 30
0.000000
  70
    32
  0
VERTEX
  8
241
  5
5575
 10
121.758
 20
20.4530
 30
0.000000
  70
    32
  0
VERTEX
  8
241
  5
5576
 10
121.773
 20
20.4590
 30
0.000000
  70
    32
  0
VERTEX
  8
241
  5
5577
 10
121.789
 20
20.4649
 30
0.000000
  70
    32
  0
VERTEX
  8
241
  5
5578
 10
121.805
 20
20.4708
 30
0.000000
  70
    32
  0
VERTEX
  8
241
  5
5579
 10
121.820
 20
20.4767
 30
0.000000
  70
    32
  0
VERTEX
  8
241
  5
557A
 10
121.836
 20
20.4825
 30
0.000000
  70
    32
  0
VERTEX
  8
241
  5
557B
 10
121.852
 20
20.4882
 30
0.000000
  70
    32
  0
VERTEX
  8
241
  5
557C
 10
121.868
 20
20.4939
 30
0.000000
  70
    32
  0
VERTEX
  8
241
  5
557D
 10
121.884
 20
20.4996
 30
0.000000
  70
    32
  0
VERTEX
  8
241
  5
557E
 10
121.900
 20
20.5052
 30
0.000000
  70
    32
  0
VERTEX
  8
241
  5
557F
 10
121.917
 20
20.5107
 30
0.000000
  70
    32
  0
VERTEX
  8
241
  5
5580
 10
121.933
 20
20.5162
 30
0.000000
  70
    32
  0
VERTEX
  8
241
  5
5581
 10
121.949
 20
20.5216
 30
0.000000
  70
    32
  0
VERTEX
  8
241
  5
5582
 10
121.966
 20
20.5270
 30
0.000000
  70
    32
  0
VERTEX
  8
241
  5
5583
 10
121.982
 20
20.5323
 30
0.000000
  70
    32
  0
VERTEX
  8
241
  5
5584
 10
121.999
 20
20.5376
 30
0.000000
  70
    32
  0
VERTEX
  8
241
  5
5585
 10
122.016
 20
20.5428
 30
0.000000
  70
    32
  0
VERTEX
  8
241
  5
5586
 10
122.032
 20
20.5479
 30
0.000000
  70
    32
  0
VERTEX
  8
241
  5
5587
 10
122.049
 20
20.5530
 30
0.000000
  70
    32
  0
VERTEX
  8
241
  5
5588
 10
122.066
 20
20.5581
 30
0.000000
  70
    32
  0
VERTEX
  8
241
  5
5589
 10
122.083
 20
20.5631
 30
0.000000
  70
    32
  0
VERTEX
  8
241
  5
558A
 10
122.100
 20
20.5680
 30
0.000000
  70
    32
  0
VERTEX
  8
241
  5
558B
 10
122.117
 20
20.5729
 30
0.000000
  70
    32
  0
VERTEX
  8
241
  5
558C
 10
122.134
 20
20.5777
 30
0.000000
  70
    32
  0
VERTEX
  8
241
  5
558D
 10
122.151
 20
20.5825
 30
0.000000
  70
    32
  0
VERTEX
  8
241
  5
558E
 10
122.168
 20
20.5872
 30
0.000000
  70
    32
  0
VERTEX
  8
241
  5
558F
 10
122.186
 20
20.5919
 30
0.000000
  70
    32
  0
VERTEX
  8
241
  5
5590
 10
122.203
 20
20.5965
 30
0.000000
  70
    32
  0
VERTEX
  8
241
  5
5591
 10
122.220
 20
20.6010
 30
0.000000
  70
    32
  0
VERTEX
  8
241
  5
5592
 10
122.238
 20
20.6055
 30
0.000000
  70
    32
  0
VERTEX
  8
241
  5
5593
 10
122.255
 20
20.6099
 30
0.000000
  70
    32
  0
VERTEX
  8
241
  5
5594
 10
122.273
 20
20.6143
 30
0.000000
  70
    32
  0
VERTEX
  8
241
  5
5595
 10
122.291
 20
20.6186
 30
0.000000
  70
    32
  0
VERTEX
  8
241
  5
5596
 10
122.308
 20
20.6229
 30
0.000000
  70
    32
  0
VERTEX
  8
241
  5
5597
 10
122.326
 20
20.6271
 30
0.000000
  70
    32
  0
VERTEX
  8
241
  5
5598
 10
122.344
 20
20.6312
 30
0.000000
  70
    32
  0
VERTEX
  8
241
  5
5599
 10
122.362
 20
20.6353
 30
0.000000
  70
    32
  0
VERTEX
  8
241
  5
559A
 10
122.380
 20
20.6393
 30
0.000000
  70
    32
  0
VERTEX
  8
241
  5
559B
 10
122.398
 20
20.6433
 30
0.000000
  70
    32
  0
VERTEX
  8
241
  5
559C
 10
122.416
 20
20.6472
 30
0.000000
  70
    32
  0
VERTEX
  8
241
  5
559D
 10
122.434
 20
20.6511
 30
0.000000
  70
    32
  0
VERTEX
  8
241
  5
559E
 10
122.452
 20
20.6548
 30
0.000000
  70
    32
  0
VERTEX
  8
241
  5
559F
 10
122.470
 20
20.6586
 30
0.000000
  70
    32
  0
VERTEX
  8
241
  5
55A0
 10
122.488
 20
20.6622
 30
0.000000
  70
    32
  0
VERTEX
  8
241
  5
55A1
 10
122.506
 20
20.6658
 30
0.000000
  70
    32
  0
VERTEX
  8
241
  5
55A2
 10
122.525
 20
20.6694
 30
0.000000
  70
    32
  0
VERTEX
  8
241
  5
55A3
 10
122.543
 20
20.6729
 30
0.000000
  70
    32
  0
VERTEX
  8
241
  5
55A4
 10
122.561
 20
20.6763
 30
0.000000
  70
    32
  0
VERTEX
  8
241
  5
55A5
 10
122.580
 20
20.6797
 30
0.000000
  70
    32
  0
VERTEX
  8
241
  5
55A6
 10
122.598
 20
20.6830
 30
0.000000
  70
    32
  0
VERTEX
  8
241
  5
55A7
 10
122.617
 20
20.6862
 30
0.000000
  70
    32
  0
VERTEX
  8
241
  5
55A8
 10
122.635
 20
20.6894
 30
0.000000
  70
    32
  0
VERTEX
  8
241
  5
55A9
 10
122.654
 20
20.6926
 30
0.000000
  70
    32
  0
VERTEX
  8
241
  5
55AA
 10
122.673
 20
20.6956
 30
0.000000
  70
    32
  0
VERTEX
  8
241
  5
55AB
 10
122.691
 20
20.6986
 30
0.000000
  70
    32
  0
VERTEX
  8
241
  5
55AC
 10
122.710
 20
20.7016
 30
0.000000
  70
    32
  0
VERTEX
  8
241
  5
55AD
 10
122.729
 20
20.7045
 30
0.000000
  70
    32
  0
VERTEX
  8
241
  5
55AE
 10
122.748
 20
20.7073
 30
0.000000
  70
    32
  0
VERTEX
  8
241
  5
55AF
 10
122.767
 20
20.7100
 30
0.000000
  70
    32
  0
VERTEX
  8
241
  5
55B0
 10
122.786
 20
20.7127
 30
0.000000
  70
    32
  0
VERTEX
  8
241
  5
55B1
 10
122.804
 20
20.7154
 30
0.000000
  70
    32
  0
VERTEX
  8
241
  5
55B2
 10
122.823
 20
20.7179
 30
0.000000
  70
    32
  0
VERTEX
  8
241
  5
55B3
 10
122.842
 20
20.7204
 30
0.000000
  70
    32
  0
VERTEX
  8
241
  5
55B4
 10
122.861
 20
20.7229
 30
0.000000
  70
    32
  0
VERTEX
  8
241
  5
55B5
 10
122.880
 20
20.7253
 30
0.000000
  70
    32
  0
VERTEX
  8
241
  5
55B6
 10
122.900
 20
20.7276
 30
0.000000
  70
    32
  0
VERTEX
  8
241
  5
55B7
 10
122.919
 20
20.7299
 30
0.000000
  70
    32
  0
VERTEX
  8
241
  5
55B8
 10
122.938
 20
20.7321
 30
0.000000
  70
    32
  0
VERTEX
  8
241
  5
55B9
 10
122.957
 20
20.7342
 30
0.000000
  70
    32
  0
VERTEX
  8
241
  5
55BA
 10
122.976
 20
20.7363
 30
0.000000
  70
    32
  0
VERTEX
  8
241
  5
55BB
 10
122.995
 20
20.7383
 30
0.000000
  70
    32
  0
VERTEX
  8
241
  5
55BC
 10
123.015
 20
20.7402
 30
0.000000
  70
    32
  0
VERTEX
  8
241
  5
55BD
 10
123.034
 20
20.7421
 30
0.000000
  70
    32
  0
VERTEX
  8
241
  5
55BE
 10
123.053
 20
20.7439
 30
0.000000
  70
    32
  0
VERTEX
  8
241
  5
55BF
 10
123.073
 20
20.7457
 30
0.000000
  70
    32
  0
VERTEX
  8
241
  5
55C0
 10
123.092
 20
20.7474
 30
0.000000
  70
    32
  0
VERTEX
  8
241
  5
55C1
 10
123.111
 20
20.7490
 30
0.000000
  70
    32
  0
VERTEX
  8
241
  5
55C2
 10
123.131
 20
20.7506
 30
0.000000
  70
    32
  0
VERTEX
  8
241
  5
55C3
 10
123.150
 20
20.7521
 30
0.000000
  70
    32
  0
VERTEX
  8
241
  5
55C4
 10
123.169
 20
20.7535
 30
0.000000
  70
    32
  0
VERTEX
  8
241
  5
55C5
 10
123.189
 20
20.7549
 30
0.000000
  70
    32
  0
VERTEX
  8
241
  5
55C6
 10
123.208
 20
20.7562
 30
0.000000
  70
    32
  0
VERTEX
  8
241
  5
55C7
 10
123.228
 20
20.7575
 30
0.000000
  70
    32
  0
VERTEX
  8
241
  5
55C8
 10
123.247
 20
20.7587
 30
0.000000
  70
    32
  0
VERTEX
  8
241
  5
55C9
 10
123.267
 20
20.7598
 30
0.000000
  70
    32
  0
VERTEX
  8
241
  5
55CA
 10
123.286
 20
20.7608
 30
0.000000
  70
    32
  0
VERTEX
  8
241
  5
55CB
 10
123.306
 20
20.7618
 30
0.000000
  70
    32
  0
VERTEX
  8
241
  5
55CC
 10
123.325
 20
20.7628
 30
0.000000
  70
    32
  0
VERTEX
  8
241
  5
55CD
 10
123.345
 20
20.7636
 30
0.000000
  70
    32
  0
VERTEX
  8
241
  5
55CE
 10
123.365
 20
20.7644
 30
0.000000
  70
    32
  0
VERTEX
  8
241
  5
55CF
 10
123.384
 20
20.7652
 30
0.000000
  70
    32
  0
VERTEX
  8
241
  5
55D0
 10
123.404
 20
20.7659
 30
0.000000
  70
    32
  0
VERTEX
  8
241
  5
55D1
 10
123.423
 20
20.7665
 30
0.000000
  70
    32
  0
VERTEX
  8
241
  5
55D2
 10
123.443
 20
20.7670
 30
0.000000
  70
    32
  0
VERTEX
  8
241
  5
55D3
 10
123.463
 20
20.7675
 30
0.000000
  70
    32
  0
VERTEX
  8
241
  5
55D4
 10
123.482
 20
20.7679
 30
0.000000
  70
    32
  0
VERTEX
  8
241
  5
55D5
 10
123.502
 20
20.7683
 30
0.000000
  70
    32
  0
VERTEX
  8
241
  5
55D6
 10
123.521
 20
20.7686
 30
0.000000
  70
    32
  0
VERTEX
  8
241
  5
55D7
 10
123.541
 20
20.7688
 30
0.000000
  70
    32
  0
VERTEX
  8
241
  5
55D8
 10
123.561
 20
20.7689
 30
0.000000
  70
    32
  0
VERTEX
  8
241
  5
55D9
 10
123.580
 20
20.7690
 30
0.000000
  70
    32
  0
VERTEX
  8
241
  5
55DA
 10
123.600
 20
20.7691
 30
0.000000
  70
    32
  0
SEQEND
  8
241
  5
55DB
  0
POLYLINE
  5
4C81
  8
241
 10
128.5660254037891
 20
20.76906523420379
 30
0.0
 66
     1
 70
     8
  0
VERTEX
  8
241
  5
55DC
 10
128.566
 20
20.7691
 30
0.000000
  70
    32
  0
VERTEX
  8
241
  5
55DD
 10
128.586
 20
20.7690
 30
0.000000
  70
    32
  0
VERTEX
  8
241
  5
55DE
 10
128.606
 20
20.7689
 30
0.000000
  70
    32
  0
VERTEX
  8
241
  5
55DF
 10
128.626
 20
20.7688
 30
0.000000
  70
    32
  0
VERTEX
  8
241
  5
55E0
 10
128.645
 20
20.7686
 30
0.000000
  70
    32
  0
VERTEX
  8
241
  5
55E1
 10
128.665
 20
20.7683
 30
0.000000
  70
    32
  0
VERTEX
  8
241
  5
55E2
 10
128.685
 20
20.7679
 30
0.000000
  70
    32
  0
VERTEX
  8
241
  5
55E3
 10
128.705
 20
20.7675
 30
0.000000
  70
    32
  0
VERTEX
  8
241
  5
55E4
 10
128.725
 20
20.7670
 30
0.000000
  70
    32
  0
VERTEX
  8
241
  5
55E5
 10
128.745
 20
20.7665
 30
0.000000
  70
    32
  0
VERTEX
  8
241
  5
55E6
 10
128.764
 20
20.7659
 30
0.000000
  70
    32
  0
VERTEX
  8
241
  5
55E7
 10
128.784
 20
20.7652
 30
0.000000
  70
    32
  0
VERTEX
  8
241
  5
55E8
 10
128.804
 20
20.7644
 30
0.000000
  70
    32
  0
VERTEX
  8
241
  5
55E9
 10
128.824
 20
20.7636
 30
0.000000
  70
    32
  0
VERTEX
  8
241
  5
55EA
 10
128.844
 20
20.7628
 30
0.000000
  70
    32
  0
VERTEX
  8
241
  5
55EB
 10
128.863
 20
20.7618
 30
0.000000
  70
    32
  0
VERTEX
  8
241
  5
55EC
 10
128.883
 20
20.7608
 30
0.000000
  70
    32
  0
VERTEX
  8
241
  5
55ED
 10
128.903
 20
20.7598
 30
0.000000
  70
    32
  0
VERTEX
  8
241
  5
55EE
 10
128.923
 20
20.7587
 30
0.000000
  70
    32
  0
VERTEX
  8
241
  5
55EF
 10
128.942
 20
20.7575
 30
0.000000
  70
    32
  0
VERTEX
  8
241
  5
55F0
 10
128.962
 20
20.7562
 30
0.000000
  70
    32
  0
VERTEX
  8
241
  5
55F1
 10
128.982
 20
20.7549
 30
0.000000
  70
    32
  0
VERTEX
  8
241
  5
55F2
 10
129.001
 20
20.7535
 30
0.000000
  70
    32
  0
VERTEX
  8
241
  5
55F3
 10
129.021
 20
20.7521
 30
0.000000
  70
    32
  0
VERTEX
  8
241
  5
55F4
 10
129.041
 20
20.7506
 30
0.000000
  70
    32
  0
VERTEX
  8
241
  5
55F5
 10
129.060
 20
20.7490
 30
0.000000
  70
    32
  0
VERTEX
  8
241
  5
55F6
 10
129.080
 20
20.7474
 30
0.000000
  70
    32
  0
VERTEX
  8
241
  5
55F7
 10
129.099
 20
20.7457
 30
0.000000
  70
    32
  0
VERTEX
  8
241
  5
55F8
 10
129.119
 20
20.7439
 30
0.000000
  70
    32
  0
VERTEX
  8
241
  5
55F9
 10
129.139
 20
20.7421
 30
0.000000
  70
    32
  0
VERTEX
  8
241
  5
55FA
 10
129.158
 20
20.7402
 30
0.000000
  70
    32
  0
VERTEX
  8
241
  5
55FB
 10
129.178
 20
20.7383
 30
0.000000
  70
    32
  0
VERTEX
  8
241
  5
55FC
 10
129.197
 20
20.7363
 30
0.000000
  70
    32
  0
VERTEX
  8
241
  5
55FD
 10
129.216
 20
20.7342
 30
0.000000
  70
    32
  0
VERTEX
  8
241
  5
55FE
 10
129.236
 20
20.7321
 30
0.000000
  70
    32
  0
VERTEX
  8
241
  5
55FF
 10
129.255
 20
20.7299
 30
0.000000
  70
    32
  0
VERTEX
  8
241
  5
5600
 10
129.274
 20
20.7276
 30
0.000000
  70
    32
  0
VERTEX
  8
241
  5
5601
 10
129.294
 20
20.7253
 30
0.000000
  70
    32
  0
VERTEX
  8
241
  5
5602
 10
129.313
 20
20.7229
 30
0.000000
  70
    32
  0
VERTEX
  8
241
  5
5603
 10
129.332
 20
20.7204
 30
0.000000
  70
    32
  0
VERTEX
  8
241
  5
5604
 10
129.351
 20
20.7179
 30
0.000000
  70
    32
  0
VERTEX
  8
241
  5
5605
 10
129.371
 20
20.7154
 30
0.000000
  70
    32
  0
VERTEX
  8
241
  5
5606
 10
129.390
 20
20.7127
 30
0.000000
  70
    32
  0
VERTEX
  8
241
  5
5607
 10
129.409
 20
20.7100
 30
0.000000
  70
    32
  0
VERTEX
  8
241
  5
5608
 10
129.428
 20
20.7073
 30
0.000000
  70
    32
  0
VERTEX
  8
241
  5
5609
 10
129.447
 20
20.7045
 30
0.000000
  70
    32
  0
VERTEX
  8
241
  5
560A
 10
129.466
 20
20.7016
 30
0.000000
  70
    32
  0
VERTEX
  8
241
  5
560B
 10
129.485
 20
20.6986
 30
0.000000
  70
    32
  0
VERTEX
  8
241
  5
560C
 10
129.504
 20
20.6956
 30
0.000000
  70
    32
  0
VERTEX
  8
241
  5
560D
 10
129.523
 20
20.6926
 30
0.000000
  70
    32
  0
VERTEX
  8
241
  5
560E
 10
129.541
 20
20.6894
 30
0.000000
  70
    32
  0
VERTEX
  8
241
  5
560F
 10
129.560
 20
20.6862
 30
0.000000
  70
    32
  0
VERTEX
  8
241
  5
5610
 10
129.579
 20
20.6830
 30
0.000000
  70
    32
  0
VERTEX
  8
241
  5
5611
 10
129.598
 20
20.6797
 30
0.000000
  70
    32
  0
VERTEX
  8
241
  5
5612
 10
129.616
 20
20.6763
 30
0.000000
  70
    32
  0
VERTEX
  8
241
  5
5613
 10
129.635
 20
20.6729
 30
0.000000
  70
    32
  0
VERTEX
  8
241
  5
5614
 10
129.654
 20
20.6694
 30
0.000000
  70
    32
  0
VERTEX
  8
241
  5
5615
 10
129.672
 20
20.6658
 30
0.000000
  70
    32
  0
VERTEX
  8
241
  5
5616
 10
129.690
 20
20.6622
 30
0.000000
  70
    32
  0
VERTEX
  8
241
  5
5617
 10
129.709
 20
20.6586
 30
0.000000
  70
    32
  0
VERTEX
  8
241
  5
5618
 10
129.727
 20
20.6548
 30
0.000000
  70
    32
  0
VERTEX
  8
241
  5
5619
 10
129.746
 20
20.6511
 30
0.000000
  70
    32
  0
VERTEX
  8
241
  5
561A
 10
129.764
 20
20.6472
 30
0.000000
  70
    32
  0
VERTEX
  8
241
  5
561B
 10
129.782
 20
20.6433
 30
0.000000
  70
    32
  0
VERTEX
  8
241
  5
561C
 10
129.800
 20
20.6393
 30
0.000000
  70
    32
  0
VERTEX
  8
241
  5
561D
 10
129.818
 20
20.6353
 30
0.000000
  70
    32
  0
VERTEX
  8
241
  5
561E
 10
129.836
 20
20.6312
 30
0.000000
  70
    32
  0
VERTEX
  8
241
  5
561F
 10
129.854
 20
20.6271
 30
0.000000
  70
    32
  0
VERTEX
  8
241
  5
5620
 10
129.872
 20
20.6229
 30
0.000000
  70
    32
  0
VERTEX
  8
241
  5
5621
 10
129.890
 20
20.6186
 30
0.000000
  70
    32
  0
VERTEX
  8
241
  5
5622
 10
129.908
 20
20.6143
 30
0.000000
  70
    32
  0
VERTEX
  8
241
  5
5623
 10
129.926
 20
20.6099
 30
0.000000
  70
    32
  0
VERTEX
  8
241
  5
5624
 10
129.944
 20
20.6055
 30
0.000000
  70
    32
  0
VERTEX
  8
241
  5
5625
 10
129.961
 20
20.6010
 30
0.000000
  70
    32
  0
VERTEX
  8
241
  5
5626
 10
129.979
 20
20.5965
 30
0.000000
  70
    32
  0
VERTEX
  8
241
  5
5627
 10
129.996
 20
20.5919
 30
0.000000
  70
    32
  0
VERTEX
  8
241
  5
5628
 10
130.014
 20
20.5872
 30
0.000000
  70
    32
  0
VERTEX
  8
241
  5
5629
 10
130.031
 20
20.5825
 30
0.000000
  70
    32
  0
VERTEX
  8
241
  5
562A
 10
130.049
 20
20.5777
 30
0.000000
  70
    32
  0
VERTEX
  8
241
  5
562B
 10
130.066
 20
20.5729
 30
0.000000
  70
    32
  0
VERTEX
  8
241
  5
562C
 10
130.083
 20
20.5680
 30
0.000000
  70
    32
  0
VERTEX
  8
241
  5
562D
 10
130.100
 20
20.5631
 30
0.000000
  70
    32
  0
VERTEX
  8
241
  5
562E
 10
130.118
 20
20.5581
 30
0.000000
  70
    32
  0
VERTEX
  8
241
  5
562F
 10
130.135
 20
20.5530
 30
0.000000
  70
    32
  0
VERTEX
  8
241
  5
5630
 10
130.152
 20
20.5479
 30
0.000000
  70
    32
  0
VERTEX
  8
241
  5
5631
 10
130.168
 20
20.5428
 30
0.000000
  70
    32
  0
VERTEX
  8
241
  5
5632
 10
130.185
 20
20.5376
 30
0.000000
  70
    32
  0
VERTEX
  8
241
  5
5633
 10
130.202
 20
20.5323
 30
0.000000
  70
    32
  0
VERTEX
  8
241
  5
5634
 10
130.219
 20
20.5270
 30
0.000000
  70
    32
  0
VERTEX
  8
241
  5
5635
 10
130.235
 20
20.5216
 30
0.000000
  70
    32
  0
VERTEX
  8
241
  5
5636
 10
130.252
 20
20.5162
 30
0.000000
  70
    32
  0
VERTEX
  8
241
  5
5637
 10
130.268
 20
20.5107
 30
0.000000
  70
    32
  0
VERTEX
  8
241
  5
5638
 10
130.285
 20
20.5052
 30
0.000000
  70
    32
  0
VERTEX
  8
241
  5
5639
 10
130.301
 20
20.4996
 30
0.000000
  70
    32
  0
VERTEX
  8
241
  5
563A
 10
130.317
 20
20.4939
 30
0.000000
  70
    32
  0
VERTEX
  8
241
  5
563B
 10
130.334
 20
20.4882
 30
0.000000
  70
    32
  0
VERTEX
  8
241
  5
563C
 10
130.350
 20
20.4825
 30
0.000000
  70
    32
  0
VERTEX
  8
241
  5
563D
 10
130.366
 20
20.4767
 30
0.000000
  70
    32
  0
VERTEX
  8
241
  5
563E
 10
130.382
 20
20.4708
 30
0.000000
  70
    32
  0
VERTEX
  8
241
  5
563F
 10
130.398
 20
20.4649
 30
0.000000
  70
    32
  0
VERTEX
  8
241
  5
5640
 10
130.413
 20
20.4590
 30
0.000000
  70
    32
  0
VERTEX
  8
241
  5
5641
 10
130.429
 20
20.4530
 30
0.000000
  70
    32
  0
VERTEX
  8
241
  5
5642
 10
130.445
 20
20.4469
 30
0.000000
  70
    32
  0
VERTEX
  8
241
  5
5643
 10
130.460
 20
20.4408
 30
0.000000
  70
    32
  0
VERTEX
  8
241
  5
5644
 10
130.476
 20
20.4347
 30
0.000000
  70
    32
  0
VERTEX
  8
241
  5
5645
 10
130.491
 20
20.4285
 30
0.000000
  70
    32
  0
VERTEX
  8
241
  5
5646
 10
130.506
 20
20.4222
 30
0.000000
  70
    32
  0
VERTEX
  8
241
  5
5647
 10
130.522
 20
20.4159
 30
0.000000
  70
    32
  0
VERTEX
  8
241
  5
5648
 10
130.537
 20
20.4095
 30
0.000000
  70
    32
  0
VERTEX
  8
241
  5
5649
 10
130.552
 20
20.4031
 30
0.000000
  70
    32
  0
VERTEX
  8
241
  5
564A
 10
130.567
 20
20.3967
 30
0.000000
  70
    32
  0
VERTEX
  8
241
  5
564B
 10
130.582
 20
20.3902
 30
0.000000
  70
    32
  0
VERTEX
  8
241
  5
564C
 10
130.596
 20
20.3836
 30
0.000000
  70
    32
  0
VERTEX
  8
241
  5
564D
 10
130.611
 20
20.3770
 30
0.000000
  70
    32
  0
VERTEX
  8
241
  5
564E
 10
130.626
 20
20.3704
 30
0.000000
  70
    32
  0
VERTEX
  8
241
  5
564F
 10
130.640
 20
20.3637
 30
0.000000
  70
    32
  0
VERTEX
  8
241
  5
5650
 10
130.655
 20
20.3570
 30
0.000000
  70
    32
  0
VERTEX
  8
241
  5
5651
 10
130.669
 20
20.3502
 30
0.000000
  70
    32
  0
VERTEX
  8
241
  5
5652
 10
130.683
 20
20.3434
 30
0.000000
  70
    32
  0
VERTEX
  8
241
  5
5653
 10
130.698
 20
20.3365
 30
0.000000
  70
    32
  0
VERTEX
  8
241
  5
5654
 10
130.712
 20
20.3296
 30
0.000000
  70
    32
  0
VERTEX
  8
241
  5
5655
 10
130.726
 20
20.3226
 30
0.000000
  70
    32
  0
VERTEX
  8
241
  5
5656
 10
130.740
 20
20.3156
 30
0.000000
  70
    32
  0
VERTEX
  8
241
  5
5657
 10
130.753
 20
20.3085
 30
0.000000
  70
    32
  0
VERTEX
  8
241
  5
5658
 10
130.767
 20
20.3014
 30
0.000000
  70
    32
  0
VERTEX
  8
241
  5
5659
 10
130.781
 20
20.2943
 30
0.000000
  70
    32
  0
VERTEX
  8
241
  5
565A
 10
130.794
 20
20.2871
 30
0.000000
  70
    32
  0
VERTEX
  8
241
  5
565B
 10
130.808
 20
20.2799
 30
0.000000
  70
    32
  0
VERTEX
  8
241
  5
565C
 10
130.821
 20
20.2726
 30
0.000000
  70
    32
  0
SEQEND
  8
241
  5
565D
  0
ARC
  5
4C85
  8
240
  6
CONTINUOUS
 10
100.5000000000034
 20
21.400000000002031
 30
0.0
 40
0.5
 50
359.99999998713531
 51
89.999999987135297
1001
GRPNAME
1000
PASTMD3D
  0
LINE
  5
4C86
  8
240
  6
CONTINUOUS
 10
99.000000000001023
 20
21.90000000000202
 30
0.0
 11
100.5000000000034
 21
21.90000000000202
 31
0.0
1001
GRPNAME
1000
PASTMD3D
  0
LINE
  5
4C87
  8
243
 10
144.9999999999996
 20
-10.0
 30
0.0
 11
100.36602540378399
 21
-10.0
 31
0.0
  0
LINE
  5
4C88
  8
243
 10
144.99999999999969
 20
10.00000000000003
 30
0.0
 11
100.36602540378389
 21
10.0
 31
0.0
  0
LINE
  5
4CB8
  8
240
 10
99.000000000001023
 20
25.17157287525189
 30
0.0
 11
99.000000000001023
 21
21.90000000000202
 31
0.0
  0
TEXT
  5
4EC8
  8
241
 10
-32.0
 20
77.0
 30
0.0
 40
5.0
  1
HSK-A63-HMC20S-145NRA
  7
YOKO
 11
-32.0
 21
77.0
 31
0.0
 73
     1
1001
GRPNAME
1000
PASTMD0I
  0
LINE
  5
4ECB
  8
250
 10
-23.037048729999999
 20
-31.833453089999999
 30
0.0
 11
-47.303715400000002
 21
-31.833453089999999
 31
0.0
1001
ITEMNAME
1000
LNSP2
  0
LINE
  5
4ECC
  8
240
 10
0.0
 20
-24.215
 30
0.0
 11
0.0
 21
-31.5
 31
0.0
1001
GRPNAME
1000
PASTMD0X
  0
LINE
  5
4ECD
  8
241
 10
21.377499069999999
 20
-31.5
 30
0.0
 11
21.377499069999999
 21
0.0
 31
0.0
1001
GRPNAME
1000
PASTMD0X
  0
LINE
  5
4ECE
  8
241
 10
14.622500929999999
 20
-31.5
 30
0.0
 11
14.622500929999999
 21
0.0
 31
0.0
1001
GRPNAME
1000
PASTMD0X
  0
LINE
  5
4ECF
  8
241
 10
16.125
 20
-27.5
 30
0.0
 11
16.125
 21
0.0
 31
0.0
1001
GRPNAME
1000
PASTMD0X
  0
LINE
  5
4ED0
  8
241
 10
19.875
 20
-27.5
 30
0.0
 11
19.875
 21
0.0
 31
0.0
1001
GRPNAME
1000
PASTMD0X
  0
LINE
  5
4ED1
  8
245
  6
CENTER2
 10
18.0
 20
-31.5
 30
0.0
 11
18.0
 21
31.5
 31
0.0
  0
LINE
  5
4ED2
  8
240
 10
14.622500929999999
 20
-31.5
 30
0.0
 11
0.0
 21
-31.5
 31
0.0
1001
GRPNAME
1000
PASTMD0X
  0
LINE
  5
4ED3
  8
243
 10
26.0
 20
-26.5
 30
0.0
 11
5.0
 21
-26.5
 31
0.0
1001
GRPNAME
1000
PASTMD0X
  0
LINE
  5
4ED4
  8
243
 10
5.0
 20
-31.5
 30
0.0
 11
5.0
 21
-26.5
 31
0.0
1001
GRPNAME
1000
PASTMD0X
  0
LINE
  5
4ED5
  8
240
 10
19.875
 20
-28.897595259999999
 30
0.0
 11
21.377499069999999
 21
-31.5
 31
0.0
1001
GRPNAME
1000
PASTMD0X
  0
LINE
  5
4ED6
  8
240
 10
16.125
 20
-28.897595259999999
 30
0.0
 11
14.622500929999999
 21
-31.5
 31
0.0
1001
GRPNAME
1000
PASTMD0X
  0
LINE
  5
4ED7
  8
240
 10
19.875
 20
-27.5
 30
0.0
 11
16.125
 21
-27.5
 31
0.0
1001
GRPNAME
1000
PASTMD0X
  0
LINE
  5
4ED8
  8
240
 10
16.125
 20
-27.5
 30
0.0
 11
16.125
 21
-28.897595259999999
 31
0.0
1001
GRPNAME
1000
PASTMD0X
  0
LINE
  5
4ED9
  8
240
 10
19.875
 20
-27.5
 30
0.0
 11
19.875
 21
-28.897595259999999
 31
0.0
1001
GRPNAME
1000
PASTMD0X
  0
LINE
  5
4EDA
  8
240
 10
26.0
 20
-31.5
 30
0.0
 11
26.0
 21
-26.29999999999999
 31
0.0
1001
GRPNAME
1000
PASTMD0X
  0
LINE
  5
4EDB
  8
240
 10
26.0
 20
-31.5
 30
0.0
 11
21.377499069999999
 21
-31.5
 31
0.0
1001
GRPNAME
1000
PASTMD0X
  0
LINE
  5
4EDC
  8
240
 10
14.622500929999999
 20
31.5
 30
0.0
 11
0.0
 21
31.5
 31
0.0
1001
GRPNAME
1000
PASTMD0X
  0
LINE
  5
4EDD
  8
243
 10
26.0
 20
26.5
 30
0.0
 11
5.0
 21
26.5
 31
0.0
1001
GRPNAME
1000
PASTMD0X
  0
LINE
  5
4EDE
  8
241
 10
16.125
 20
20.0
 30
0.0
 11
5.0
 21
20.0
 31
0.0
1001
GRPNAME
1000
PASTMD0X
  0
ARC
  5
4EDF
  8
241
 10
12.1117139
 20
16.336187049999999
 30
0.0
 40
8.0
 50
89.999999990000006
 51
152.74338068
1001
GRPNAME
1000
PASTMD0X
  0
LINE
  5
4EE0
  8
241
 10
0.0
 20
24.215
 30
0.0
 11
0.0
 21
0.0
 31
0.0
1001
GRPNAME
1000
PASTMD0X
  0
LINE
  5
4EE1
  8
241
 10
-2.0
 20
24.215
 30
0.0
 11
-2.0
 21
0.0
 31
0.0
1001
GRPNAME
1000
PASTMD0X
  0
LINE
  5
4EE2
  8
240
 10
-32.0
 20
21.573500939999999
 30
0.0
 11
-32.0
 21
0.0
 31
0.0
1001
GRPNAME
1000
PASTMD0X
  0
LINE
  5
4EE3
  8
240
 10
-2.0
 20
-24.215
 30
0.0
 11
-30.859925140000001
 21
-22.772003739999999
 31
0.0
1001
GRPNAME
1000
PASTMD0X
  0
LINE
  5
4EE4
  8
240
 10
-32.0
 20
-21.573500939999999
 30
0.0
 11
-32.0
 21
0.0
 31
0.0
1001
GRPNAME
1000
PASTMD0X
  0
ARC
  5
4EE5
  8
240
 10
-30.800000000000001
 20
-21.573500939999999
 30
0.0
 40
1.200000000000041
 50
180.00000007999989
 51
267.13759485000003
1001
GRPNAME
1000
PASTMD0X
  0
LINE
  5
4EE6
  8
241
 10
-2.0
 20
-24.215
 30
0.0
 11
-2.0
 21
0.0
 31
0.0
1001
GRPNAME
1000
PASTMD0X
  0
LINE
  5
4EE7
  8
241
 10
0.0
 20
-24.215
 30
0.0
 11
0.0
 21
0.0
 31
0.0
1001
GRPNAME
1000
PASTMD0X
  0
LINE
  5
4EE8
  8
240
 10
-2.0
 20
-24.215
 30
0.0
 11
0.0
 21
-24.215
 31
0.0
  0
LINE
  5
4EE9
  8
243
 10
-6.2449979999999998
 20
20.0
 30
0.0
 11
-16.917564429999999
 21
20.0
 31
0.0
1001
GRPNAME
1000
PASTMD0X
  0
LINE
  5
4EEA
  8
240
 10
-2.0
 20
24.215
 30
0.0
 11
-30.859925140000001
 21
22.772003739999999
 31
0.0
1001
GRPNAME
1000
PASTMD0X
  0
LINE
  5
4EEB
  8
243
 10
-26.0
 20
23.015000000000001
 30
0.0
 11
-26.0
 21
17.0
 31
0.0
1001
GRPNAME
1000
PASTMD0X
  0
ARC
  5
4EEC
  8
240
 10
-30.800000000000001
 20
21.573500939999999
 30
0.0
 40
1.1999999999999891
 50
92.862405229999979
 51
180.0
1001
GRPNAME
1000
PASTMD0X
  0
LINE
  5
4EED
  8
243
 10
-18.996025400000001
 20
17.0
 30
0.0
 11
-32.0
 21
17.0
 31
0.0
1001
GRPNAME
1000
PASTMD0X
  0
LINE
  5
4EEE
  8
243
 10
-18.996025400000001
 20
17.0
 30
0.0
 11
-17.43717968
 21
19.699999999999999
 31
0.0
1001
GRPNAME
1000
PASTMD0X
  0
ARC
  5
4EEF
  8
243
 10
-16.917564429999999
 20
19.399999999999999
 30
0.0
 40
0.6000000000003638
 50
89.999999990000006
 51
149.99999998999999
1001
GRPNAME
1000
PASTMD0X
  0
LINE
  5
4EF0
  8
243
 10
-5.25
 20
24.052499999999998
 30
0.0
 11
-5.25
 21
20.0
 31
0.0
1001
GRPNAME
1000
PASTMD1W
  0
LINE
  5
4EF1
  8
243
 10
-12.75
 20
23.677499999999998
 30
0.0
 11
-12.75
 21
20.0
 31
0.0
1001
GRPNAME
1000
PASTMD1W
  0
ARC
  5
4EF2
  8
243
 10
-6.2449979999999998
 20
12.0
 30
0.0
 40
7.9999999999997771
 50
38.682187259999999
 51
89.999999810000006
1001
GRPNAME
1000
PASTMD0X
  0
LINE
  5
4EF3
  8
243
 10
5.0
 20
31.5
 30
0.0
 11
5.0
 21
26.5
 31
0.0
1001
GRPNAME
1000
PASTMD0X
  0
LINE
  5
4EF4
  8
240
 10
0.0
 20
31.5
 30
0.0
 11
0.0
 21
24.215
 31
0.0
1001
GRPNAME
1000
PASTMD0X
  0
LINE
  5
4EF5
  8
240
 10
-2.0
 20
24.215
 30
0.0
 11
0.0
 21
24.215
 31
0.0
  0
LINE
  5
4EF6
  8
241
 10
21.377499069999999
 20
20.0
 30
0.0
 11
21.377499069999999
 21
0.0
 31
0.0
1001
GRPNAME
1000
PASTMD0X
  0
LINE
  5
4EF7
  8
241
 10
14.622500929999999
 20
20.0
 30
0.0
 11
14.622500929999999
 21
0.0
 31
0.0
1001
GRPNAME
1000
PASTMD0X
  0
LINE
  5
4EF8
  8
241
 10
16.125
 20
27.5
 30
0.0
 11
16.125
 21
0.0
 31
0.0
1001
GRPNAME
1000
PASTMD0X
  0
LINE
  5
4EF9
  8
241
 10
19.875
 20
27.5
 30
0.0
 11
19.875
 21
0.0
 31
0.0
1001
GRPNAME
1000
PASTMD0X
  0
LINE
  5
4EFA
  8
241
 10
25.999999999999989
 20
26.29999999999999
 30
0.0
 11
26.0
 21
-26.29999999999999
 31
0.0
1001
GRPNAME
1000
PASTMD0X
  0
LINE
  5
4EFB
  8
241
 10
21.377499069999999
 20
24.336187049999999
 30
0.0
 11
19.875
 21
20.858355929999998
 31
0.0
1001
GRPNAME
1000
PASTMD0X
  0
LINE
  5
4EFC
  8
241
 10
14.622500929999999
 20
24.336187049999999
 30
0.0
 11
16.125
 21
20.858355929999998
 31
0.0
1001
GRPNAME
1000
PASTMD0X
  0
LINE
  5
4EFD
  8
241
 10
26.0
 20
20.0
 30
0.0
 11
19.875
 21
20.0
 31
0.0
1001
GRPNAME
1000
PASTMD0X
  0
LINE
  5
4EFE
  8
240
 10
19.875
 20
28.897595259999999
 30
0.0
 11
21.377499069999999
 21
31.5
 31
0.0
1001
GRPNAME
1000
PASTMD0X
  0
LINE
  5
4EFF
  8
240
 10
16.125
 20
28.897595259999999
 30
0.0
 11
14.622500929999999
 21
31.5
 31
0.0
1001
GRPNAME
1000
PASTMD0X
  0
LINE
  5
4F00
  8
241
 10
14.622500929999999
 20
31.5
 30
0.0
 11
14.622500929999999
 21
24.336187049999999
 31
0.0
1001
GRPNAME
1000
PASTMD0X
  0
LINE
  5
4F01
  8
241
 10
14.622500929999999
 20
24.336187049999999
 30
0.0
 11
12.1117139
 21
24.336187049999999
 31
0.0
1001
GRPNAME
1000
PASTMD0X
  0
LINE
  5
4F02
  8
240
 10
19.875
 20
27.5
 30
0.0
 11
16.125
 21
27.5
 31
0.0
1001
GRPNAME
1000
PASTMD0X
  0
LINE
  5
4F03
  8
240
 10
16.125
 20
27.5
 30
0.0
 11
16.125
 21
28.897595259999999
 31
0.0
1001
GRPNAME
1000
PASTMD0X
  0
LINE
  5
4F04
  8
240
 10
19.875
 20
27.5
 30
0.0
 11
19.875
 21
28.897595259999999
 31
0.0
1001
GRPNAME
1000
PASTMD0X
  0
ARC
  5
4F05
  8
240
 10
25.5
 20
31.0
 30
0.0
 40
0.5
 50
0.0
 51
90.0
1001
GRPNAME
1000
PASTMD0X
  0
LINE
  5
4F06
  8
241
 10
21.377499069999999
 20
31.5
 30
0.0
 11
21.377499069999999
 21
24.336187049999999
 31
0.0
1001
GRPNAME
1000
PASTMD0X
  0
LINE
  5
4F07
  8
240
 10
26.0
 20
31.0
 30
0.0
 11
25.999999999999989
 21
26.29999999999999
 31
0.0
1001
GRPNAME
1000
PASTMD0X
  0
LINE
  5
4F08
  8
241
 10
26.0
 20
24.336187049999999
 30
0.0
 11
21.377499069999999
 21
24.336187049999999
 31
0.0
1001
GRPNAME
1000
PASTMD0X
  0
LINE
  5
4F09
  8
240
 10
25.5
 20
31.5
 30
0.0
 11
21.377499069999999
 21
31.5
 31
0.0
1001
GRPNAME
1000
PASTMD0X
  0
LINE
  5
4F11
  8
250
 10
144.9999999999996
 20
20.422649730810321
 30
0.0
 11
144.9999999999996
 21
56.999999999999517
 31
0.0
  0
LINE
  5
4F12
  8
250
 10
59.999999999999282
 20
11.000000000000069
 30
0.0
 11
59.999999999999282
 21
56.999999999999517
 31
0.0
  0
LINE
  5
4F13
  8
250
 10
142.76999999999961
 20
55.99999999999951
 30
0.0
 11
62.229999999999279
 21
55.99999999999951
 31
0.0
  0
LINE
  5
4F17
  8
250
 10
144.9999999999996
 20
20.422649730810321
 30
0.0
 11
144.9999999999996
 21
49.999999999999659
 31
0.0
  0
LINE
  5
4F18
  8
250
 10
100.36602540378389
 20
10.49999999999801
 30
0.0
 11
100.36602540378389
 21
49.999999999999659
 31
0.0
  0
LINE
  5
4F19
  8
250
 10
142.76999999999961
 20
48.999999999999659
 30
0.0
 11
102.5960254037839
 21
48.999999999999659
 31
0.0
  0
LINE
  5
4F1D
  8
250
 10
-0.0000000000033898
 20
31.499999999926551
 30
0.0
 11
-0.0000000000033878
 21
64.0
 31
0.0
  0
LINE
  5
4F1E
  8
250
 10
144.99999999999761
 20
20.422649730818911
 30
0.0
 11
144.99999999999761
 21
64.0
 31
0.0
  0
LINE
  5
4F1F
  8
250
 10
2.229999999996612
 20
63.0
 30
0.0
 11
142.76999999999759
 21
63.0
 31
0.0
  0
LINE
  5
4F23
  8
250
 10
145.4999999999996
 20
10.00000000000003
 30
0.0
 11
157.9999999999996
 21
10.00000000000002
 31
0.0
  0
LINE
  5
4F24
  8
250
 10
145.4999999999996
 20
-10.0
 30
0.0
 11
157.9999999999996
 21
-10.0
 31
0.0
  0
LINE
  5
4F25
  8
250
 10
156.9999999999996
 20
7.7700000000000253
 30
0.0
 11
156.9999999999996
 21
-7.7700000000000022
 31
0.0
  0
LINE
  5
4F29
  8
250
 10
105.4999999999981
 20
25.35000000000079
 30
0.0
 11
165.2513460676191
 21
25.350000000000779
 31
0.0
  0
LINE
  5
4F2A
  8
250
 10
105.49999999997701
 20
-25.35000000000014
 30
0.0
 11
165.2513460676191
 21
-25.350000000000151
 31
0.0
  0
LINE
  5
4F2B
  8
250
 10
164.2513460676191
 20
23.120000000000768
 30
0.0
 11
164.2513460676191
 21
-23.12000000000015
 31
0.0
  0
TEXT
  5
4F2F
  8
250
 10
-45.037048733333322
 20
-30.833453089999999
 30
0.0
 40
2.799999999999998
  1
HSK-A63
  7
YOKO
1001
ITEMNAME
1000
LNSP3
  0
TEXT
  5
4F32
  8
250
 10
91.633333333332814
 20
56.999999999999517
 30
0.0
 40
2.7999999999999989
  1
最大挿入量85
  0
LINE
  5
4F33
  8
250
 10
62.229999999999279
 20
55.62833333333284
 30
0.0
 11
59.999999999999282
 21
55.99999999999951
 31
0.0
  0
LINE
  5
4F34
  8
250
 10
62.229999999999279
 20
56.371666666666187
 30
0.0
 11
59.999999999999282
 21
55.99999999999951
 31
0.0
  0
LINE
  5
4F35
  8
250
 10
59.999999999999282
 20
55.99999999999951
 30
0.0
 11
62.229999999999279
 21
55.99999999999951
 31
0.0
  0
LINE
  5
4F36
  8
250
 10
142.76999999999961
 20
56.371666666666187
 30
0.0
 11
144.9999999999996
 21
55.99999999999951
 31
0.0
  0
LINE
  5
4F37
  8
250
 10
142.76999999999961
 20
55.62833333333284
 30
0.0
 11
144.9999999999996
 21
55.99999999999951
 31
0.0
  0
LINE
  5
4F38
  8
250
 10
144.9999999999996
 20
55.99999999999951
 30
0.0
 11
142.76999999999961
 21
55.99999999999951
 31
0.0
  0
TEXT
  5
4F39
  8
250
 10
111.8163460352251
 20
49.999999999999659
 30
0.0
 40
2.7999999999999989
  1
最低把握長45
  0
LINE
  5
4F3A
  8
250
 10
102.5960254037839
 20
48.628333333332982
 30
0.0
 11
100.36602540378389
 21
48.999999999999659
 31
0.0
  0
LINE
  5
4F3B
  8
250
 10
102.5960254037839
 20
49.371666666666329
 30
0.0
 11
100.36602540378389
 21
48.999999999999659
 31
0.0
  0
LINE
  5
4F3C
  8
250
 10
100.36602540378389
 20
48.999999999999659
 30
0.0
 11
102.5960254037839
 21
48.999999999999659
 31
0.0
  0
LINE
  5
4F3D
  8
250
 10
142.76999999999961
 20
49.371666666666329
 30
0.0
 11
144.9999999999996
 21
48.999999999999659
 31
0.0
  0
LINE
  5
4F3E
  8
250
 10
142.76999999999961
 20
48.628333333332982
 30
0.0
 11
144.9999999999996
 21
48.999999999999659
 31
0.0
  0
LINE
  5
4F3F
  8
250
 10
144.9999999999996
 20
48.999999999999659
 30
0.0
 11
142.76999999999961
 21
48.999999999999659
 31
0.0
  0
TEXT
  5
4F40
  8
250
 10
68.299999999997112
 20
64.000000000000014
 30
0.0
 40
2.7999999999999989
  1
145
  0
LINE
  5
4F41
  8
250
 10
142.76999999999759
 20
63.37166666666667
 30
0.0
 11
144.99999999999761
 21
63.0
 31
0.0
  0
LINE
  5
4F42
  8
250
 10
142.76999999999759
 20
62.62833333333333
 30
0.0
 11
144.99999999999761
 21
63.0
 31
0.0
  0
LINE
  5
4F43
  8
250
 10
144.99999999999761
 20
63.0
 30
0.0
 11
142.76999999999759
 21
63.0
 31
0.0
  0
LINE
  5
4F44
  8
250
 10
2.229999999996612
 20
62.62833333333333
 30
0.0
 11
-0.0000000000033878
 21
63.0
 31
0.0
  0
LINE
  5
4F45
  8
250
 10
2.229999999996612
 20
63.37166666666667
 30
0.0
 11
-0.0000000000033878
 21
63.0
 31
0.0
  0
LINE
  5
4F46
  8
250
 10
-0.0000000000033878
 20
63.0
 30
0.0
 11
2.229999999996612
 21
63.0
 31
0.0
  0
LINE
  5
4F47
  8
250
 10
157.3716666666663
 20
-7.7700000000000031
 30
0.0
 11
156.9999999999996
 21
-10.0
 31
0.0
  0
LINE
  5
4F48
  8
250
 10
156.62833333333299
 20
-7.7700000000000031
 30
0.0
 11
156.9999999999996
 21
-10.0
 31
0.0
  0
LINE
  5
4F49
  8
250
 10
156.9999999999996
 20
-10.0
 30
0.0
 11
156.9999999999996
 21
-7.7700000000000031
 31
0.0
  0
LINE
  5
4F4A
  8
250
 10
156.62833333333299
 20
7.7700000000000244
 30
0.0
 11
156.9999999999996
 21
10.00000000000002
 31
0.0
  0
LINE
  5
4F4B
  8
250
 10
157.3716666666663
 20
7.7700000000000244
 30
0.0
 11
156.9999999999996
 21
10.00000000000002
 31
0.0
  0
LINE
  5
4F4C
  8
250
 10
156.9999999999996
 20
10.00000000000002
 30
0.0
 11
156.9999999999996
 21
7.7700000000000244
 31
0.0
  0
TEXT
  5
4F4D
  8
250
 10
163.2513460676191
 20
-5.9333333333329943
 30
0.0
 40
2.7999999999999989
  1
\U+220550.7
 50
90.0
  0
LINE
  5
4F4E
  8
250
 10
164.62301273428579
 20
-23.12000000000015
 30
0.0
 11
164.2513460676191
 21
-25.350000000000151
 31
0.0
  0
LINE
  5
4F4F
  8
250
 10
163.8796794009524
 20
-23.12000000000015
 30
0.0
 11
164.2513460676191
 21
-25.350000000000151
 31
0.0
  0
LINE
  5
4F50
  8
250
 10
164.2513460676191
 20
-25.350000000000151
 30
0.0
 11
164.2513460676191
 21
-23.12000000000015
 31
0.0
  0
LINE
  5
4F51
  8
250
 10
163.8796794009524
 20
23.120000000000768
 30
0.0
 11
164.2513460676191
 21
25.350000000000779
 31
0.0
  0
LINE
  5
4F52
  8
250
 10
164.62301273428579
 20
23.120000000000768
 30
0.0
 11
164.2513460676191
 21
25.350000000000779
 31
0.0
  0
LINE
  5
4F53
  8
250
 10
164.2513460676191
 20
25.350000000000779
 30
0.0
 11
164.2513460676191
 21
23.120000000000768
 31
0.0
  0
TEXT
  5
4F54
  8
250
 10
155.9999999999996
 20
-3.9333333333332958
 30
0.0
 40
2.7999999999999989
  1
\U+220520
 50
90.0
  0
LINE
  5
4F55
  8
250
 10
-19.286696129993778
 20
-25.337651840442891
 30
0.0
 11
-23.037048729999999
 21
-31.833453089999999
 31
0.0
1001
ACAD
1000
DSTYLE
1002
{
1070
     6
1000
OPEN
1070
   343
1005
594
1002
}
  0
LINE
  5
4F56
  8
250
 10
-19.608568905067589
 20
-25.15181850711059
 30
0.0
 11
-18.171696130000001
 21
-23.406415190000001
 31
0.0
  0
LINE
  5
4F57
  8
250
 10
-18.964823354919972
 20
-25.523485173775189
 30
0.0
 11
-18.171696130000001
 21
-23.406415190000001
 31
0.0
  0
LINE
  5
4F58
  8
250
 10
-18.171696130000001
 20
-23.406415190000001
 30
0.0
 11
-19.286696129993778
 21
-25.337651840442891
 31
0.0
  0
VIEWPORT
  5
22
 67
     1
  8
0
 10
261.51769911504419
 20
148.5
 30
0.0
 40
523.0353982300885
 41
297.0
 68
     1
 69
     1
1001
ACAD
1000
MVIEW
1002
{
1070
    16
1010
0.0
1020
0.0
1030
0.0
1010
0.0
1020
0.0
1030
1.0
1040
0.0
1040
297.0
1040
261.51769911504419
1040
148.5
1040
50.0
1040
0.0
1040
0.0
1070
     0
1070
   100
1070
     1
1070
     1
1070
     0
1070
     0
1070
     0
1070
     0
1040
0.0
1040
0.0
1040
0.0
1040
1.0
1040
1.0
1040
10.0
1040
10.0
1070
     0
1002
{
1002
}
1002
}
1001
GENIUS_GENODEF_13
1002
{
1000
HIER
1070
     0
1002
}
1002
{
1000
MANEDIT
1070
     0
1002
}
1002
{
1000
NOSEL
1070
     0
1002
}
1002
{
1000
BEHIND
1070
     0
1002
}
1002
{
1000
OTHER
1070
     0
1002
}
1002
{
1000
REACTOR
1002
}
1001
GENIUS_GENOBJ-N-SDF_13
1002
{
1000
OWNER
1000
GEN
1002
}
1001
GENIUS_GENSCREG_15
1000
PF
1040
1.0
1000
DF
1040
1.0
1000
MIN
1011
0.0
1021
0.0
1031
0.0
1021
0.0
1031
0.0
1000
MAX
1011
523.0353982300885
1021
0.0
1031
0.0
1021
297.0
1031
0.0
1000
FLAGS
1070
     4
  0
ENDSEC
  0
EOF
