  0
SECTION
  2
HEADER
  9
$ACADVER
  1
AC1009
  9
$INSBASE
 10
0.0
 20
0.0
 30
0.0
  9
$EXTMIN
 10
-47.838889869785127
 20
-37.000000000000043
 30
0.0
  9
$EXTMAX
 10
276.00000000000068
 20
94.499999999999972
 30
0.0
  9
$LIMMIN
 10
0.0
 20
0.0
  9
$LIMMAX
 10
420.0
 20
297.0
  9
$ORTHOMODE
 70
     0
  9
$REGENMODE
 70
     1
  9
$FILLMODE
 70
     1
  9
$QTEXTMODE
 70
     0
  9
$MIRRTEXT
 70
     0
  9
$DRAGMODE
 70
     2
  9
$LTSCALE
 40
23.100000000000001
  9
$OSMODE
 70
    37
  9
$ATTMODE
 70
     1
  9
$TEXTSIZE
 40
0.2
  9
$TRACEWID
 40
0.05
  9
$TEXTSTYLE
  7
STANDARD
  9
$CLAYER
  8
1
  9
$CELTYPE
  6
BYLAYER
  9
$CECOLOR
 62
   256
  9
$DIMSCALE
 40
1.0
  9
$DIMASZ
 40
3.5
  9
$DIMEXO
 40
1.0
  9
$DIMDLI
 40
15.960000000000001
  9
$DIMRND
 40
0.0
  9
$DIMDLE
 40
0.0
  9
$DIMEXE
 40
1.5
  9
$DIMTP
 40
0.01
  9
$DIMTM
 40
0.01
  9
$DIMTXT
 40
3.5
  9
$DIMCEN
 40
3.779999999999998
  9
$DIMTSZ
 40
0.0
  9
$DIMTOL
 70
     1
  9
$DIMLIM
 70
     0
  9
$DIMTIH
 70
     1
  9
$DIMTOH
 70
     1
  9
$DIMSE1
 70
     0
  9
$DIMSE2
 70
     0
  9
$DIMTAD
 70
     0
  9
$DIMZIN
 70
     0
  9
$DIMBLK
  1
_FILLED
  9
$DIMASO
 70
     1
  9
$DIMSHO
 70
     1
  9
$DIMPOST
  1

  9
$DIMAPOST
  1

  9
$DIMALT
 70
     0
  9
$DIMALTD
 70
     2
  9
$DIMALTF
 40
25.399999999999999
  9
$DIMLFAC
 40
1.0
  9
$DIMTOFL
 70
     0
  9
$DIMTVP
 40
0.0
  9
$DIMTIX
 70
     0
  9
$DIMSOXD
 70
     0
  9
$DIMSAH
 70
     0
  9
$DIMBLK1
  1

  9
$DIMBLK2
  1

  9
$DIMSTYLE
  2
STANDARD
  9
$DIMCLRD
 70
     0
  9
$DIMCLRE
 70
     0
  9
$DIMCLRT
 70
     0
  9
$DIMTFAC
 40
1.0
  9
$DIMGAP
 40
0.625
  9
$LUNITS
 70
     2
  9
$LUPREC
 70
     2
  9
$SKETCHINC
 40
0.1
  9
$FILLETRAD
 40
0.0
  9
$AUNITS
 70
     0
  9
$AUPREC
 70
     0
  9
$MENU
  1
.
  9
$ELEVATION
 40
0.0
  9
$PELEVATION
 40
0.0
  9
$THICKNESS
 40
0.0
  9
$LIMCHECK
 70
     0
  9
$BLIPMODE
 70
     0
  9
$CHAMFERA
 40
0.0
  9
$CHAMFERB
 40
0.0
  9
$SKPOLY
 70
     0
  9
$TDCREATE
 40
2458360.6444212971
  9
$TDUPDATE
 40
2460700.452615011
  9
$TDINDWG
 40
0.0253459028
  9
$TDUSRTIMER
 40
0.0253457986
  9
$USRTIMER
 70
     1
  9
$ANGBASE
 50
0.0
  9
$ANGDIR
 70
     0
  9
$PDMODE
 70
     3
  9
$PDSIZE
 40
8.0
  9
$PLINEWID
 40
0.0
  9
$COORDS
 70
     1
  9
$SPLFRAME
 70
     0
  9
$SPLINETYPE
 70
     6
  9
$SPLINESEGS
 70
     8
  9
$ATTDIA
 70
     1
  9
$ATTREQ
 70
     1
  9
$HANDLING
 70
     1
  9
$HANDSEED
  5
E4B
  9
$SURFTAB1
 70
     6
  9
$SURFTAB2
 70
     6
  9
$SURFTYPE
 70
     6
  9
$SURFU
 70
     6
  9
$SURFV
 70
     6
  9
$UCSNAME
  2

  9
$UCSORG
 10
0.0
 20
0.0
 30
0.0
  9
$UCSXDIR
 10
1.0
 20
0.0
 30
0.0
  9
$UCSYDIR
 10
0.0
 20
1.0
 30
0.0
  9
$PUCSNAME
  2

  9
$PUCSORG
 10
0.0
 20
0.0
 30
0.0
  9
$PUCSXDIR
 10
1.0
 20
0.0
 30
0.0
  9
$PUCSYDIR
 10
0.0
 20
1.0
 30
0.0
  9
$USERI1
 70
     0
  9
$USERI2
 70
     0
  9
$USERI3
 70
     0
  9
$USERI4
 70
     0
  9
$USERI5
 70
     0
  9
$USERR1
 40
0.0
  9
$USERR2
 40
0.0
  9
$USERR3
 40
0.0
  9
$USERR4
 40
0.0
  9
$USERR5
 40
0.0
  9
$WORLDVIEW
 70
     1
  9
$SHADEDGE
 70
     3
  9
$SHADEDIF
 70
    70
  9
$TILEMODE
 70
     1
  9
$MAXACTVP
 70
    64
  9
$PLIMCHECK
 70
     0
  9
$PEXTMIN
 10
1.0000000000000000E+020
 20
1.0000000000000000E+020
 30
1.0000000000000000E+020
  9
$PEXTMAX
 10
-1.0000000000000000E+020
 20
-1.0000000000000000E+020
 30
-1.0000000000000000E+020
  9
$PLIMMIN
 10
0.0
 20
0.0
  9
$PLIMMAX
 10
12.0
 20
9.0
  9
$UNITMODE
 70
     0
  9
$VISRETAIN
 70
     1
  9
$PLINEGEN
 70
     0
  9
$PSLTSCALE
 70
     1
  0
ENDSEC
  0
SECTION
  2
TABLES
  0
TABLE
  2
VPORT
 70
     1
  0
VPORT
  2
*ACTIVE
 70
     0
 10
0.0
 20
0.0
 11
1.0
 21
1.0
 12
52.236070111452079
 22
24.679115990118088
 13
0.0
 23
0.0
 14
1.0
 24
1.0
 15
0.0
 25
0.0
 16
0.0
 26
0.0
 36
1.0
 17
0.0
 27
0.0
 37
0.0
 40
190.47144528402819
 41
1.776785714285714
 42
50.0
 43
0.0
 44
0.0
 50
0.0
 51
0.0
 71
     0
 72
   100
 73
     1
 74
     1
 75
     1
 76
     1
 77
     0
 78
     0
  0
ENDTAB
  0
TABLE
  2
LTYPE
 70
    21
  0
LTYPE
  2
CONTINUOUS
 70
     0
  3
Solid line
 72
    65
 73
     0
 40
0.0
  0
LTYPE
  2
CENTER
 70
     0
  3
____ _ ____ _ ____ _ ____ _ ____ _ ____ _ ____
 72
    65
 73
     4
 40
0.6
 49
0.375
 49
-0.075
 49
0.075
 49
-0.075
  0
LTYPE
  2
DASHED
 70
     0
  3
- - - - - - - - - - - - - - - - - - - -
 72
    65
 73
     2
 40
0.2
 49
0.1
 49
-0.1
  0
LTYPE
  2
AMCONSTR
 70
     0
  3
_______________________
 72
    65
 73
     2
 40
9999.0
 49
9999.0
 49
0.0
  0
LTYPE
  2
HIDDEN
 70
     0
  3
Hidden __ __ __ __ __ __ __ __ __ __ __ __ __ _
 72
    65
 73
     2
 40
0.375
 49
0.25
 49
-0.125
  0
LTYPE
  2
PHANTOM2
 70
     0
  3
Phantom (.5x) ___ _ _ ___ _ _ ___ _ _ ___ _ _
 72
    65
 73
     6
 40
1.25
 49
0.625
 49
-0.125
 49
0.125
 49
-0.125
 49
0.125
 49
-0.125
  0
LTYPE
  2
CENTER2
 70
     0
  3
Center (.5x) ___ _ ___ _ ___ _ ___ _ ___ _ ___
 72
    65
 73
     4
 40
1.125
 49
0.75
 49
-0.125
 49
0.125
 49
-0.125
  0
LTYPE
  2
HIDDEN2
 70
     0
  3
Hidden (.5x) _ _ _ _ _ _ _ _ _ _ _ _ _ _ _ _ _
 72
    65
 73
     2
 40
0.1875
 49
0.125
 49
-0.0625
  0
LTYPE
  2
AMZIGZAG2
 70
     0
  3
/\/-/\/-/\/-/\/-/\/-/\/
 72
    65
 73
     2
 40
0.4401
 49
0.0001
 49
-0.4400000000000003
  0
LTYPE
  2
ACANSTGB
 70
     0
  3
__ . . __ . .
 72
    65
 73
     6
 40
0.35433070866
 49
0.15748031496
 49
-0.03937007874
 49
0.03937007874
 49
-0.03937007874
 49
0.03937007874
 49
-0.03937007874
  0
LTYPE
  2
ACANSTGL
 70
     0
  3
_ _ _ _ _
 72
    65
 73
     2
 40
0.11811023622
 49
0.07874015748
 49
-0.03937007874
  0
ENDTAB
  0
TABLE
  2
LAYER
 70
    21
  0
LAYER
  2
0
 70
     0
 62
     7
  6
CONTINUOUS
  0
LAYER
  2
1
 70
     0
 62
     4
  6
CONTINUOUS
  0
LAYER
  2
2
 70
     0
 62
     7
  6
CONTINUOUS
  0
LAYER
  2
3
 70
     0
 62
     1
  6
DASHED
  0
LAYER
  2
4
 70
     0
 62
     2
  6
CENTER
  0
LAYER
  2
6
 70
     0
 62
     5
  6
CONTINUOUS
  0
LAYER
  2
NOCUT
 70
     0
 62
     7
  6
CONTINUOUS
  0
LAYER
  2
SK1
 70
     0
 62
     4
  6
CONTINUOUS
  0
LAYER
  2
SK3
 70
     0
 62
     1
  6
DASHED
  0
LAYER
  2
SK4
 70
     0
 62
     2
  6
CENTER
  0
LAYER
  2
DEFPOINTS
 70
     0
 62
     7
  6
CONTINUOUS
  0
LAYER
  2
SK6
 70
     0
 62
     5
  6
CONTINUOUS
  0
ENDTAB
  0
TABLE
  2
STYLE
 70
     7
  0
STYLE
  2
STANDARD
 70
     0
 40
0.0
 41
0.85
 50
0.0
 71
     0
 42
0.2
  3
txt
  4

  0
STYLE
  2
ACANSGDT
 70
     0
 40
0.0
 41
1.0
 50
0.0
 71
     0
 42
0.2
  3
amgdt.shx
  4

  0
STYLE
  2
YOKO
 70
     0
 40
0.0
 41
1.0
 50
0.0
 71
     0
 42
3.0
  3
romans.shx
  4
extfont.shx
  0
ENDTAB
  0
TABLE
  2
VIEW
 70
     0
  0
ENDTAB
  0
TABLE
  2
UCS
 70
     0
  0
ENDTAB
  0
TABLE
  2
APPID
 70
    20
  0
APPID
  2
ACAD
 70
     0
  0
APPID
  2
ACADANNOTATIVE
 70
     0
  0
APPID
  2
MCAD_NO_VIS
 70
     0
  0
APPID
  2
ACAD_TEMP_GRAPHIC
 70
     0
  0
APPID
  2
ACATTRIBSERVICES
 70
     0
  0
APPID
  2
DESIGNERASSEMBLIES
 70
     0
  0
APPID
  2
ACAD_DSTYLE_DIMJAG
 70
     0
  0
APPID
  2
ACAD_DSTYLE_DIMBREAK
 70
     0
  0
APPID
  2
ACAD_NAV_VCDISPLAY
 70
     0
  0
APPID
  2
ACAD_MLEADERVER
 70
     0
  0
APPID
  2
ACAD_DSTYLE_DIMARC_LENGTH_
 70
     0
  0
APPID
  2
ACAD_DSTYLE_DIM_LINETYPE
 70
     0
  0
APPID
  2
ACAD_DSTYLE_DIM_EXT1_LINETYPE
 70
     0
  0
APPID
  2
ACAD_DSTYLE_DIM_EXT2_LINETYPE
 70
     0
  0
APPID
  2
ACAECLAYERSTANDARD
 70
     0
  0
APPID
  2
GENIUS_GENODEF_13
 70
     0
  0
APPID
  2
ITEMNAME
 70
     0
  0
APPID
  2
GENIUS_GENOBJ-N-FIL_13
 70
     0
  0
APPID
  2
ACAD_PSEXT
 70
     0
  0
APPID
  2
ASK_MEN_XD
 70
     0
  0
ENDTAB
  0
TABLE
  2
DIMSTYLE
 70
    20
  0
DIMSTYLE
  2
STANDARD
 70
     0
  3

  4

  5

  6

  7

 40
1.0
 41
3.5
 42
1.0
 43
0.38
 44
1.5
 45
0.0
 46
0.0
 47
0.01
 48
0.01
140
3.5
141
0.09
142
0.0
143
25.399999999999999
144
1.0
145
0.0
146
1.0
147
0.625
 71
     1
 72
     0
 73
     0
 74
     0
 75
     0
 76
     0
 77
     1
 78
     8
170
     0
171
     1
172
     0
173
     0
174
     0
175
     0
176
     0
177
     0
178
     0
  0
DIMSTYLE
  2
AM_ANSI
 70
     0
  3

  4
mm
  5

  6

  7

 40
1.0
 41
0.12
 42
0.05
 43
0.5
 44
0.1
 45
0.0
 46
0.0
 47
0.1
 48
0.1
140
0.12
141
0.0
142
0.0
143
25.399999999999999
144
1.0
145
0.0
146
0.71
147
0.06
 71
     0
 72
     0
 73
     1
 74
     1
 75
     0
 76
     0
 77
     0
 78
     7
170
     0
171
     2
172
     0
173
     0
174
     0
175
     0
176
   256
177
   256
178
     2
  0
DIMSTYLE
  2
AM_ANSI$3
 70
     0
  3

  4
mm
  5

  6

  7

 40
1.0
 41
0.12
 42
0.05
 43
0.5
 44
0.1
 45
0.0
 46
0.0
 47
0.1
 48
0.1
140
0.12
141
0.0
142
0.0
143
25.399999999999999
144
1.0
145
0.0
146
0.71
147
0.06
 71
     0
 72
     0
 73
     1
 74
     1
 75
     0
 76
     0
 77
     0
 78
     7
170
     0
171
     2
172
     0
173
     0
174
     0
175
     0
176
   256
177
   256
178
     2
  0
DIMSTYLE
  2
AM_ANSI$4
 70
     0
  3

  4
mm
  5

  6

  7

 40
1.0
 41
0.12
 42
0.05
 43
0.5
 44
0.1
 45
0.0
 46
0.0
 47
0.1
 48
0.1
140
0.12
141
0.0
142
0.0
143
25.399999999999999
144
1.0
145
0.0
146
0.71
147
0.06
 71
     0
 72
     0
 73
     1
 74
     1
 75
     0
 76
     0
 77
     0
 78
     7
170
     0
171
     2
172
     0
173
     0
174
     0
175
     0
176
   256
177
   256
178
     2
  0
DIMSTYLE
  2
AM_ANSI$7
 70
     0
  3

  4
mm
  5

  6

  7

 40
1.0
 41
0.12
 42
0.05
 43
0.5
 44
0.1
 45
0.0
 46
0.0
 47
0.1
 48
0.1
140
0.12
141
0.0
142
0.0
143
25.399999999999999
144
1.0
145
0.0
146
0.71
147
0.06
 71
     0
 72
     0
 73
     1
 74
     1
 75
     0
 76
     0
 77
     0
 78
     7
170
     0
171
     2
172
     0
173
     0
174
     0
175
     0
176
   256
177
   256
178
     2
  0
DIMSTYLE
  2
AM_ANSI$SF
 70
     0
  3

  4
mm
  5

  6

  7

 40
1.0
 41
0.12
 42
0.05
 43
0.5
 44
0.1
 45
0.0
 46
0.0
 47
0.1
 48
0.1
140
0.12
141
0.0
142
0.0
143
25.399999999999999
144
1.0
145
0.0
146
0.71
147
0.06
 71
     0
 72
     0
 73
     1
 74
     1
 75
     1
 76
     1
 77
     0
 78
     7
170
     0
171
     2
172
     0
173
     0
174
     0
175
     0
176
   256
177
   256
178
     2
  0
DIMSTYLE
  2
AM_ANSI$SH
 70
     0
  3

  4
mm
  5

  6

  7

 40
1.0
 41
0.12
 42
0.05
 43
0.5
 44
0.1
 45
0.0
 46
0.0
 47
0.1
 48
0.1
140
0.12
141
0.0
142
0.0
143
25.399999999999999
144
1.0
145
0.0
146
0.71
147
0.06
 71
     0
 72
     0
 73
     1
 74
     1
 75
     1
 76
     1
 77
     0
 78
     7
170
     0
171
     2
172
     0
173
     1
174
     0
175
     0
176
   256
177
   256
178
     2
  0
ENDTAB
  0
ENDSEC
  0
SECTION
  2
BLOCKS
  0
BLOCK
  8
0
  2
$MODEL_SPACE
 70
     0
 10
0.0
 20
0.0
 30
0.0
  3
$MODEL_SPACE
  1

  0
ENDBLK
  5
ABC
  8
0
  0
BLOCK
 67
     1
  8
0
  2
$PAPER_SPACE
 70
     0
 10
0.0
 20
0.0
 30
0.0
  3
$PAPER_SPACE
  1

  0
ENDBLK
  5
AB8
 67
     1
  8
0
  0
BLOCK
  8
0
  2
_FILLED
 70
     0
 10
0.0
 20
0.0
 30
0.0
  3
_FILLED
  1

  0
SOLID
  5
215
  8
0
  6
BYBLOCK
 62
     0
 10
0.0
 20
0.0
 30
0.0
 11
-1.0
 21
0.2142857143
 31
0.0
 12
-1.0
 22
-0.2142857143
 32
0.0
 13
-1.0
 23
-0.2142857143
 33
0.0
  0
ENDBLK
  5
216
  8
0
  6
BYBLOCK
 62
     0
  0
BLOCK
  8
0
  2
_ACMFILLEDHALF
 70
     0
 10
0.0
 20
0.0
 30
0.0
  3
_ACMFILLEDHALF
  1

  0
TRACE
  5
679
  8
0
 62
     0
 10
-0.8
 20
0.0
 30
0.0
 11
-1.0
 21
0.166666666
 31
0.0
 12
0.0
 22
0.0
 32
0.0
 13
0.0
 23
0.0
 33
0.0
  0
LINE
  5
67A
  8
0
 62
     0
 10
-1.0
 20
0.0
 30
0.0
 11
-0.8
 21
0.0
 31
0.0
  0
ENDBLK
  5
678
  8
0
  0
BLOCK
  8
0
  2
_OPEN
 70
     0
 10
0.0
 20
0.0
 30
0.0
  3
_OPEN
  1

  0
LINE
  5
C40
  8
0
  6
BYBLOCK
 62
     0
 10
-1.0
 20
0.1666666666666666
 30
0.0
 11
0.0
 21
0.0
 31
0.0
  0
LINE
  5
C41
  8
0
  6
BYBLOCK
 62
     0
 10
-1.0
 20
-0.1666666666666666
 30
0.0
 11
0.0
 21
0.0
 31
0.0
  0
LINE
  5
C42
  8
0
  6
BYBLOCK
 62
     0
 10
0.0
 20
0.0
 30
0.0
 11
-1.0
 21
0.0
 31
0.0
  0
ENDBLK
  5
C43
  8
0
  0
BLOCK
  8
0
  2
*U21
 70
     1
 10
0.0
 20
0.0
 30
0.0
  3
*U21
  1

  0
TEXT
  5
E21
  8
1
 10
52.127518939394001
 20
64.167045454545459
 30
0.0
 40
2.799999999999998
  1
üi
 41
0.85
  0
TEXT
  5
E22
  8
1
 10
53.858428030303102
 20
64.167045454545459
 30
0.0
 40
2.799999999999998
  1
max.70
 41
0.85
  0
TEXT
  5
E23
  8
1
 10
66.155094696969755
 20
64.167045454545459
 30
0.0
 40
2.799999999999998
  1
üj
 41
0.85
  0
ENDBLK
  5
E25
  8
0
  0
BLOCK
  8
0
  2
*U22
 70
     1
 10
0.0
 20
0.0
 30
0.0
  3
*U22
  1

  0
TEXT
  5
E27
  8
1
 10
45.516666666666403
 20
71.000000000000028
 30
0.0
 40
2.799999999999998
  1
95
 41
0.85
  0
ENDBLK
  5
E29
  8
0
  0
BLOCK
  8
0
  2
*U23
 70
     1
 10
0.0
 20
0.0
 30
0.0
  3
*U23
  1

  0
TEXT
  5
E2E
  8
1
 10
110.9999999999999
 20
-2.7766666666666371
 30
0.0
 40
2.7999999999999989
  1
\U+2205
 50
90.0
 41
0.85
  0
TEXT
  5
E2F
  8
1
 10
110.9999999999999
 20
-0.3966666666666376
 30
0.0
 40
2.799999999999998
  1
31
 50
90.0
 41
0.85
  0
ENDBLK
  5
E31
  8
0
  0
BLOCK
  8
0
  2
*U24
 70
     1
 10
0.0
 20
0.0
 30
0.0
  3
*U24
  1

  0
TEXT
  5
E33
  8
1
 10
118.0
 20
-3.173333333333304
 30
0.0
 40
2.7999999999999989
  1
\U+2205
 50
90.0
 41
0.85
  0
TEXT
  5
E34
  8
1
 10
118.0
 20
-0.7933333333333043
 30
0.0
 40
2.799999999999998
  1
63
 50
90.0
 41
0.85
  0
ENDBLK
  5
E36
  8
0
  0
BLOCK
  8
0
  2
*U25
 70
     1
 10
0.0
 20
0.0
 30
0.0
  3
*U25
  1

  0
TEXT
  5
E38
  8
2
 10
45.516666666666403
 20
71.000000000000028
 30
0.0
 40
2.799999999999998
  1
95
 41
0.85
  0
ENDBLK
  5
E3A
  8
0
  0
BLOCK
  8
0
  2
*U26
 70
     1
 10
0.0
 20
0.0
 30
0.0
  3
*U26
  1

  0
TEXT
  5
E3F
  8
2
 10
110.9999999999999
 20
-2.7766666666666371
 30
0.0
 40
2.7999999999999989
  1
\U+2205
 50
90.0
 41
0.85
  0
TEXT
  5
E40
  8
2
 10
110.9999999999999
 20
-0.3966666666666376
 30
0.0
 40
2.799999999999998
  1
31
 50
90.0
 41
0.85
  0
ENDBLK
  5
E42
  8
0
  0
BLOCK
  8
0
  2
*U27
 70
     1
 10
0.0
 20
0.0
 30
0.0
  3
*U27
  1

  0
TEXT
  5
E44
  8
2
 10
118.0
 20
-3.173333333333304
 30
0.0
 40
2.7999999999999989
  1
\U+2205
 50
90.0
 41
0.85
  0
TEXT
  5
E45
  8
2
 10
118.0
 20
-0.7933333333333043
 30
0.0
 40
2.799999999999998
  1
63
 50
90.0
 41
0.85
  0
ENDBLK
  5
E47
  8
0
  0
ENDSEC
  0
SECTION
  2
ENTITIES
  0
LINE
  5
84D
  8
4
  6
CENTER2
 10
0.0
 20
0.0
 30
0.0
 11
95.000000000000114
 21
0.0
 31
0.0
  0
LINE
  5
84E
  8
0
 10
3.0
 20
3.0
 30
0.0
 11
-3.0
 21
-3.0
 31
0.0
  0
LINE
  5
84F
  8
0
 10
-3.0
 20
3.0
 30
0.0
 11
3.0
 21
-3.0
 31
0.0
  0
LINE
  5
850
  8
0
 10
97.000000000000114
 20
2.0
 30
0.0
 11
93.000000000000114
 21
-2.0
 31
0.0
  0
LINE
  5
851
  8
0
 10
93.000000000000114
 20
2.0
 30
0.0
 11
97.000000000000114
 21
-2.0
 31
0.0
  0
CIRCLE
  5
852
  8
0
 10
0.0
 20
0.0
 30
0.0
 40
2.5
  0
CIRCLE
  5
853
  8
0
 10
95.000000000000114
 20
0.0
 30
0.0
 40
1.5
  0
LINE
  5
CF2
  8
SK1
  6
CONTINUOUS
 10
0.0
 20
-24.315000000000001
 30
0.0
 11
-31.999999999999972
 21
-22.714999999999971
 31
0.0
  0
CIRCLE
  5
CF3
  8
SK1
  6
CONTINUOUS
 10
-9.0000000000000266
 20
0.0
 30
0.0
 40
3.75
  0
LINE
  5
CF4
  8
SK4
  6
CENTER2
 10
-32.000000000000071
 20
0.0
 30
0.0
 11
0.0
 21
0.0
 31
0.0
  0
LINE
  5
CF5
  8
SK1
  6
CONTINUOUS
 10
-31.999999999999972
 20
-22.714999999999971
 30
0.0
 11
-31.999999999999989
 21
-6.2699999999998113
 31
0.0
  0
ARC
  5
CF6
  8
SK1
  6
CONTINUOUS
 10
-27.500000000000028
 20
-4.7699999999999809
 30
0.0
 40
1.499999999999984
 50
270.0
 51
0.0
  0
LINE
  5
CF7
  8
SK3
  6
HIDDEN2
 10
-27.500000000000028
 20
-6.26999999999998
 30
0.0
 11
-23.500000000000028
 21
-6.26999999999998
 31
0.0
  0
LINE
  5
CF8
  8
SK1
  6
CONTINUOUS
 10
-31.999999999999989
 20
-6.2699999999998113
 30
0.0
 11
-27.500000000000028
 21
-6.26999999999998
 31
0.0
  0
LINE
  5
CF9
  8
SK1
  6
CONTINUOUS
 10
-26.000000000000028
 20
-4.7699999999999809
 30
0.0
 11
-26.000000000000028
 21
4.7699999999999809
 31
0.0
  0
LINE
  5
CFA
  8
SK3
  6
HIDDEN2
 10
-22.000000000000028
 20
-4.7699999999999809
 30
0.0
 11
-22.000000000000028
 21
4.7699999999999809
 31
0.0
  0
ARC
  5
CFB
  8
SK3
  6
HIDDEN2
 10
-23.500000000000028
 20
-4.7699999999999809
 30
0.0
 40
1.499999999999984
 50
270.0
 51
0.0
  0
LINE
  5
CFC
  8
1
  6
CONTINUOUS
 10
19.874999999999972
 20
-28.897595264191828
 30
0.0
 11
21.377499074759239
 21
-31.5
 31
0.0
  0
LINE
  5
CFD
  8
1
  6
CONTINUOUS
 10
16.124999999999972
 20
-28.897595264191828
 30
0.0
 11
14.622500925240701
 21
-31.5
 31
0.0
  0
LINE
  5
CFE
  8
1
  6
CONTINUOUS
 10
21.377499074759239
 20
-24.336187047275931
 30
0.0
 11
21.377499074759239
 21
-31.5
 31
0.0
  0
LINE
  5
CFF
  8
1
  6
CONTINUOUS
 10
14.622500925240701
 20
-24.336187047275931
 30
0.0
 11
14.622500925240701
 21
-31.5
 31
0.0
  0
LINE
  5
D00
  8
1
  6
CONTINUOUS
 10
21.377499074759239
 20
-31.5
 30
0.0
 11
25.99999999999989
 21
-31.499999999999829
 31
0.0
  0
LINE
  5
D01
  8
1
  6
CONTINUOUS
 10
0.0
 20
-31.50000000000006
 30
0.0
 11
14.622500925240701
 21
-31.5
 31
0.0
  0
LINE
  5
D02
  8
1
  6
CONTINUOUS
 10
12.99999999999997
 20
-8.0
 30
0.0
 11
26.00000000000006
 21
-8.0
 31
0.0
  0
LINE
  5
D03
  8
1
  6
CONTINUOUS
 10
21.377499074759239
 20
-24.336187047275931
 30
0.0
 11
25.999999999999972
 21
-24.336187047275931
 31
0.0
  0
LINE
  5
D04
  8
1
  6
CONTINUOUS
 10
19.874999999999972
 20
-20.0
 30
0.0
 11
25.999999999999972
 21
-20.0
 31
0.0
  0
LINE
  5
D05
  8
1
  6
CONTINUOUS
 10
0.0
 20
-31.50000000000006
 30
0.0
 11
0.0
 21
31.50000000000006
 31
0.0
  0
LINE
  5
D06
  8
1
  6
CONTINUOUS
 10
4.999999999999714
 20
-24.336187047275931
 30
0.0
 11
14.622500925240701
 21
-24.336187047275931
 31
0.0
  0
ARC
  5
D07
  8
1
  6
CONTINUOUS
 10
12.111713903655611
 20
-28.0
 30
0.0
 40
8.0
 50
90.0
 51
152.74338069083771
  0
LINE
  5
D08
  8
1
  6
CONTINUOUS
 10
14.622500925240701
 20
-8.0
 30
0.0
 11
14.622500925240701
 21
-20.0
 31
0.0
  0
LINE
  5
D09
  8
1
  6
CONTINUOUS
 10
16.124999999999972
 20
-8.0
 30
0.0
 11
16.124999999999972
 21
-27.5
 31
0.0
  0
LINE
  5
D0A
  8
1
  6
CONTINUOUS
 10
19.874999999999972
 20
-8.0
 30
0.0
 11
19.874999999999972
 21
-27.499999999999559
 31
0.0
  0
LINE
  5
D0B
  8
1
  6
CONTINUOUS
 10
21.377499074759239
 20
-8.0
 30
0.0
 11
21.377499074759239
 21
-20.0
 31
0.0
  0
LINE
  5
D0C
  8
1
  6
CONTINUOUS
 10
14.622500925240701
 20
-24.336187047275931
 30
0.0
 11
16.124999999999972
 21
-20.858355928812841
 31
0.0
  0
LINE
  5
D0D
  8
1
  6
CONTINUOUS
 10
12.111713903655611
 20
-20.0
 30
0.0
 11
16.124999999999972
 21
-20.0
 31
0.0
  0
LINE
  5
D0E
  8
1
  6
CONTINUOUS
 10
16.124999999999741
 20
-27.5
 30
0.0
 11
19.875000000001311
 21
-27.499999999998892
 31
0.0
  0
LINE
  5
D0F
  8
1
  6
CONTINUOUS
 10
16.124999999999741
 20
-27.5
 30
0.0
 11
16.124999999999972
 21
-28.897595264191828
 31
0.0
  0
LINE
  5
D10
  8
1
  6
CONTINUOUS
 10
19.875000000001311
 20
-27.499999999998892
 30
0.0
 11
19.874999999999972
 21
-28.897595264191828
 31
0.0
  0
LINE
  5
D11
  8
1
  6
CONTINUOUS
 10
21.377499074759239
 20
-24.336187047275931
 30
0.0
 11
19.874999999999972
 21
-20.858355928812841
 31
0.0
  0
LINE
  5
D13
  8
1
  6
CONTINUOUS
 10
25.99999999999989
 20
-31.499999999999829
 30
0.0
 11
25.999999999999321
 21
-26.300000000000072
 31
0.0
  0
LINE
  5
D14
  8
1
  6
CONTINUOUS
 10
25.999999999999972
 20
26.300000000000129
 30
0.0
 11
26.0
 21
-26.29999999999999
 31
0.0
  0
LINE
  5
D15
  8
SK1
  6
CONTINUOUS
 10
0.0
 20
24.31500000000003
 30
0.0
 11
-31.999999999999972
 21
22.714999999999971
 31
0.0
  0
ARC
  5
D16
  8
SK1
  6
CONTINUOUS
 10
-27.500000000000028
 20
4.7699999999999809
 30
0.0
 40
1.499999999999984
 50
0.0
 51
90.0
  0
LINE
  5
D17
  8
SK3
  6
HIDDEN2
 10
-27.500000000000028
 20
6.26999999999998
 30
0.0
 11
-23.500000000000028
 21
6.26999999999998
 31
0.0
  0
LINE
  5
D18
  8
SK1
  6
CONTINUOUS
 10
-31.999999999999989
 20
6.2699999999998113
 30
0.0
 11
-27.500000000000028
 21
6.26999999999998
 31
0.0
  0
ARC
  5
D19
  8
SK3
  6
HIDDEN2
 10
-23.500000000000028
 20
4.7699999999999809
 30
0.0
 40
1.499999999999984
 50
0.0
 51
90.0
  0
LINE
  5
D1A
  8
1
  6
CONTINUOUS
 10
19.874999999999972
 20
28.897595264191871
 30
0.0
 11
21.377499074759239
 21
31.5
 31
0.0
  0
LINE
  5
D1B
  8
1
  6
CONTINUOUS
 10
16.124999999999972
 20
28.897595264191871
 30
0.0
 11
14.622500925240701
 21
31.5
 31
0.0
  0
LINE
  5
D1C
  8
1
  6
CONTINUOUS
 10
21.377499074759239
 20
31.5
 30
0.0
 11
25.99999999999989
 21
31.499999999999829
 31
0.0
  0
LINE
  5
D1D
  8
1
  6
CONTINUOUS
 10
0.0
 20
31.50000000000006
 30
0.0
 11
14.622500925240701
 21
31.5
 31
0.0
  0
LINE
  5
D1E
  8
1
  6
CONTINUOUS
 10
12.99999999999997
 20
8.0
 30
0.0
 11
26.00000000000006
 21
8.0
 31
0.0
  0
LINE
  5
D20
  8
1
  6
CONTINUOUS
 10
14.622500925240701
 20
8.0
 30
0.0
 11
14.622500925240841
 21
31.49999999999995
 31
0.0
  0
LINE
  5
D21
  8
1
  6
CONTINUOUS
 10
16.124999999999972
 20
8.0
 30
0.0
 11
16.124999999999972
 21
27.5
 31
0.0
  0
LINE
  5
D22
  8
1
  6
CONTINUOUS
 10
19.874999999999972
 20
8.0
 30
0.0
 11
19.874999999999972
 21
27.499999999999559
 31
0.0
  0
LINE
  5
D23
  8
1
  6
CONTINUOUS
 10
21.377499074759239
 20
8.0
 30
0.0
 11
21.377499074759388
 21
31.49999999999989
 31
0.0
  0
LINE
  5
D24
  8
1
  6
CONTINUOUS
 10
16.124999999999741
 20
27.5
 30
0.0
 11
19.875000000001311
 21
27.49999999999886
 31
0.0
  0
LINE
  5
D25
  8
1
  6
CONTINUOUS
 10
16.124999999999741
 20
27.5
 30
0.0
 11
16.124999999999972
 21
28.897595264191871
 31
0.0
  0
LINE
  5
D26
  8
1
  6
CONTINUOUS
 10
19.875000000001311
 20
27.49999999999886
 30
0.0
 11
19.874999999999972
 21
28.897595264191871
 31
0.0
  0
LINE
  5
D27
  8
1
  6
CONTINUOUS
 10
25.99999999999989
 20
31.499999999999829
 30
0.0
 11
25.999999999999691
 21
26.300000000000011
 31
0.0
  0
LINE
  5
D28
  8
SK6
  6
CONTINUOUS
 10
-18.436872775073201
 20
-25.210403317106
 30
0.0
 11
-17.0
 21
-23.465000000000028
 31
0.0
  0
LINE
  5
D29
  8
SK6
  6
CONTINUOUS
 10
-17.793127224926788
 20
-25.582069983772669
 30
0.0
 11
-17.0
 21
-23.465000000000028
 31
0.0
  0
LINE
  5
D2A
  8
SK6
  6
CONTINUOUS
 10
-17.0
 20
-23.465000000000028
 30
0.0
 11
-18.114999999999981
 21
-25.396236650439331
 31
0.0
  0
LINE
  5
D2B
  8
SK6
  6
CONTINUOUS
 10
-18.114999999999981
 20
-25.396236650439331
 30
0.0
 11
-23.572223203118501
 21
-34.848424506484321
 31
0.0
  0
TEXT
  5
D2C
  8
SK6
  6
CONTINUOUS
 10
-45.572223203118497
 20
-33.848424506484321
 30
0.0
 40
2.799999999999998
  1
HSK-A63
  7
YOKO
1001
ITEMNAME
1000
LNSP3
  0
LINE
  5
D2D
  8
SK6
  6
CONTINUOUS
 10
-23.572223203118501
 20
-34.848424506484321
 30
0.0
 11
-47.838889869785127
 21
-34.848424506484321
 31
0.0
1001
ITEMNAME
1000
LNSP2
  0
LINE
  5
D2E
  8
SK1
  6
CONTINUOUS
 10
-31.999999999999972
 20
22.714999999999971
 30
0.0
 11
-31.999999999999989
 21
6.2699999999998113
 31
0.0
  0
ARC
  5
D42
  8
1
  6
CONTINUOUS
 10
12.99999999999997
 20
0.0
 30
0.0
 40
8.0
 50
90.0
 51
270.0
  0
LINE
  5
D44
  8
1
  6
CONTINUOUS
 10
43.99999999995984
 20
-36.999999999999702
 30
0.0
 11
43.999999999960153
 21
36.99999999999946
 31
0.0
  0
LINE
  5
D45
  8
3
  6
HIDDEN2
 10
25.0000000000006
 20
15.499999999998661
 30
0.0
 11
95.0
 21
15.50000000000494
 31
0.0
  0
LINE
  5
D46
  8
1
  6
CONTINUOUS
 10
94.999999999999474
 20
28.702154051071599
 30
0.0
 11
95.000000000000725
 21
-28.702154051070579
 31
0.0
  0
LINE
  5
D47
  8
1
  6
CONTINUOUS
 10
67.74264068712111
 20
-31.50000000000022
 30
0.0
 11
89.000000000000114
 21
-31.50000000000022
 31
0.0
  0
LINE
  5
D48
  8
1
  6
CONTINUOUS
 10
89.000000000000114
 20
-31.50000000000022
 30
0.0
 11
95.000000000000725
 21
-28.702154051070579
 31
0.0
  0
LINE
  5
D49
  8
1
  6
CONTINUOUS
 10
25.999999999999321
 20
-26.300000000000072
 30
0.0
 11
41.599999999960119
 21
-26.300000000000011
 31
0.0
  0
LINE
  5
D4A
  8
1
  6
CONTINUOUS
 10
41.999999999959982
 20
-33.535898384861468
 30
0.0
 11
41.999999999960011
 21
-26.700000000000021
 31
0.0
  0
ARC
  5
D4B
  8
1
  6
CONTINUOUS
 10
41.599999999960119
 20
-26.700000000000021
 30
0.0
 40
0.4
 50
0.0
 51
90.0
  0
LINE
  5
D4C
  8
1
  6
CONTINUOUS
 10
61.000000000001819
 20
-37.000000000000043
 30
0.0
 11
61.000000000001791
 21
36.999999999999773
 31
0.0
  0
LINE
  5
D4D
  8
1
  6
CONTINUOUS
 10
66.500000000001933
 20
-31.76946083662682
 30
0.0
 11
66.500000000001819
 21
31.50000000000027
 31
0.0
  0
LINE
  5
D4E
  8
1
  6
CONTINUOUS
 10
89.000000000000384
 20
-31.450232269813881
 30
0.0
 11
89.000000000000384
 21
31.50000000000027
 31
0.0
  0
ARC
  5
D4F
  8
1
  6
CONTINUOUS
 10
67.74264068712111
 20
-34.500000000000227
 30
0.0
 40
3.0
 50
90.0
 51
135.0
1001
ASK_MEN_XD
1005
0
1070
     1
1005
0
1070
     1
  0
LINE
  5
D50
  8
1
  6
CONTINUOUS
 10
43.99999999995984
 20
-36.999999999999702
 30
0.0
 11
61.000000000001819
 21
-37.000000000000043
 31
0.0
  0
LINE
  5
D51
  8
1
  6
CONTINUOUS
 10
43.999999999959137
 20
-36.999999999999758
 30
0.0
 11
41.999999999959982
 21
-33.535898384861468
 31
0.0
  0
LINE
  5
D52
  8
1
  6
CONTINUOUS
 10
65.621320343561493
 20
-32.378679656440539
 30
0.0
 11
61.00000000000162
 21
-37.000000000000007
 31
0.0
  0
LINE
  5
D53
  8
1
  6
CONTINUOUS
 10
73.000000000032557
 20
-31.500000000000149
 30
0.0
 11
73.000000000032557
 21
31.50000000000027
 31
0.0
  0
LINE
  5
D54
  8
1
  6
CONTINUOUS
 10
78.999999999999474
 20
-31.500000000000188
 30
0.0
 11
78.99999999999946
 21
31.50000000000027
 31
0.0
  0
LINE
  5
D55
  8
1
  6
CONTINUOUS
 10
67.74264068712111
 20
31.500000000000231
 30
0.0
 11
89.000000000000114
 21
31.500000000000231
 31
0.0
  0
LINE
  5
D56
  8
1
  6
CONTINUOUS
 10
89.000000000000114
 20
31.500000000000231
 30
0.0
 11
94.999999999999474
 21
28.702154051071599
 31
0.0
  0
LINE
  5
D57
  8
1
  6
CONTINUOUS
 10
41.999999999959982
 20
33.535898384861468
 30
0.0
 11
41.999999999960011
 21
26.700000000000021
 31
0.0
  0
ARC
  5
D58
  8
1
  6
CONTINUOUS
 10
41.599999999960119
 20
26.700000000000021
 30
0.0
 40
0.4
 50
270.0
 51
0.0
  0
ARC
  5
D59
  8
1
  6
CONTINUOUS
 10
67.74264068712111
 20
34.500000000000227
 30
0.0
 40
3.0
 50
225.0
 51
270.0
1001
ASK_MEN_XD
1005
0
1070
     1
1005
0
1070
     1
  0
LINE
  5
D5A
  8
1
  6
CONTINUOUS
 10
43.99999999995984
 20
36.999999999999723
 30
0.0
 11
61.000000000001819
 21
37.000000000000043
 31
0.0
  0
LINE
  5
D5B
  8
1
  6
CONTINUOUS
 10
43.999999999959137
 20
36.999999999999773
 30
0.0
 11
41.999999999959982
 21
33.535898384861468
 31
0.0
  0
LINE
  5
D5C
  8
1
  6
CONTINUOUS
 10
65.621320343561493
 20
32.378679656440539
 30
0.0
 11
61.00000000000162
 21
37.0
 31
0.0
  0
LINE
  5
D5D
  8
1
  6
CONTINUOUS
 10
25.999999999999972
 20
26.300000000000129
 30
0.0
 11
41.599999999960119
 21
26.300000000000011
 31
0.0
  0
LINE
  5
D5E
  8
1
  6
CONTINUOUS
 10
41.99999999996006
 20
26.700000000000021
 30
0.0
 11
41.999999999960117
 21
-26.700000000000021
 31
0.0
  0
LINE
  5
D5F
  8
2
  6
CONTINUOUS
 10
25.0000000000006
 20
16.249999999999261
 30
0.0
 11
25.0000000000006
 21
64.0
 31
0.0
  0
LINE
  5
D60
  8
2
  6
CONTINUOUS
 10
94.999999999999474
 20
29.202154051071599
 30
0.0
 11
94.999999999999474
 21
64.0
 31
0.0
  0
LINE
  5
D61
  8
2
  6
CONTINUOUS
 10
27.0000000000006
 20
63.0
 30
0.0
 11
92.999999999999488
 21
63.0
 31
0.0
  0
INSERT
  5
D62
  8
2
  6
CONTINUOUS
  2
_OPEN
 10
25.0000000000006
 20
63.0
 30
0.0
 41
2.0
 42
2.0
 43
2.0
 50
180.0
  0
INSERT
  5
D63
  8
2
  6
CONTINUOUS
  2
_OPEN
 10
94.999999999999474
 20
63.0
 30
0.0
 41
2.0
 42
2.0
 43
2.0
  0
LINE
  5
D65
  8
2
  6
CONTINUOUS
 10
0.0
 20
32.000000000000057
 30
0.0
 11
0.0
 21
71.0
 31
0.0
  0
LINE
  5
D66
  8
2
  6
CONTINUOUS
 10
94.999999999999474
 20
29.202154051071599
 30
0.0
 11
94.999999999999474
 21
71.0
 31
0.0
  0
LINE
  5
D67
  8
2
  6
CONTINUOUS
 10
2.0
 20
70.0
 30
0.0
 11
92.999999999999488
 21
70.0
 31
0.0
  0
INSERT
  5
D68
  8
2
  6
CONTINUOUS
  2
_OPEN
 10
0.0
 20
70.0
 30
0.0
 41
2.0
 42
2.0
 43
2.0
 50
180.0
  0
INSERT
  5
D69
  8
2
  6
CONTINUOUS
  2
_OPEN
 10
94.999999999999474
 20
70.0
 30
0.0
 41
2.0
 42
2.0
 43
2.0
  0
INSERT
  5
D6A
  8
1
  2
*U25
 10
0.0
 20
0.0
 30
0.0
  0
INSERT
  5
D6B
  8
SK6
  6
CONTINUOUS
  2
_OPEN
 10
52.499999999999801
 20
41.999999999999659
 30
0.0
 41
-1.999999999999992
 42
1.999999999999992
 43
1.999999999999992
 50
90.000000000000071
1001
ACAD
1000
DSTYLE
1002
{
1070
    41
1040
2.0
1070
   140
1040
2.799999999999998
1002
}
  0
POLYLINE
  5
D6C
  8
SK6
  6
CONTINUOUS
 66
     1
 10
0.0
 20
0.0
 30
0.0
1001
ACAD
1000
DSTYLE
1002
{
1070
    41
1040
2.0
1070
   140
1040
2.799999999999998
1002
}
  0
VERTEX
  5
E3B
  8
SK6
  6
CONTINUOUS
 10
52.499999999999773
 20
43.999999999999503
 30
0.0
  0
VERTEX
  5
E3C
  8
SK6
  6
CONTINUOUS
 10
52.499999999999773
 20
52.2630410779336
 30
0.0
  0
SEQEND
  5
E3D
  8
SK6
  6
CONTINUOUS
  0
TEXT
  5
D6D
  8
SK6
  6
CONTINUOUS
 10
47.262874117791213
 20
55.012274989991781
 30
0.0
 40
3.0
  1
Screw
  7
YOKO
 11
47.262874117791213
 21
55.012274989991781
 31
0.0
 73
     1
  0
LINE
  5
D6E
  8
3
  6
HIDDEN2
 10
25.0000000000006
 20
-15.499999999998661
 30
0.0
 11
95.0
 21
-15.50000000000494
 31
0.0
  0
LINE
  5
D6F
  8
2
  6
CONTINUOUS
 10
95.500000000000455
 20
-15.50000000000494
 30
0.0
 11
113.0
 21
-15.50000000000494
 31
0.0
  0
LINE
  5
D70
  8
2
  6
CONTINUOUS
 10
95.5
 20
15.50000000000494
 30
0.0
 11
113.0
 21
15.50000000000494
 31
0.0
  0
LINE
  5
D71
  8
2
  6
CONTINUOUS
 10
112.0
 20
-13.50000000000494
 30
0.0
 11
112.0
 21
13.50000000000494
 31
0.0
  0
INSERT
  5
D72
  8
2
  6
CONTINUOUS
  2
_OPEN
 10
112.0
 20
-15.50000000000494
 30
0.0
 41
2.0
 42
2.0
 43
2.0
 50
270.0
  0
INSERT
  5
D73
  8
2
  6
CONTINUOUS
  2
_OPEN
 10
112.0
 20
15.50000000000494
 30
0.0
 41
2.0
 42
2.0
 43
2.0
 50
90.0
  0
INSERT
  5
D74
  8
1
  2
*U26
 10
0.0
 20
0.0
 30
0.0
  0
LINE
  5
D75
  8
2
  6
CONTINUOUS
 10
89.500000000000114
 20
-31.50000000000022
 30
0.0
 11
120.0
 21
-31.50000000000022
 31
0.0
  0
LINE
  5
D76
  8
2
  6
CONTINUOUS
 10
89.500000000000114
 20
31.500000000000231
 30
0.0
 11
120.0
 21
31.500000000000231
 31
0.0
  0
LINE
  5
D77
  8
2
  6
CONTINUOUS
 10
119.0
 20
-29.50000000000022
 30
0.0
 11
119.0
 21
29.500000000000231
 31
0.0
  0
INSERT
  5
D78
  8
2
  6
CONTINUOUS
  2
_OPEN
 10
119.0
 20
-31.50000000000022
 30
0.0
 41
2.0
 42
2.0
 43
2.0
 50
270.0
  0
INSERT
  5
D79
  8
2
  6
CONTINUOUS
  2
_OPEN
 10
119.0
 20
31.500000000000231
 30
0.0
 41
2.0
 42
2.0
 43
2.0
 50
90.0
  0
INSERT
  5
D7A
  8
1
  2
*U27
 10
0.0
 20
0.0
 30
0.0
  0
TEXT
  5
D7B
  8
6
  6
CONTINUOUS
 10
-31.999999999999972
 20
85.166666666666671
 30
0.0
 40
3.5
  1
HSK-A63-HDC31-95
 41
0.85
 11
-31.999999999999972
 21
84.0
 31
0.0
 73
     1
  0
TEXT
  5
D91
  8
2
  6
CONTINUOUS
 10
53.858428030303102
 20
64.167045454545459
 30
0.0
 40
2.799999999999998
  1
max.70
 41
0.85
  0
TEXT
  5
D97
  8
6
  6
CONTINUOUS
 10
-32.0
 20
91.0
 30
0.0
 40
3.5
  1
BIG DAISHOWA
 41
0.85
  0
LINE
  5
DC0
  8
NOCUT
  6
CONTINUOUS
 10
0.0
 20
0.0
 30
0.0
 11
95.000000000000114
 21
0.0
 31
0.0
  0
LINE
  5
DC1
  8
NOCUT
  6
CONTINUOUS
 10
19.874999999999972
 20
-28.897595264191828
 30
0.0
 11
21.377499074759239
 21
-31.5
 31
0.0
  0
LINE
  5
DC2
  8
NOCUT
  6
CONTINUOUS
 10
16.124999999999972
 20
-28.897595264191828
 30
0.0
 11
14.622500925240701
 21
-31.5
 31
0.0
  0
LINE
  5
DC5
  8
NOCUT
  6
CONTINUOUS
 10
21.377499074759239
 20
-31.5
 30
0.0
 11
25.99999999999989
 21
-31.499999999999829
 31
0.0
  0
LINE
  5
DC6
  8
NOCUT
  6
CONTINUOUS
 10
0.0
 20
-31.50000000000006
 30
0.0
 11
14.622500925240701
 21
-31.5
 31
0.0
  0
LINE
  5
DC9
  8
NOCUT
  6
CONTINUOUS
 10
0.0
 20
-31.50000000000006
 30
0.0
 11
0.0
 21
0.0
 31
0.0
  0
LINE
  5
DCE
  8
NOCUT
  6
CONTINUOUS
 10
16.124999999999741
 20
-27.5
 30
0.0
 11
19.875000000001311
 21
-27.499999999998892
 31
0.0
  0
LINE
  5
DCF
  8
NOCUT
  6
CONTINUOUS
 10
16.124999999999741
 20
-27.5
 30
0.0
 11
16.124999999999972
 21
-28.897595264191828
 31
0.0
  0
LINE
  5
DD0
  8
NOCUT
  6
CONTINUOUS
 10
19.875000000001311
 20
-27.499999999998892
 30
0.0
 11
19.874999999999972
 21
-28.897595264191828
 31
0.0
  0
LINE
  5
DD3
  8
NOCUT
  6
CONTINUOUS
 10
25.99999999999989
 20
-31.499999999999829
 30
0.0
 11
25.999999999999321
 21
-26.300000000000072
 31
0.0
  0
LINE
  5
DD4
  8
NOCUT
  6
CONTINUOUS
 10
95.000000000000114
 20
0.0
 30
0.0
 11
95.000000000000739
 21
-28.702154051070579
 31
0.0
  0
LINE
  5
DD5
  8
NOCUT
  6
CONTINUOUS
 10
67.74264068712111
 20
-31.50000000000022
 30
0.0
 11
89.000000000000114
 21
-31.50000000000022
 31
0.0
  0
LINE
  5
DD6
  8
NOCUT
  6
CONTINUOUS
 10
89.000000000000114
 20
-31.50000000000022
 30
0.0
 11
95.000000000000739
 21
-28.702154051070579
 31
0.0
  0
LINE
  5
DD7
  8
NOCUT
  6
CONTINUOUS
 10
25.999999999999321
 20
-26.300000000000072
 30
0.0
 11
41.599999999960119
 21
-26.300000000000011
 31
0.0
  0
LINE
  5
DD8
  8
NOCUT
  6
CONTINUOUS
 10
41.999999999959982
 20
-33.535898384861468
 30
0.0
 11
41.999999999960011
 21
-26.700000000000021
 31
0.0
  0
ARC
  5
DD9
  8
NOCUT
  6
CONTINUOUS
 10
41.599999999960119
 20
-26.700000000000021
 30
0.0
 40
0.4
 50
0.0
 51
90.0
  0
ARC
  5
DDA
  8
NOCUT
  6
CONTINUOUS
 10
67.74264068712111
 20
-34.500000000000227
 30
0.0
 40
3.0
 50
90.0
 51
135.00000000000031
1001
ASK_MEN_XD
1005
0
1070
     1
1005
0
1070
     1
  0
LINE
  5
DDB
  8
NOCUT
  6
CONTINUOUS
 10
43.99999999995984
 20
-36.999999999999702
 30
0.0
 11
61.000000000001819
 21
-37.000000000000043
 31
0.0
  0
LINE
  5
DDC
  8
NOCUT
  6
CONTINUOUS
 10
43.999999999959122
 20
-36.999999999999758
 30
0.0
 11
41.999999999959982
 21
-33.535898384861468
 31
0.0
  0
LINE
  5
DDD
  8
NOCUT
  6
CONTINUOUS
 10
65.621320343561479
 20
-32.378679656440539
 30
0.0
 11
61.00000000000162
 21
-37.000000000000007
 31
0.0
  0
ENDSEC
  0
EOF
