  0
SECTION
  2
HEADER
  9
$ACADVER
  1
AC1009
  9
$INSBASE
 10
0.0
 20
0.0
 30
0.0
  9
$EXTMIN
 10
-47.8388898697851275
 20
-34.8484245064843208
 30
0.0
  9
$EXTMAX
 10
112.2496229599999964
 20
61.0000000000000071
 30
0.0
  9
$LIMMIN
 10
0.0
 20
0.0
  9
$LIMMAX
 10
297.0
 20
210.0
  9
$ORTHOMODE
 70
     1
  9
$REGENMODE
 70
     1
  9
$FILLMODE
 70
     1
  9
$QTEXTMODE
 70
     0
  9
$MIRRTEXT
 70
     1
  9
$DRAGMODE
 70
     2
  9
$LTSCALE
 40
10.0
  9
$OSMODE
 70
   807
  9
$ATTMODE
 70
     1
  9
$TEXTSIZE
 40
3.0
  9
$TRACEWID
 40
1.0
  9
$TEXTSTYLE
  7
YOKO
  9
$CLAYER
  8
240
  9
$CELTYPE
  6
BYLAYER
  9
$CECOLOR
 62
   256
  9
$DIMSCALE
 40
1.0
  9
$DIMASZ
 40
2.2299999999999991
  9
$DIMEXO
 40
0.5
  9
$DIMDLI
 40
7.0
  9
$DIMRND
 40
0.0
  9
$DIMDLE
 40
0.0
  9
$DIMEXE
 40
1.0
  9
$DIMTP
 40
0.0
  9
$DIMTM
 40
0.01
  9
$DIMTXT
 40
2.799999999999998
  9
$DIMCEN
 40
0.0
  9
$DIMTSZ
 40
0.0
  9
$DIMTOL
 70
     0
  9
$DIMLIM
 70
     0
  9
$DIMTIH
 70
     0
  9
$DIMTOH
 70
     0
  9
$DIMSE1
 70
     0
  9
$DIMSE2
 70
     0
  9
$DIMTAD
 70
     3
  9
$DIMZIN
 70
     9
  9
$DIMBLK
  1
OPEN
  9
$DIMASO
 70
     1
  9
$DIMSHO
 70
     1
  9
$DIMPOST
  1

  9
$DIMAPOST
  1

  9
$DIMALT
 70
     0
  9
$DIMALTD
 70
     2
  9
$DIMALTF
 40
25.3999999999999986
  9
$DIMLFAC
 40
1.0
  9
$DIMTOFL
 70
     1
  9
$DIMTVP
 40
0.0
  9
$DIMTIX
 70
     1
  9
$DIMSOXD
 70
     0
  9
$DIMSAH
 70
     0
  9
$DIMBLK1
  1

  9
$DIMBLK2
  1

  9
$DIMSTYLE
  2
BIGT
  9
$DIMCLRD
 70
   256
  9
$DIMCLRE
 70
   256
  9
$DIMCLRT
 70
    40
  9
$DIMTFAC
 40
1.0
  9
$DIMGAP
 40
1.0
  9
$LUNITS
 70
     2
  9
$LUPREC
 70
     6
  9
$SKETCHINC
 40
1.0
  9
$FILLETRAD
 40
2.0
  9
$AUNITS
 70
     0
  9
$AUPREC
 70
     6
  9
$MENU
  1
.
  9
$ELEVATION
 40
0.0
  9
$PELEVATION
 40
0.0
  9
$THICKNESS
 40
0.0
  9
$LIMCHECK
 70
     0
  9
$BLIPMODE
 70
     0
  9
$CHAMFERA
 40
0.2
  9
$CHAMFERB
 40
0.2
  9
$SKPOLY
 70
     0
  9
$TDCREATE
 40
2457732.6867245370522141
  9
$TDUPDATE
 40
2458291.7479861117899418
  9
$TDINDWG
 40
0.0065081481
  9
$TDUSRTIMER
 40
0.0065081134
  9
$USRTIMER
 70
     1
  9
$ANGBASE
 50
0.0
  9
$ANGDIR
 70
     0
  9
$PDMODE
 70
     1
  9
$PDSIZE
 40
0.0
  9
$PLINEWID
 40
0.0
  9
$COORDS
 70
     1
  9
$SPLFRAME
 70
     0
  9
$SPLINETYPE
 70
     6
  9
$SPLINESEGS
 70
     4
  9
$ATTDIA
 70
     1
  9
$ATTREQ
 70
     1
  9
$HANDLING
 70
     1
  9
$HANDSEED
  5
46E6
  9
$SURFTAB1
 70
     6
  9
$SURFTAB2
 70
     6
  9
$SURFTYPE
 70
     6
  9
$SURFU
 70
     6
  9
$SURFV
 70
     6
  9
$UCSNAME
  2

  9
$UCSORG
 10
0.0
 20
0.0
 30
0.0
  9
$UCSXDIR
 10
1.0
 20
0.0
 30
0.0
  9
$UCSYDIR
 10
0.0
 20
1.0
 30
0.0
  9
$PUCSNAME
  2

  9
$PUCSORG
 10
0.0
 20
0.0
 30
0.0
  9
$PUCSXDIR
 10
1.0
 20
0.0
 30
0.0
  9
$PUCSYDIR
 10
0.0
 20
1.0
 30
0.0
  9
$USERI1
 70
     1
  9
$USERI2
 70
     0
  9
$USERI3
 70
     0
  9
$USERI4
 70
     0
  9
$USERI5
 70
     0
  9
$USERR1
 40
0.0
  9
$USERR2
 40
0.0
  9
$USERR3
 40
0.0
  9
$USERR4
 40
0.0
  9
$USERR5
 40
0.0
  9
$WORLDVIEW
 70
     1
  9
$SHADEDGE
 70
     3
  9
$SHADEDIF
 70
    70
  9
$TILEMODE
 70
     1
  9
$MAXACTVP
 70
    16
  9
$PLIMCHECK
 70
     0
  9
$PEXTMIN
 10
1.0000000000000000E+20
 20
1.0000000000000000E+20
 30
1.0000000000000000E+20
  9
$PEXTMAX
 10
-1.0000000000000000E+20
 20
-1.0000000000000000E+20
 30
-1.0000000000000000E+20
  9
$PLIMMIN
 10
0.0
 20
0.0
  9
$PLIMMAX
 10
420.0
 20
297.0
  9
$UNITMODE
 70
     0
  9
$VISRETAIN
 70
     1
  9
$PLINEGEN
 70
     0
  9
$PSLTSCALE
 70
     1
  0
ENDSEC
  0
SECTION
  2
TABLES
  0
TABLE
  2
VPORT
 70
     1
  0
VPORT
  2
*ACTIVE
 70
     0
 10
0.0
 20
0.0
 11
1.0
 21
1.0
 12
64.9873284407053404
 22
11.4412328898288802
 13
0.0
 23
0.0
 14
7.0
 24
7.0
 15
7.0
 25
7.0
 16
0.0
 26
0.0
 36
1.0
 17
0.0
 27
0.0
 37
0.0
 40
146.1585507599536129
 41
1.887387387387387
 42
50.0
 43
0.0
 44
0.0
 50
0.0
 51
0.0
 71
     0
 72
  2000
 73
     1
 74
     0
 75
     0
 76
     1
 77
     0
 78
     0
  0
ENDTAB
  0
TABLE
  2
LTYPE
 70
    22
  0
LTYPE
  2
CONTINUOUS
 70
     0
  3
Solid line
 72
    65
 73
     0
 40
0.0
  0
LTYPE
  2
CENTER2
 70
     0
  3
___ _ ___ _ ___ _ ___ _ ___ _ ___ _ ___ _ ___ _
 72
    65
 73
     4
 40
1.125
 49
0.75
 49
-0.125
 49
0.125
 49
-0.125
  0
LTYPE
  2
HIDDEN2
 70
     0
  3
_ _ _ _ _ _ _ _ _ _ _ _ _ _ _ _ _ _ _ _ _ _ _ _
 72
    65
 73
     2
 40
0.1875
 49
0.125
 49
-0.0625
  0
LTYPE
  2
PHANTOM2
 70
     0
  3
___ _ _ ___ _ _ ___ _ _ ___ _ _ ___ _ _ ___ _ _
 72
    65
 73
     6
 40
1.25
 49
0.625
 49
-0.125
 49
0.125
 49
-0.125
 49
0.125
 49
-0.125
  0
LTYPE
  2
AMCONSTR
 70
     0
  3
_______________________
 72
    65
 73
     2
 40
9999.0
 49
9999.0
 49
0.0
  0
LTYPE
  2
HIDDEN
 70
     0
  3
Hidden __ __ __ __ __ __ __ __ __ __ __ __ __ _
 72
    65
 73
     2
 40
0.375
 49
0.25
 49
-0.125
  0
LTYPE
  2
CENTER
 70
     0
  3
Center ____ _ ____ _ ____ _ ____ _ ____ _ ____
 72
    65
 73
     4
 40
2.0
 49
1.25
 49
-0.25
 49
0.25
 49
-0.25
  0
LTYPE
  2
AMZIGZAG2
 70
     0
  3
/\/-/\/-/\/-/\/-/\/-/\/
 72
    65
 73
     2
 40
0.4401
 49
0.0001
 49
-0.4400000000000001
  0
LTYPE
  2
ACANSTGB
 70
     0
  3
__ . . __ . .
 72
    65
 73
     6
 40
0.35433070866
 49
0.15748031496
 49
-0.03937007874
 49
0.03937007874
 49
-0.03937007874
 49
0.03937007874
 49
-0.03937007874
  0
LTYPE
  2
ACANSTGL
 70
     0
  3
_ _ _ _ _
 72
    65
 73
     2
 40
0.11811023622
 49
0.07874015748
 49
-0.03937007874
  0
ENDTAB
  0
TABLE
  2
LAYER
 70
     9
  0
LAYER
  2
0
 70
     0
 62
     7
  6
CONTINUOUS
  0
LAYER
  2
240
 70
     0
 62
     4
  6
CONTINUOUS
  0
LAYER
  2
DEFPOINTS
 70
     0
 62
     7
  6
CONTINUOUS
  0
LAYER
  2
245
 70
     0
 62
     2
  6
CENTER2
  0
LAYER
  2
241
 70
     0
 62
   211
  6
CONTINUOUS
  0
LAYER
  2
242
 70
     0
 62
     3
  6
CONTINUOUS
  0
LAYER
  2
243
 70
     0
 62
   211
  6
HIDDEN2
  0
LAYER
  2
247
 70
     0
 62
    60
  6
CONTINUOUS
  0
LAYER
  2
250
 70
     0
 62
     3
  6
CONTINUOUS
  0
ENDTAB
  0
TABLE
  2
STYLE
 70
    10
  0
STYLE
  2
STANDARD
 70
     0
 40
0.0
 41
1.0
 50
0.0
 71
     0
 42
3.0
  3
romans.shx
  4
extfont.shx
  0
STYLE
  2
YOKO
 70
     0
 40
0.0
 41
1.0
 50
0.0
 71
     0
 42
3.0
  3
romans.shx
  4
extfont.shx
  0
STYLE
  2

 70
     1
 40
0.0
 41
1.0
 50
0.0
 71
     0
 42
3.0
  3
genltshp.shx
  4

  0
STYLE
  2
ACANSGDT
 70
     0
 40
0.0
 41
1.0
 50
0.0
 71
     0
 42
3.0
  3
amgdt.shx
  4

  0
ENDTAB
  0
TABLE
  2
VIEW
 70
     0
  0
ENDTAB
  0
TABLE
  2
UCS
 70
     0
  0
ENDTAB
  0
TABLE
  2
APPID
 70
    38
  0
APPID
  2
ACAD
 70
     0
  0
APPID
  2
ACADANNOTATIVE
 70
     0
  0
APPID
  2
GLOBAL
 70
     0
  0
APPID
  2
DETAIL
 70
     0
  0
APPID
  2
GRPNAME
 70
     0
  0
APPID
  2
GPARA
 70
     0
  0
APPID
  2
MCAD_NO_VIS
 70
     0
  0
APPID
  2
ACAD_TEMP_GRAPHIC
 70
     0
  0
APPID
  2
ACATTRIBSERVICES
 70
     0
  0
APPID
  2
GENIUS_GENSCREG_15
 70
     0
  0
APPID
  2
GENIUS_GENODEF_13
 70
     0
  0
APPID
  2
GENIUS_GENOBJ-N-SDF_13
 70
     0
  0
APPID
  2
GENIUS_GENREC_14
 70
     0
  0
APPID
  2
GENIUS_GENOBJ-N-REC_13
 70
     0
  0
APPID
  2
GENIUS_GENDIMSH_14
 70
     0
  0
APPID
  2
GENIUS_GENOBJ-N-DIM_13
 70
     0
  0
APPID
  2
GENIUS_GENDIM_13
 70
     0
  0
APPID
  2
GENIUS_GENDTOL_13
 70
     0
  0
APPID
  2
GENIUS_GENOLIS_13
 70
     0
  0
APPID
  2
GENIUS_GENOENT_13
 70
     0
  0
APPID
  2
GENIUS_GENOBJ-F-FEM_13
 70
     0
  0
APPID
  2
GENIUS_GENOREF_13
 70
     0
  0
APPID
  2
GENIUS_GEFFEM_13
 70
     0
  0
APPID
  2
GENIUS_GEFFEMP_13
 70
     0
  0
APPID
  2
AD_DRAW
 70
     0
  0
APPID
  2
DESIGNERASSEMBLIES
 70
     0
  0
APPID
  2
ACADM_DIM_EDIT
 70
     0
  0
APPID
  2
AMDT_DM_ADJ
 70
     0
  0
APPID
  2
ITEMNAME
 70
     0
  0
APPID
  2
GENIUS_GENOBJ-N-FIL_13
 70
     0
  0
APPID
  2
GENIUS_GENFIL_13
 70
     0
  0
APPID
  2
GENIUS_GENOBJ-N-CHA_13
 70
     0
  0
APPID
  2
ACAD_NAV_VCDISPLAY
 70
     0
  0
APPID
  2
ACAECLAYERSTANDARD
 70
     0
  0
APPID
  2
ACAD_MLEADERVER
 70
     0
  0
APPID
  2
ACAD_DSTYLE_DIMJAG
 70
     0
  0
APPID
  2
ACAD_DSTYLE_DIMBREAK
 70
     0
  0
APPID
  2
ACAD_EXEMPT_FROM_CAD_STANDARDS
 70
     0
  0
ENDTAB
  0
TABLE
  2
DIMSTYLE
 70
    31
  0
DIMSTYLE
  2
STANDARD
 70
     0
  3

  4

  5

  6

  7

 40
1.0
 41
0.18
 42
0.0625
 43
0.38
 44
0.18
 45
0.0
 46
0.0
 47
0.0
 48
0.0
140
0.18
141
0.09
142
0.0
143
25.3999999999999986
144
1.0
145
0.0
146
1.0
147
0.09
 71
     0
 72
     0
 73
     1
 74
     1
 75
     0
 76
     0
 77
     0
 78
     0
170
     0
171
     2
172
     0
173
     0
174
     0
175
     0
176
     0
177
     0
178
     0
  0
DIMSTYLE
  2
BIGT
 70
     0
  3

  4

  5

  6

  7

 40
1.0
 41
2.2299999999999991
 42
0.5
 43
7.0
 44
1.0
 45
0.0
 46
0.0
 47
0.0
 48
0.01
140
2.799999999999998
141
0.0
142
0.0
143
25.3999999999999986
144
1.0
145
0.0
146
1.0
147
1.0
 71
     0
 72
     0
 73
     0
 74
     0
 75
     0
 76
     0
 77
     3
 78
     9
170
     0
171
     2
172
     1
173
     0
174
     1
175
     0
176
   256
177
   256
178
    40
  0
DIMSTYLE
  2
AM_ANSI
 70
     0
  3

  4
mm
  5

  6

  7

 40
1.0
 41
0.12
 42
0.05
 43
0.5
 44
0.1
 45
0.0
 46
0.0
 47
0.1
 48
0.1
140
0.12
141
0.0
142
0.0
143
25.3999999999999986
144
1.0
145
0.0
146
0.71
147
0.06
 71
     0
 72
     0
 73
     1
 74
     1
 75
     0
 76
     0
 77
     0
 78
     7
170
     0
171
     2
172
     0
173
     0
174
     0
175
     0
176
   256
177
   256
178
     2
  0
DIMSTYLE
  2
AM_ANSI$3
 70
     0
  3

  4
mm
  5

  6

  7

 40
1.0
 41
0.12
 42
0.05
 43
0.5
 44
0.1
 45
0.0
 46
0.0
 47
0.1
 48
0.1
140
0.12
141
0.0
142
0.0
143
25.3999999999999986
144
1.0
145
0.0
146
0.71
147
0.06
 71
     0
 72
     0
 73
     1
 74
     1
 75
     0
 76
     0
 77
     0
 78
     7
170
     0
171
     2
172
     0
173
     0
174
     0
175
     0
176
   256
177
   256
178
     2
  0
DIMSTYLE
  2
AM_ANSI$4
 70
     0
  3

  4
mm
  5

  6

  7

 40
1.0
 41
0.12
 42
0.05
 43
0.5
 44
0.1
 45
0.0
 46
0.0
 47
0.1
 48
0.1
140
0.12
141
0.0
142
0.0
143
25.3999999999999986
144
1.0
145
0.0
146
0.71
147
0.06
 71
     0
 72
     0
 73
     1
 74
     1
 75
     0
 76
     0
 77
     0
 78
     7
170
     0
171
     2
172
     0
173
     0
174
     0
175
     0
176
   256
177
   256
178
     2
  0
DIMSTYLE
  2
AM_ANSI$7
 70
     0
  3

  4
mm
  5

  6

  7

 40
1.0
 41
0.12
 42
0.05
 43
0.5
 44
0.1
 45
0.0
 46
0.0
 47
0.1
 48
0.1
140
0.12
141
0.0
142
0.0
143
25.3999999999999986
144
1.0
145
0.0
146
0.71
147
0.06
 71
     0
 72
     0
 73
     1
 74
     1
 75
     0
 76
     0
 77
     0
 78
     7
170
     0
171
     2
172
     0
173
     0
174
     0
175
     0
176
   256
177
   256
178
     2
  0
DIMSTYLE
  2
AM_ANSI$SF
 70
     0
  3

  4
mm
  5

  6

  7

 40
1.0
 41
0.12
 42
0.05
 43
0.5
 44
0.1
 45
0.0
 46
0.0
 47
0.1
 48
0.1
140
0.12
141
0.0
142
0.0
143
25.3999999999999986
144
1.0
145
0.0
146
0.71
147
0.06
 71
     0
 72
     0
 73
     1
 74
     1
 75
     1
 76
     1
 77
     0
 78
     7
170
     0
171
     2
172
     0
173
     0
174
     0
175
     0
176
   256
177
   256
178
     2
  0
DIMSTYLE
  2
AM_ANSI$SH
 70
     0
  3

  4
mm
  5

  6
GENAXEH
  7

 40
1.0
 41
0.12
 42
0.05
 43
0.5
 44
0.1
 45
0.0
 46
0.0
 47
0.1
 48
0.1
140
0.12
141
0.0
142
0.0
143
25.3999999999999986
144
1.0
145
0.0
146
0.71
147
0.06
 71
     0
 72
     0
 73
     1
 74
     1
 75
     1
 76
     1
 77
     0
 78
     7
170
     0
171
     2
172
     0
173
     1
174
     0
175
     0
176
   256
177
   256
178
     2
  0
ENDTAB
  0
ENDSEC
  0
SECTION
  2
BLOCKS
  0
BLOCK
  8
0
  2
$MODEL_SPACE
 70
     0
 10
0.0
 20
0.0
 30
0.0
  3
$MODEL_SPACE
  1

  0
ENDBLK
  5
45A6
  8
0
  0
BLOCK
 67
     1
  8
0
  2
$PAPER_SPACE
 70
     0
 10
0.0
 20
0.0
 30
0.0
  3
$PAPER_SPACE
  1

  0
ENDBLK
  5
45A2
 67
     1
  8
0
  0
BLOCK
  8
0
  2
_OPEN
 70
     0
 10
0.0
 20
0.0
 30
0.0
  3
_OPEN
  1

  0
LINE
  5
4433
  8
0
  6
BYBLOCK
 62
     0
 10
-1.0
 20
0.1666666666666666
 30
0.0
 11
0.0
 21
0.0
 31
0.0
  0
LINE
  5
4434
  8
0
  6
BYBLOCK
 62
     0
 10
-1.0
 20
-0.1666666666666666
 30
0.0
 11
0.0
 21
0.0
 31
0.0
  0
LINE
  5
4435
  8
0
  6
BYBLOCK
 62
     0
 10
0.0
 20
0.0
 30
0.0
 11
-1.0
 21
0.0
 31
0.0
  0
ENDBLK
  5
4436
  8
0
  0
BLOCK
  8
0
  2
GENAXEH
 70
     0
 10
0.0
 20
0.0
 30
0.0
  3
GENAXEH
  1

  0
LINE
  5
446E
  8
0
 10
-1.0
 20
0.0
 30
0.0
 11
1.0
 21
0.0
 31
0.0
  0
ENDBLK
  5
446F
  8
0
  0
BLOCK
  8
0
  2
_ACMFILLEDHALF
 70
     0
 10
0.0
 20
0.0
 30
0.0
  3
_ACMFILLEDHALF
  1

  0
TRACE
  5
4666
  8
240
 62
     0
 10
-0.8
 20
0.0
 30
0.0
 11
-1.0
 21
0.166666666
 31
0.0
 12
0.0
 22
0.0
 32
0.0
 13
0.0
 23
0.0
 33
0.0
  0
LINE
  5
4667
  8
240
 62
     0
 10
-1.0
 20
0.0
 30
0.0
 11
-0.8
 21
0.0
 31
0.0
  0
ENDBLK
  5
4665
  8
0
  0
ENDSEC
  0
SECTION
  2
ENTITIES
  0
LINE
  5
424A
  8
245
  6
CENTER2
 10
-33.0000000000000497
 20
0.0
 30
0.0
 11
95.1851231158241262
 21
0.0
 31
0.0
1001
GRPNAME
1000
PASTMD2U
  0
LINE
  5
424B
  8
241
  6
CONTINUOUS
 10
14.6225009299999709
 20
31.5
 30
0.0
 11
14.6225009299999709
 21
24.3361870500000386
 31
0.0
1001
GRPNAME
1000
PASTMD2W
  0
LINE
  5
424C
  8
240
  6
CONTINUOUS
 10
16.1249999999999716
 20
28.8975952599999992
 30
0.0
 11
14.6225009299999709
 21
31.5
 31
0.0
1001
GRPNAME
1000
PASTMD2W
  0
LINE
  5
424D
  8
240
  6
CONTINUOUS
 10
19.8749999999999716
 20
28.8975952599999992
 30
0.0
 11
21.3774990699999705
 21
31.5
 31
0.0
1001
GRPNAME
1000
PASTMD2W
  0
LINE
  5
424E
  8
240
  6
CONTINUOUS
 10
-0.0000000000000284
 20
24.3150000002078812
 30
0.0
 11
0.0000000000000284
 21
31.4999999999998899
 31
0.0
1001
GRPNAME
1000
PASTMD2W
  0
LINE
  5
424F
  8
243
  6
HIDDEN2
 10
4.999999999999968
 20
31.5
 30
0.0
 11
4.999999999999968
 21
26.5
 31
0.0
1001
GRPNAME
1000
PASTMD2W
  0
LINE
  5
4250
  8
240
  6
CONTINUOUS
 10
26.0000000000000284
 20
25.0000000000000604
 30
0.0
 11
25.9999999999994102
 21
31.4999999999995985
 31
0.0
1001
GRPNAME
1000
PASTMD2W
  0
LINE
  5
4251
  8
241
  6
CONTINUOUS
 10
21.3774990699999705
 20
31.5
 30
0.0
 11
21.3774990699999705
 21
24.3361870500000386
 31
0.0
1001
GRPNAME
1000
PASTMD2W
  0
LINE
  5
4252
  8
240
  6
CONTINUOUS
 10
-0.0000000000000284
 20
24.3150000002078812
 30
0.0
 11
-32.0000000000001208
 21
22.7149999968813212
 31
0.0
1001
GRPNAME
1000
PASTMD2W
  0
LINE
  5
4253
  8
240
  6
CONTINUOUS
 10
-0.0000000000000284
 20
-24.3150000002078812
 30
0.0
 11
-32.0000000000000497
 21
-22.7149999968814917
 31
0.0
1001
GRPNAME
1000
PASTMD2W
  0
LINE
  5
4254
  8
240
  6
CONTINUOUS
 10
-32.0000000000000497
 20
-22.7149999968814917
 30
0.0
 11
-32.0000000000000497
 21
22.7149999968813212
 31
0.0
1001
GRPNAME
1000
PASTMD2W
  0
LINE
  5
4255
  8
241
  6
CONTINUOUS
 10
-0.0000000000000284
 20
-24.3150000002078812
 30
0.0
 11
0.0
 21
24.3150000002078492
 31
0.0
1001
GRPNAME
1000
PASTMD2W
  0
LINE
  5
4256
  8
241
  6
CONTINUOUS
 10
25.9999999999999716
 20
-25.0000000000002487
 30
0.0
 11
25.9999999999999716
 21
25.0000000000000604
 31
0.0
  0
LINE
  5
4257
  8
241
  6
CONTINUOUS
 10
14.6225009299999709
 20
20.0
 30
0.0
 11
14.6225009299999709
 21
-31.5
 31
0.0
1001
GRPNAME
1000
PASTMD2W
  0
LINE
  5
4258
  8
241
  6
CONTINUOUS
 10
21.3774990699999385
 20
20.0
 30
0.0
 11
21.3774990699999705
 21
-31.5
 31
0.0
1001
GRPNAME
1000
PASTMD2W
  0
LINE
  5
4259
  8
241
  6
CONTINUOUS
 10
16.1249999999999716
 20
-27.5
 30
0.0
 11
16.1249999999999716
 21
27.5
 31
0.0
1001
GRPNAME
1000
PASTMD2W
  0
LINE
  5
425A
  8
241
  6
CONTINUOUS
 10
19.8749999999999716
 20
-27.5
 30
0.0
 11
19.8749999999999716
 21
27.5
 31
0.0
1001
GRPNAME
1000
PASTMD2W
  0
LINE
  5
425B
  8
243
  6
HIDDEN2
 10
25.9999999999999716
 20
-26.5
 30
0.0
 11
4.999999999999968
 21
-26.5
 31
0.0
1001
GRPNAME
1000
PASTMD2W
  0
LINE
  5
425C
  8
240
  6
CONTINUOUS
 10
14.6225009299999709
 20
-31.5
 30
0.0
 11
0.0000000000000284
 21
-31.4999999999998614
 31
0.0
1001
GRPNAME
1000
PASTMD2W
  0
LINE
  5
425D
  8
243
  6
HIDDEN2
 10
4.999999999999968
 20
-31.5
 30
0.0
 11
4.999999999999968
 21
-26.5
 31
0.0
1001
GRPNAME
1000
PASTMD2W
  0
LINE
  5
425E
  8
240
  6
CONTINUOUS
 10
-0.0000000000000284
 20
-24.3150000002078812
 30
0.0
 11
0.0000000000000284
 21
-31.4999999999998614
 31
0.0
1001
GRPNAME
1000
PASTMD2W
  0
LINE
  5
425F
  8
240
  6
CONTINUOUS
 10
19.8749999999999716
 20
-27.5
 30
0.0
 11
16.1249999999999716
 21
-27.5
 31
0.0
1001
GRPNAME
1000
PASTMD2W
  0
LINE
  5
4260
  8
240
  6
CONTINUOUS
 10
16.1249999999999716
 20
-27.5
 30
0.0
 11
16.1249999999999716
 21
-28.8975952599999992
 31
0.0
1001
GRPNAME
1000
PASTMD2W
  0
LINE
  5
4261
  8
240
  6
CONTINUOUS
 10
16.1249999999999716
 20
-28.8975952599999992
 30
0.0
 11
14.6225009299999709
 21
-31.5
 31
0.0
1001
GRPNAME
1000
PASTMD2W
  0
LINE
  5
4262
  8
240
  6
CONTINUOUS
 10
25.9999999999995204
 20
-25.0000000000003091
 30
0.0
 11
25.9999999999997513
 21
-31.4999999999994884
 31
0.0
1001
GRPNAME
1000
PASTMD2W
  0
LINE
  5
4263
  8
240
  6
CONTINUOUS
 10
19.8749999999999716
 20
-27.5
 30
0.0
 11
19.8749999999999716
 21
-28.8975952599999992
 31
0.0
1001
GRPNAME
1000
PASTMD2W
  0
LINE
  5
4264
  8
240
  6
CONTINUOUS
 10
25.9999999999997513
 20
-31.4999999999994884
 30
0.0
 11
21.3774990699999705
 21
-31.5
 31
0.0
1001
GRPNAME
1000
PASTMD2W
  0
LINE
  5
4265
  8
240
  6
CONTINUOUS
 10
19.8749999999999716
 20
-28.8975952599999992
 30
0.0
 11
21.3774990699999705
 21
-31.5
 31
0.0
1001
GRPNAME
1000
PASTMD2W
  0
LINE
  5
4266
  8
243
  6
HIDDEN2
 10
25.9999999999999716
 20
26.5
 30
0.0
 11
4.999999999999968
 21
26.5
 31
0.0
1001
GRPNAME
1000
PASTMD2W
  0
ARC
  5
4267
  8
241
  6
CONTINUOUS
 10
12.1117138999999803
 20
16.3361870500000315
 30
0.0
 40
8.0
 50
89.9999999899997363
 51
152.743380680000314
1001
GRPNAME
1000
PASTMD2W
  0
LINE
  5
4268
  8
241
  6
CONTINUOUS
 10
16.1249999999999716
 20
20.0
 30
0.0
 11
4.999999999999968
 21
20.0
 31
0.0
1001
GRPNAME
1000
PASTMD2W
  0
LINE
  5
4269
  8
240
  6
CONTINUOUS
 10
19.8749999999999716
 20
27.5
 30
0.0
 11
16.1249999999999716
 21
27.5
 31
0.0
1001
GRPNAME
1000
PASTMD2W
  0
LINE
  5
426A
  8
241
  6
CONTINUOUS
 10
14.6225009299999709
 20
24.3361870500000386
 30
0.0
 11
16.1249999999999716
 21
20.8583559300000196
 31
0.0
1001
GRPNAME
1000
PASTMD2W
  0
LINE
  5
426B
  8
241
  6
CONTINUOUS
 10
14.6225009299999709
 20
24.3361870500000386
 30
0.0
 11
12.1117138999999803
 21
24.3361870500000386
 31
0.0
1001
GRPNAME
1000
PASTMD2W
  0
LINE
  5
426C
  8
240
  6
CONTINUOUS
 10
16.1249999999999716
 20
27.5
 30
0.0
 11
16.1249999999999716
 21
28.8975952599999992
 31
0.0
1001
GRPNAME
1000
PASTMD2W
  0
LINE
  5
426D
  8
241
  6
CONTINUOUS
 10
21.3774990699999705
 20
24.3361870500000386
 30
0.0
 11
19.8749999999999716
 21
20.8583559300000196
 31
0.0
1001
GRPNAME
1000
PASTMD2W
  0
LINE
  5
426E
  8
241
  6
CONTINUOUS
 10
25.9999999999999716
 20
20.0
 30
0.0
 11
19.8749999999999716
 21
20.0
 31
0.0
1001
GRPNAME
1000
PASTMD2W
  0
LINE
  5
426F
  8
241
  6
CONTINUOUS
 10
25.9999999999999716
 20
24.3361870500000386
 30
0.0
 11
21.3774990699999705
 21
24.3361870500000386
 31
0.0
1001
GRPNAME
1000
PASTMD2W
  0
LINE
  5
4270
  8
240
  6
CONTINUOUS
 10
19.8749999999999716
 20
27.5
 30
0.0
 11
19.8749999999999716
 21
28.8975952599999992
 31
0.0
1001
GRPNAME
1000
PASTMD2W
  0
LINE
  5
4271
  8
240
  6
CONTINUOUS
 10
14.6225009299999709
 20
31.5
 30
0.0
 11
0.0000000000000284
 21
31.4999999999998899
 31
0.0
1001
GRPNAME
1000
PASTMD2W
  0
LINE
  5
4272
  8
240
  6
CONTINUOUS
 10
25.9999999999994102
 20
31.4999999999995985
 30
0.0
 11
21.3774990699999705
 21
31.5
 31
0.0
1001
GRPNAME
1000
PASTMD2W
  0
LINE
  5
4273
  8
243
  6
HIDDEN2
 10
-18.996025403784671
 20
-17.0000000000001101
 30
0.0
 11
-32.0000000000000924
 21
-17.0000000000001101
 31
0.0
1001
GRPNAME
1000
PASTMD2W
  0
LINE
  5
4274
  8
243
  6
HIDDEN2
 10
-22.0000000000001386
 20
-23.2150000000002485
 30
0.0
 11
-22.0000000000001386
 21
-17.0000000000001101
 31
0.0
1001
GRPNAME
1000
PASTMD2W
  0
LINE
  5
4275
  8
243
  6
HIDDEN2
 10
-6.2449979983984178
 20
-20.0000000000001101
 30
0.0
 11
-17.2639745962157214
 21
-20.0
 31
0.0
1001
GRPNAME
1000
PASTMD2W
  0
LINE
  5
4276
  8
243
  6
HIDDEN2
 10
-18.996025403784671
 20
-17.0000000000001101
 30
0.0
 11
-17.2639745962157214
 21
-20.0
 31
0.0
1001
GRPNAME
1000
PASTMD2W
  0
LINE
  5
4277
  8
245
  6
CENTER2
 10
-8.9999999999999112
 20
-18.0000000000001101
 30
0.0
 11
-8.9999999999999112
 21
-25.86500000000024
 31
0.0
  0
LINE
  5
4278
  8
243
  6
HIDDEN2
 10
-12.7499999999999094
 20
-20.0000000000001101
 30
0.0
 11
-12.7499999999999094
 21
-23.67750000000024
 31
0.0
  0
ARC
  5
4279
  8
243
  6
HIDDEN2
 10
-6.2449979983984178
 20
-12.0
 30
0.0
 40
8.0000000000001101
 50
269.9999999614140052
 51
321.3178125079219853
1001
GRPNAME
1000
PASTMD2W
  0
LINE
  5
427A
  8
243
  6
HIDDEN2
 10
-5.2499999999999121
 20
-20.0000000000001101
 30
0.0
 11
-5.2499999999999121
 21
-24.05250000000024
 31
0.0
  0
LINE
  5
427B
  8
243
  6
HIDDEN2
 10
-18.9960254037845608
 20
17.0
 30
0.0
 11
-31.9999999999998899
 21
17.0
 31
0.0
1001
GRPNAME
1000
PASTMD2W
  0
LINE
  5
427C
  8
243
  6
HIDDEN2
 10
-25.9999999999999183
 20
23.0149999999998691
 30
0.0
 11
-25.9999999999999183
 21
17.0
 31
0.0
1001
GRPNAME
1000
PASTMD2W
  0
ARC
  5
427D
  8
243
  6
HIDDEN2
 10
-6.2449979983984178
 20
12.0
 30
0.0
 40
7.9999999999998144
 50
38.6821872016452986
 51
89.999999748157876
1001
GRPNAME
1000
PASTMD2W
  0
LINE
  5
427E
  8
243
  6
HIDDEN2
 10
-18.9960254037845608
 20
17.0
 30
0.0
 11
-17.2639745962147799
 21
20.0000000000000604
 31
0.0
1001
GRPNAME
1000
PASTMD2W
  0
LINE
  5
427F
  8
245
  6
CENTER2
 10
-8.9999999999999112
 20
25.8649999999997888
 30
0.0
 11
-8.9999999999999112
 21
18.0
 31
0.0
  0
LINE
  5
4280
  8
243
  6
HIDDEN2
 10
-6.2449979983983042
 20
20.0
 30
0.0
 11
-17.2639745962147799
 21
20.0000000000000604
 31
0.0
1001
GRPNAME
1000
PASTMD2W
  0
LINE
  5
4281
  8
243
  6
HIDDEN2
 10
-12.7499999999999094
 20
23.6774999999997888
 30
0.0
 11
-12.7499999999999094
 21
20.0
 31
0.0
  0
LINE
  5
4282
  8
243
  6
HIDDEN2
 10
-5.2499999999999121
 20
24.0524999999997888
 30
0.0
 11
-5.2499999999999121
 21
20.0
 31
0.0
  0
LINE
  5
4283
  8
240
  6
CONTINUOUS
 10
25.9999999999999716
 20
-25.0000000000002487
 30
0.0
 11
33.9999999999999716
 21
-25.0000000000004015
 31
0.0
  0
LINE
  5
4284
  8
240
  6
CONTINUOUS
 10
25.9999999999999716
 20
25.0000000000000604
 30
0.0
 11
33.9999999999995808
 21
25.0000000000004015
 31
0.0
  0
LINE
  5
4285
  8
247
  6
CONTINUOUS
 10
6.499999999999968
 20
-17.2500000000700311
 30
0.0
 11
6.499999999999968
 21
-10.5576923080300293
 31
0.0
  0
ARC
  5
4286
  8
247
  6
CONTINUOUS
 10
4.7500000000699441
 20
-17.2500000000700311
 30
0.0
 40
1.7499999999299991
 50
180.0
 51
0.0
  0
ARC
  5
4287
  8
247
  6
CONTINUOUS
 10
4.7500000000699441
 20
-10.5576923080300293
 30
0.0
 40
1.7499999999299991
 50
0.0
 51
180.0
  0
LINE
  5
4288
  8
247
  6
CONTINUOUS
 10
3.000000000139976
 20
-16.38461538472
 30
0.0
 11
6.0000000000199769
 21
-17.2448515419620207
 31
0.0
  0
LINE
  5
4289
  8
247
  6
CONTINUOUS
 10
4.4230769231599822
 20
-15.4849838183358202
 30
0.0
 11
4.4230769231599822
 21
-16.7926761259758415
 31
0.0
  0
ARC
  5
428A
  8
247
  6
CONTINUOUS
 10
3.5495986677029521
 20
-15.1451438160897798
 30
0.0
 40
0.5538165441895349
 50
72.9978896752917734
 51
172.9241662185135908
  0
ARC
  5
428B
  8
247
  6
CONTINUOUS
 10
3.4360330444657441
 20
-15.5668783230287904
 30
0.0
 40
0.9904354236226808
 50
4.7429368522022122
 51
73.8492262732662965
1001
GENIUS_GENOBJ-N-FIL_13
1002
{
1000
OWNER
1000
GEN
1002
}
1001
GENIUS_GENODEF_13
1002
{
1000
HIER
1070
     0
1002
}
1002
{
1000
MANEDIT
1070
     0
1002
}
1002
{
1000
NOSEL
1070
     0
1002
}
1002
{
1000
BEHIND
1070
     0
1002
}
1002
{
1000
OTHER
1070
     0
1002
}
1002
{
1000
REACTOR
1002
}
  0
LINE
  5
428C
  8
247
  6
CONTINUOUS
 10
6.0000000000199769
 20
-15.9371592343219906
 30
0.0
 11
6.0000000000199769
 21
-17.2448515419620207
 31
0.0
  0
LINE
  5
428D
  8
247
  6
CONTINUOUS
 10
3.000000000139976
 20
-16.38461538472
 30
0.0
 11
3.000000000139976
 21
-15.0769230770799805
 31
0.0
  0
ARC
  5
428E
  8
247
  6
CONTINUOUS
 10
4.9820242326655091
 20
-15.5609196365469398
 30
0.0
 40
0.5640818586791229
 50
65.990941652528889
 51
172.2634434590690944
  0
ARC
  5
428F
  8
247
  6
CONTINUOUS
 10
4.9874290391865372
 20
-16.0382626853470285
 30
0.0
 40
1.0176059446230981
 50
5.7019851642564632
 51
77.2773384368223759
1001
GENIUS_GENOBJ-N-FIL_13
1002
{
1000
OWNER
1000
GEN
1002
}
1001
GENIUS_GENODEF_13
1002
{
1000
HIER
1070
     0
1002
}
1002
{
1000
MANEDIT
1070
     0
1002
}
1002
{
1000
NOSEL
1070
     0
1002
}
1002
{
1000
BEHIND
1070
     0
1002
}
1002
{
1000
OTHER
1070
     0
1002
}
1002
{
1000
REACTOR
1002
}
  0
LINE
  5
4290
  8
247
  6
CONTINUOUS
 10
6.0000000000199769
 20
-14.2833130805420296
 30
0.0
 11
3.000000000139976
 21
-13.4230769233000107
 31
0.0
  0
LINE
  5
4291
  8
247
  6
CONTINUOUS
 10
3.000000000139976
 20
-11.0000000003200302
 30
0.0
 11
3.000000000139976
 21
-11.5657366194566293
 31
0.0
  0
LINE
  5
4292
  8
247
  6
CONTINUOUS
 10
6.0000000000199769
 20
-12.4615384617999894
 30
0.0
 11
6.0000000000199769
 21
-11.8461538464400107
 31
0.0
  0
ARC
  5
4293
  8
247
  6
CONTINUOUS
 10
5.0832851359733411
 20
-10.7087912091228592
 30
0.0
 40
2.2526500823422122
 50
202.3594881415255884
 51
254.9932485428460893
  0
ARC
  5
4294
  8
247
  6
CONTINUOUS
 10
3.808312655194495
 20
-11.3740694792132295
 30
0.0
 40
0.8906723995727782
 50
94.9945893190753168
 51
155.1663289573039037
1001
GENIUS_GENOBJ-N-FIL_13
1002
{
1000
OWNER
1000
GEN
1002
}
1001
GENIUS_GENODEF_13
1002
{
1000
HIER
1070
     0
1002
}
1002
{
1000
MANEDIT
1070
     0
1002
}
1002
{
1000
NOSEL
1070
     0
1002
}
1002
{
1000
BEHIND
1070
     0
1002
}
1002
{
1000
OTHER
1070
     0
1002
}
1002
{
1000
REACTOR
1002
}
  0
ARC
  5
4295
  8
247
  6
CONTINUOUS
 10
4.6601458886677563
 20
-12.2264588862125798
 30
0.0
 40
1.392781735586712
 50
15.8460965557772209
 51
82.3251370041690649
  0
ARC
  5
4296
  8
247
  6
CONTINUOUS
 10
4.9592434315272547
 20
-11.6422127258403503
 30
0.0
 40
1.324563662670287
 50
249.7136016704968995
 51
321.7887456564068884
1001
GENIUS_GENOBJ-N-FIL_13
1002
{
1000
OWNER
1000
GEN
1002
}
1001
GENIUS_GENODEF_13
1002
{
1000
HIER
1070
     0
1002
}
1002
{
1000
MANEDIT
1070
     0
1002
}
1002
{
1000
NOSEL
1070
     0
1002
}
1002
{
1000
BEHIND
1070
     0
1002
}
1002
{
1000
OTHER
1070
     0
1002
}
1002
{
1000
REACTOR
1002
}
  0
LINE
  5
4297
  8
247
  6
CONTINUOUS
 10
4.8461538462199449
 20
-11.5384615387599698
 30
0.0
 11
4.8461538462199449
 21
-10.8461538464799805
 31
0.0
  0
LINE
  5
4298
  8
250
  6
CONTINUOUS
 10
-18.4368727750732013
 20
-25.2104033171059996
 30
0.0
 11
-17.0
 21
-23.4650000000000283
 31
0.0
  0
LINE
  5
4299
  8
250
  6
CONTINUOUS
 10
-17.7931272249267884
 20
-25.5820699837726693
 30
0.0
 11
-17.0
 21
-23.4650000000000283
 31
0.0
  0
LINE
  5
429A
  8
250
  6
CONTINUOUS
 10
-17.0
 20
-23.4650000000000283
 30
0.0
 11
-18.1149999999999984
 21
-25.3962366504393309
 31
0.0
  0
LINE
  5
429B
  8
250
  6
CONTINUOUS
 10
-18.1149999999999984
 20
-25.3962366504393309
 30
0.0
 11
-23.5722232031185115
 21
-34.8484245064843208
 31
0.0
  0
TEXT
  5
429C
  8
250
  6
CONTINUOUS
 10
-45.5722232031184973
 20
-33.8484245064843208
 30
0.0
 40
2.799999999999998
  1
HSK-A63
  7
YOKO
1001
ITEMNAME
1000
LNSP3
  0
LINE
  5
429D
  8
250
  6
CONTINUOUS
 10
-23.5722232031185115
 20
-34.8484245064843208
 30
0.0
 11
-47.8388898697851275
 21
-34.8484245064843208
 31
0.0
1001
ITEMNAME
1000
LNSP2
  0
LINE
  5
429E
  8
247
  6
CONTINUOUS
 10
3.0000000001399481
 20
-17.2500000000700311
 30
0.0
 11
3.0000000001399481
 21
-16.5769230770200089
 31
0.0
  0
LINE
  5
42AE
  8
240
  6
CONTINUOUS
 10
92.9999999999999858
 20
19.5
 30
0.0
 11
36.0000000000008882
 21
19.5
 31
0.0
1001
GRPNAME
1000
PASTMD0R
  0
LINE
  5
42AF
  8
240
  6
CONTINUOUS
 10
92.9999999999999858
 20
-19.5
 30
0.0
 11
36.0000000000000071
 21
-19.5
 31
0.0
1001
GRPNAME
1000
PASTMD0R
  0
LINE
  5
42B0
  8
240
  6
CONTINUOUS
 10
92.9999999999999858
 20
-19.5
 30
0.0
 11
92.9999999999999858
 21
19.5
 31
0.0
1001
GRPNAME
1000
PASTMD0R
  0
LINE
  5
42B1
  8
243
  6
HIDDEN2
 10
67.0000000000000142
 20
10.9999999999997708
 30
0.0
 11
93.0
 21
11.0
 31
0.0
1001
GRPNAME
1000
PASTMD0R
  0
LINE
  5
42B3
  8
240
  6
CONTINUOUS
 10
33.9999999999995808
 20
25.0000000000004015
 30
0.0
 11
34.0000000000009095
 21
21.4999999999992291
 31
0.0
  0
ARC
  5
42E1
  8
240
  6
CONTINUOUS
 10
36.0000000000009095
 20
21.5
 30
0.0
 40
2.0
 50
180.0000000000217142
 51
270.0
1001
GRPNAME
1000
PASTMD0R
1001
GENIUS_GENODEF_13
1002
{
1000
HIER
1070
     0
1002
}
1002
{
1000
MANEDIT
1070
     0
1002
}
1002
{
1000
NOSEL
1070
     0
1002
}
1002
{
1000
BEHIND
1070
     0
1002
}
1002
{
1000
OTHER
1070
     0
1002
}
1002
{
1000
REACTOR
1002
}
1001
GENIUS_GENOBJ-N-FIL_13
1002
{
1000
OWNER
1000
GEN
1002
}
  0
ARC
  5
42E3
  8
240
  6
CONTINUOUS
 10
36.0000000000000071
 20
-21.5000000000006111
 30
0.0
 40
2.0
 50
89.9999999999976126
 51
179.9999999999758984
1001
GRPNAME
1000
PASTMD0R
1001
GENIUS_GENODEF_13
1002
{
1000
HIER
1070
     0
1002
}
1002
{
1000
MANEDIT
1070
     0
1002
}
1002
{
1000
NOSEL
1070
     0
1002
}
1002
{
1000
BEHIND
1070
     0
1002
}
1002
{
1000
OTHER
1070
     0
1002
}
1002
{
1000
REACTOR
1002
}
1001
GENIUS_GENOBJ-N-FIL_13
1002
{
1000
OWNER
1000
GEN
1002
}
  0
LINE
  5
42E4
  8
240
  6
CONTINUOUS
 10
33.9999999999985505
 20
-25.0000000000009202
 30
0.0
 11
34.0000000000000071
 21
-21.4999999999997691
 31
0.0
  0
LINE
  5
42EB
  8
241
  6
CONTINUOUS
 10
34.0
 20
-21.4999999999997691
 30
0.0
 11
34.0000000000009095
 21
21.4999999999992291
 31
0.0
  0
LINE
  5
42EC
  8
243
  6
HIDDEN2
 10
67.0000000000000142
 20
-10.9999999999997708
 30
0.0
 11
93.0
 21
-11.0
 31
0.0
1001
GRPNAME
1000
PASTMD0R
  0
TEXT
  5
4314
  8
241
  6
CONTINUOUS
 10
-32.0000000000000071
 20
56.0
 30
0.0
 40
5.0
  1
HSK-A63-CKB4-93
  7
YOKO
 11
-32.0000000000000071
 21
56.0
 31
0.0
 73
     1
1001
GRPNAME
1000
PASTMD0I
  0
LINE
  5
4315
  8
250
  6
CONTINUOUS
 10
-0.0000000000000142
 20
32.0
 30
0.0
 11
-0.0000000000000135
 21
43.0
 31
0.0
  0
LINE
  5
4316
  8
250
  6
CONTINUOUS
 10
92.9999999999999858
 20
20.0
 30
0.0
 11
92.9999999999999858
 21
43.0
 31
0.0
  0
LINE
  5
4317
  8
250
  6
CONTINUOUS
 10
2.229999999999984
 20
42.0
 30
0.0
 11
90.7699999999999818
 21
42.0
 31
0.0
  0
LINE
  5
4318
  8
250
  6
CONTINUOUS
 10
2.229999999999984
 20
41.6283333333333303
 30
0.0
 11
-0.0000000000000136
 21
42.0
 31
0.0
  0
LINE
  5
4319
  8
250
  6
CONTINUOUS
 10
2.229999999999984
 20
42.3716666666666626
 30
0.0
 11
-0.0000000000000136
 21
42.0
 31
0.0
  0
LINE
  5
431A
  8
250
  6
CONTINUOUS
 10
-0.0000000000000136
 20
42.0
 30
0.0
 11
2.229999999999984
 21
42.0
 31
0.0
  0
LINE
  5
431B
  8
250
  6
CONTINUOUS
 10
90.7699999999999818
 20
42.3716666666666626
 30
0.0
 11
92.9999999999999858
 21
42.0
 31
0.0
  0
LINE
  5
431C
  8
250
  6
CONTINUOUS
 10
90.7699999999999818
 20
41.6283333333333303
 30
0.0
 11
92.9999999999999858
 21
42.0
 31
0.0
  0
LINE
  5
431D
  8
250
  6
CONTINUOUS
 10
92.9999999999999858
 20
42.0
 30
0.0
 11
90.7699999999999818
 21
42.0
 31
0.0
  0
TEXT
  5
431E
  8
250
  6
CONTINUOUS
 10
43.8333333333333002
 20
43.0
 30
0.0
 40
2.799999999999998
  1
93
1001
ACAD
1000
MTEXTBEGIN
1070
    73
1070
     1
1070
    44
1040
1.0
1070
    74
1070
     0
1000
MTEXTEND
  0
LINE
  5
431F
  8
250
  6
CONTINUOUS
 10
93.4999999999999858
 20
-19.5
 30
0.0
 11
104.1429295100000019
 21
-19.5
 31
0.0
  0
LINE
  5
4320
  8
250
  6
CONTINUOUS
 10
93.4999999999999858
 20
19.5
 30
0.0
 11
104.1429295100000019
 21
19.5
 31
0.0
  0
LINE
  5
4321
  8
250
  6
CONTINUOUS
 10
103.1429295100000019
 20
-17.2699999999999996
 30
0.0
 11
103.1429295100000019
 21
17.2699999999999996
 31
0.0
  0
LINE
  5
4322
  8
250
  6
CONTINUOUS
 10
103.5145961766666005
 20
-17.2699999999999996
 30
0.0
 11
103.1429295100000019
 21
-19.5
 31
0.0
  0
LINE
  5
4323
  8
250
  6
CONTINUOUS
 10
102.7712628433333037
 20
-17.2699999999999996
 30
0.0
 11
103.1429295100000019
 21
-19.5
 31
0.0
  0
LINE
  5
4324
  8
250
  6
CONTINUOUS
 10
103.1429295100000019
 20
-19.5
 30
0.0
 11
103.1429295100000019
 21
-17.2699999999999996
 31
0.0
  0
LINE
  5
4325
  8
250
  6
CONTINUOUS
 10
102.7712628433333037
 20
17.2699999999999996
 30
0.0
 11
103.1429295100000019
 21
19.5
 31
0.0
  0
LINE
  5
4326
  8
250
  6
CONTINUOUS
 10
103.5145961766666005
 20
17.2699999999999996
 30
0.0
 11
103.1429295100000019
 21
19.5
 31
0.0
  0
LINE
  5
4327
  8
250
  6
CONTINUOUS
 10
103.1429295100000019
 20
19.5
 30
0.0
 11
103.1429295100000019
 21
17.2699999999999996
 31
0.0
  0
TEXT
  5
4328
  8
250
  6
CONTINUOUS
 10
102.1429295099999024
 20
-3.8666666666666489
 30
0.0
 40
2.799999999999998
  1
\U+2205
 50
90.0
1001
ACAD
1000
MTEXTBEGIN
1070
    73
1070
     1
1070
    44
1040
1.0
1070
    74
1070
     0
1000
MTEXTEND
  0
TEXT
  5
4329
  8
250
  6
CONTINUOUS
 10
102.1429295099999024
 20
-1.3333333333333171
 30
0.0
 40
2.799999999999998
  1
39
 50
90.0
1001
ACAD
1000
MTEXTBEGIN
1070
    73
1070
     1
1070
    44
1040
1.0
1070
    74
1070
     0
1000
MTEXTEND
  0
LINE
  5
432A
  8
250
  6
CONTINUOUS
 10
90.7409974245357773
 20
21.2454033175484511
 30
0.0
 11
89.3041246499999772
 21
19.5000000000000213
 31
0.0
  0
LINE
  5
432B
  8
250
  6
CONTINUOUS
 10
90.0972518742748889
 20
21.6170699840168901
 30
0.0
 11
89.3041246499999772
 21
19.5000000000000213
 31
0.0
  0
LINE
  5
432C
  8
250
  6
CONTINUOUS
 10
89.3041246499999772
 20
19.5000000000000213
 30
0.0
 11
90.4191246494053047
 21
21.4312366507826688
 31
0.0
  0
POLYLINE
  5
432D
  8
250
  6
CONTINUOUS
 66
     1
 10
0.0
 20
0.0
 30
0.0
1001
ACAD
1000
DSTYLE
1002
{
1070
     6
1000
OPEN
1002
}
  0
VERTEX
  5
452C
  8
250
  6
CONTINUOUS
 10
90.4191246494053047
 20
21.4312366507826688
 30
0.0
  0
VERTEX
  5
452D
  8
250
  6
CONTINUOUS
 10
99.0496229599999936
 20
36.379698230000038
 30
0.0
  0
SEQEND
  5
452E
  8
250
  6
CONTINUOUS
  0
LINE
  5
432E
  8
250
  6
CONTINUOUS
 10
99.0496229599999936
 20
36.379698230000038
 30
0.0
 11
112.2496229599999964
 21
36.379698230000038
 31
0.0
1001
ITEMNAME
1000
LNSP2
  0
TEXT
  5
432F
  8
250
  6
CONTINUOUS
 10
101.4496229599999992
 20
37.379698230000038
 30
0.0
 40
2.799999999999998
  1
CK4
  7
YOKO
1001
ITEMNAME
1000
LNSP3
1001
ACAD
1000
MTEXTBEGIN
1070
    73
1070
     1
1070
    44
1040
1.0
1070
    74
1070
     0
1000
MTEXTEND
  0
LINE
  5
4330
  8
245
  6
CENTER2
 10
82.9999999999999289
 20
5.0
 30
0.0
 11
82.9999999999999289
 21
-5.0
 31
0.0
  0
CIRCLE
  5
4331
  8
241
  6
CONTINUOUS
 10
82.9999999999999289
 20
0.0
 30
0.0
 40
4.0
  0
CIRCLE
  5
4332
  8
242
  6
CONTINUOUS
 10
82.9999999999999289
 20
0.0
 30
0.0
 40
3.5
  0
POLYLINE
  5
4333
  8
241
  6
CONTINUOUS
 66
     1
 10
0.0
 20
0.0
 30
0.0
 70
     1
  0
VERTEX
  5
452F
  8
241
  6
CONTINUOUS
 10
80.9999999999999858
 20
-1.1547005400000001
 30
0.0
  0
VERTEX
  5
4530
  8
241
  6
CONTINUOUS
 10
82.9999999999999289
 20
-2.3094010800000002
 30
0.0
  0
VERTEX
  5
4531
  8
241
  6
CONTINUOUS
 10
84.9999999999999858
 20
-1.1547005400000001
 30
0.0
  0
VERTEX
  5
4532
  8
241
  6
CONTINUOUS
 10
84.9999999999999858
 20
1.1547005400000001
 30
0.0
  0
VERTEX
  5
4533
  8
241
  6
CONTINUOUS
 10
82.9999999999999289
 20
2.3094010800000002
 30
0.0
  0
VERTEX
  5
4534
  8
241
  6
CONTINUOUS
 10
80.9999999999999858
 20
1.1547005400000001
 30
0.0
  0
SEQEND
  5
4535
  8
241
  6
CONTINUOUS
  0
VIEWPORT
  5
22
 67
     1
  8
0
 10
261.517699115044195
 20
148.5
 30
0.0
 40
523.0353982300885036
 41
297.0
 68
     1
 69
     1
1001
ACAD
1000
MVIEW
1002
{
1070
    16
1010
0.0
1020
0.0
1030
0.0
1010
0.0
1020
0.0
1030
1.0
1040
0.0
1040
297.0
1040
261.517699115044195
1040
148.5
1040
50.0
1040
0.0
1040
0.0
1070
     0
1070
   100
1070
     1
1070
     1
1070
     0
1070
     0
1070
     0
1070
     0
1040
0.0
1040
0.0
1040
0.0
1040
1.0
1040
1.0
1040
10.0
1040
10.0
1070
     0
1002
{
1002
}
1002
}
1001
GENIUS_GENODEF_13
1002
{
1000
HIER
1070
     0
1002
}
1002
{
1000
MANEDIT
1070
     0
1002
}
1002
{
1000
NOSEL
1070
     0
1002
}
1002
{
1000
BEHIND
1070
     0
1002
}
1002
{
1000
OTHER
1070
     0
1002
}
1002
{
1000
REACTOR
1002
}
1001
GENIUS_GENOBJ-N-SDF_13
1002
{
1000
OWNER
1000
GEN
1002
}
1001
GENIUS_GENSCREG_15
1000
PF
1040
1.0
1000
DF
1040
1.0
1000
MIN
1011
0.0
1021
0.0
1031
0.0
1021
0.0
1031
0.0
1000
MAX
1011
523.0353982300885036
1021
0.0
1031
0.0
1021
297.0
1031
0.0
1000
FLAGS
1070
     4
  0
ENDSEC
  0
EOF
